  0
SECTION
  2
HEADER
  9
$ACADVER
  1
AC1009
  9
$INSBASE
 10
0.0
 20
0.0
 30
0.0
  9
$EXTMIN
 10
0.0
 20
-2.960436562073669
 30
0.0
  9
$EXTMAX
 10
114.7969550776543
 20
60.982121558816999
 30
0.0
  9
$LIMMIN
 10
0.0
 20
0.0
  9
$LIMMAX
 10
187.5
 20
135.0
  9
$ORTHOMODE
 70
     1
  9
$REGENMODE
 70
     1
  9
$FILLMODE
 70
     1
  9
$QTEXTMODE
 70
     0
  9
$MIRRTEXT
 70
     0
  9
$DRAGMODE
 70
     2
  9
$LTSCALE
 40
5.0
  9
$OSMODE
 70
    55
  9
$ATTMODE
 70
     1
  9
$TEXTSIZE
 40
0.2
  9
$TRACEWID
 40
0.05
  9
$TEXTSTYLE
  7
STANDARD
  9
$CLAYER
  8
0
  9
$CELTYPE
  6
BYLAYER
  9
$CECOLOR
 62
   256
  9
$DIMSCALE
 40
0.5
  9
$DIMASZ
 40
3.0
  9
$DIMEXO
 40
2.0
  9
$DIMDLI
 40
0.38
  9
$DIMRND
 40
0.0
  9
$DIMDLE
 40
0.0
  9
$DIMEXE
 40
2.0
  9
$DIMTP
 40
0.0
  9
$DIMTM
 40
0.0
  9
$DIMTXT
 40
3.2000000000000002
  9
$DIMCEN
 40
0.0
  9
$DIMTSZ
 40
0.0
  9
$DIMTOL
 70
     0
  9
$DIMLIM
 70
     0
  9
$DIMTIH
 70
     0
  9
$DIMTOH
 70
     0
  9
$DIMSE1
 70
     0
  9
$DIMSE2
 70
     0
  9
$DIMTAD
 70
     1
  9
$DIMZIN
 70
     8
  9
$DIMBLK
  1

  9
$DIMASO
 70
     1
  9
$DIMSHO
 70
     0
  9
$DIMPOST
  1

  9
$DIMAPOST
  1

  9
$DIMALT
 70
     0
  9
$DIMALTD
 70
     2
  9
$DIMALTF
 40
25.399999999999999
  9
$DIMLFAC
 40
1.0
  9
$DIMTOFL
 70
     1
  9
$DIMTVP
 40
1.6000000000000001
  9
$DIMTIX
 70
     1
  9
$DIMSOXD
 70
     0
  9
$DIMSAH
 70
     0
  9
$DIMBLK1
  1

  9
$DIMBLK2
  1

  9
$DIMSTYLE
  2
STANDARD
  9
$DIMCLRD
 70
     0
  9
$DIMCLRE
 70
     0
  9
$DIMCLRT
 70
     0
  9
$DIMTFAC
 40
1.0
  9
$DIMGAP
 40
1.0
  9
$LUNITS
 70
     2
  9
$LUPREC
 70
     4
  9
$SKETCHINC
 40
0.1
  9
$FILLETRAD
 40
1.5
  9
$AUNITS
 70
     0
  9
$AUPREC
 70
     4
  9
$MENU
  1
E:\r13\win\SUPPORT\ACAD
  9
$ELEVATION
 40
0.0
  9
$PELEVATION
 40
0.0
  9
$THICKNESS
 40
0.0
  9
$LIMCHECK
 70
     0
  9
$BLIPMODE
 70
     0
  9
$CHAMFERA
 40
1.0
  9
$CHAMFERB
 40
1.0
  9
$SKPOLY
 70
     0
  9
$TDCREATE
 40
2449839.7895949078
  9
$TDUPDATE
 40
2456598.495537153
  9
$TDINDWG
 40
0.1612229977
  9
$TDUSRTIMER
 40
0.1612229977
  9
$USRTIMER
 70
     1
  9
$ANGBASE
 50
0.0
  9
$ANGDIR
 70
     0
  9
$PDMODE
 70
     0
  9
$PDSIZE
 40
0.0
  9
$PLINEWID
 40
0.0
  9
$COORDS
 70
     1
  9
$SPLFRAME
 70
     0
  9
$SPLINETYPE
 70
     6
  9
$SPLINESEGS
 70
     8
  9
$ATTDIA
 70
     0
  9
$ATTREQ
 70
     1
  9
$HANDLING
 70
     1
  9
$HANDSEED
  5
C08A
  9
$SURFTAB1
 70
     6
  9
$SURFTAB2
 70
     6
  9
$SURFTYPE
 70
     6
  9
$SURFU
 70
     6
  9
$SURFV
 70
     6
  9
$UCSNAME
  2

  9
$UCSORG
 10
0.0
 20
0.0
 30
0.0
  9
$UCSXDIR
 10
1.0
 20
0.0
 30
0.0
  9
$UCSYDIR
 10
0.0
 20
1.0
 30
0.0
  9
$PUCSNAME
  2

  9
$PUCSORG
 10
0.0
 20
0.0
 30
0.0
  9
$PUCSXDIR
 10
1.0
 20
0.0
 30
0.0
  9
$PUCSYDIR
 10
0.0
 20
1.0
 30
0.0
  9
$USERI1
 70
     0
  9
$USERI2
 70
     1
  9
$USERI3
 70
     1
  9
$USERI4
 70
     0
  9
$USERI5
 70
     0
  9
$USERR1
 40
0.0
  9
$USERR2
 40
0.0
  9
$USERR3
 40
0.0
  9
$USERR4
 40
0.0
  9
$USERR5
 40
0.0
  9
$WORLDVIEW
 70
     1
  9
$SHADEDGE
 70
     3
  9
$SHADEDIF
 70
    70
  9
$TILEMODE
 70
     1
  9
$MAXACTVP
 70
    16
  9
$PLIMCHECK
 70
     0
  9
$PEXTMIN
 10
1.0000000000000000E+020
 20
1.0000000000000000E+020
 30
1.0000000000000000E+020
  9
$PEXTMAX
 10
-1.0000000000000000E+020
 20
-1.0000000000000000E+020
 30
-1.0000000000000000E+020
  9
$PLIMMIN
 10
0.0
 20
0.0
  9
$PLIMMAX
 10
12.0
 20
9.0
  9
$UNITMODE
 70
     0
  9
$VISRETAIN
 70
     0
  9
$PLINEGEN
 70
     0
  9
$PSLTSCALE
 70
     0
  0
ENDSEC
  0
SECTION
  2
TABLES
  0
TABLE
  2
VPORT
 70
     1
  0
VPORT
  2
*ACTIVE
 70
     0
 10
0.0
 20
0.0
 11
1.0
 21
1.0
 12
93.74713919532617
 22
86.941769983850563
 13
0.0
 23
0.0
 14
5.0
 24
5.0
 15
5.0
 25
5.0
 16
0.0
 26
0.0
 36
1.0
 17
0.0
 27
0.0
 37
0.0
 40
181.41026326986619
 41
1.7807262569832401
 42
50.0
 43
0.0
 44
0.0
 50
0.0
 51
0.0
 71
     0
 72
   500
 73
     1
 74
     0
 75
     0
 76
     0
 77
     0
 78
     2
  0
ENDTAB
  0
TABLE
  2
LTYPE
 70
     3
  0
LTYPE
  2
CONTINUOUS
 70
     0
  3
Solid Line
 72
    65
 73
     0
 40
0.0
  0
LTYPE
  2
CENTER
 70
     0
  3
____ _ ____ _ ____ _ ____ _ ____ _ ____ _ ____
 72
    65
 73
     4
 40
2.0
 49
1.25
 49
-0.25
 49
0.25
 49
-0.25
  0
LTYPE
  2
PHANTOM2
 70
     0
  3
___ _ _ ___ _ _ ___ _ _ ___ _ _
 72
    65
 73
     6
 40
1.25
 49
0.625
 49
-0.125
 49
0.125
 49
-0.125
 49
0.125
 49
-0.125
  0
ENDTAB
  0
TABLE
  2
LAYER
 70
     4
  0
LAYER
  2
0
 70
     0
 62
     7
  6
CONTINUOUS
  0
LAYER
  2
1
 70
     0
 62
     1
  6
CENTER
  0
LAYER
  2
DEFPOINTS
 70
     0
 62
     7
  6
CONTINUOUS
  0
LAYER
  2
3
 70
     0
 62
     3
  6
CONTINUOUS
  0
ENDTAB
  0
TABLE
  2
STYLE
 70
     2
  0
STYLE
  2
STANDARD
 70
     0
 40
0.0
 41
1.0
 50
0.0
 71
     0
 42
0.2
  3
TXT
  4
BIGFONT
  0
STYLE
  2
STANDARD1
 70
     0
 40
0.0
 41
1.0
 50
0.0
 71
     0
 42
3.0
  3
txt
  4

  0
ENDTAB
  0
TABLE
  2
VIEW
 70
     2
  0
VIEW
  2
ALL
 70
     0
 40
135.0
 10
110.4957983193277
 20
67.5
 41
0.0
 11
0.0
 21
0.0
 31
1.0
 12
0.0
 22
0.0
 32
0.0
 42
0.0
 43
0.0
 44
0.0
 50
0.0
 71
     0
  0
VIEW
  2
OLE1
 70
     0
 40
167.61635794673921
 10
902.4035316351866
 20
-84.898870369570844
 41
190.6608896488849
 11
0.0
 21
0.0
 31
1.0
 12
0.0
 22
0.0
 32
0.0
 42
50.0
 43
0.0
 44
0.0
 50
0.0
 71
     0
  0
ENDTAB
  0
TABLE
  2
UCS
 70
     0
  0
ENDTAB
  0
TABLE
  2
APPID
 70
    10
  0
APPID
  2
ACAD
 70
     0
  0
APPID
  2
GENIUS_GENODEF_13
 70
     0
  0
APPID
  2
GENIUS_GENFIL_13
 70
     0
  0
APPID
  2
GENIUS_GENOBJ-N-CHA_13
 70
     0
  0
APPID
  2
ACAD_MLEADERVER
 70
     0
  0
APPID
  2
ACAD_EXEMPT_FROM_CAD_STANDARDS
 70
     0
  0
APPID
  2
ACAD_DSTYLE_DIMRADIAL_EXTENSION
 70
     0
  0
APPID
  2
ACAD_DSTYLE_DIMJAG
 70
     0
  0
APPID
  2
ACAD_DSTYLE_DIMTALN
 70
     0
  0
APPID
  2
ACAD_NAV_VCDISPLAY
 70
     0
  0
ENDTAB
  0
TABLE
  2
DIMSTYLE
 70
     1
  0
DIMSTYLE
  2
STANDARD
 70
     0
  3

  4

  5

  6

  7

 40
1.0
 41
0.18
 42
0.0625
 43
0.38
 44
0.18
 45
0.0
 46
0.0
 47
0.0
 48
0.0
140
0.18
141
0.09
142
0.0
143
25.399999999999999
144
1.0
145
0.0
146
1.0
147
0.09
 71
     0
 72
     0
 73
     1
 74
     1
 75
     0
 76
     0
 77
     0
 78
     0
170
     0
171
     2
172
     0
173
     0
174
     0
175
     0
176
     0
177
     0
178
     0
  0
ENDTAB
  0
ENDSEC
  0
SECTION
  2
BLOCKS
  0
BLOCK
  8
0
  2
$MODEL_SPACE
 70
     0
 10
0.0
 20
0.0
 30
0.0
  3
$MODEL_SPACE
  1

  0
ENDBLK
  5
3C9
  8
0
  0
BLOCK
 67
     1
  8
0
  2
$PAPER_SPACE
 70
     0
 10
0.0
 20
0.0
 30
0.0
  3
$PAPER_SPACE
  1

  0
ENDBLK
  5
3C7
 67
     1
  8
0
  0
ENDSEC
  0
SECTION
  2
ENTITIES
  0
POLYLINE
  5
A94A
  8
0
 66
     1
 10
0.0
 20
0.0
 30
0.0
 70
     8
  0
VERTEX
  5
A94B
  8
0
 10
82.302153780056187
 20
36.090167353686873
 30
0.0
 70
    32
  0
VERTEX
  5
A94C
  8
0
 10
82.297097796318212
 20
36.077117072004228
 30
0.0
 70
    32
  0
VERTEX
  5
A94D
  8
0
 10
82.287058665008075
 20
36.051458440220159
 30
0.0
 70
    32
  0
VERTEX
  5
A94E
  8
0
 10
82.277118239981064
 20
36.026394390280991
 30
0.0
 70
    32
  0
VERTEX
  5
A94F
  8
0
 10
82.272185619481206
 20
36.014087239452408
 30
0.0
 70
    32
  0
VERTEX
  5
A950
  8
0
 10
82.267278346058674
 20
36.001930941239088
 30
0.0
 70
    32
  0
VERTEX
  5
A951
  8
0
 10
82.257540709144465
 20
35.978073666970147
 30
0.0
 70
    32
  0
VERTEX
  5
A952
  8
0
 10
82.247907061459514
 20
35.954827953182587
 30
0.0
 70
    32
  0
VERTEX
  5
A953
  8
0
 10
82.238379122046808
 20
35.932198937040141
 30
0.0
 70
    32
  0
VERTEX
  5
A954
  8
0
 10
82.228958590216507
 20
35.910191480608432
 30
0.0
 70
    32
  0
VERTEX
  5
A955
  8
0
 10
82.219647139279687
 20
35.888810146003948
 30
0.0
 70
    32
  0
VERTEX
  5
A956
  8
0
 10
82.215032833461237
 20
35.878355612285787
 30
0.0
 70
    32
  0
VERTEX
  5
A957
  8
0
 10
82.210446410532299
 20
35.868059172186378
 30
0.0
 70
    32
  0
VERTEX
  5
A958
  8
0
 10
82.201358007490853
 20
35.84794245340678
 30
0.0
 70
    32
  0
VERTEX
  5
A959
  8
0
 10
82.192383490367774
 20
35.828463519321701
 30
0.0
 70
    32
  0
VERTEX
  5
A95A
  8
0
 10
82.183524370787154
 20
35.809625516786497
 30
0.0
 70
    32
  0
VERTEX
  5
A95B
  8
0
 10
82.174782106726084
 20
35.791431193340721
 30
0.0
 70
    32
  0
VERTEX
  5
A95C
  8
0
 10
82.166158097681546
 20
35.773882882402461
 30
0.0
 70
    32
  0
VERTEX
  5
A95D
  8
0
 10
82.161890859002369
 20
35.765351594326319
 30
0.0
 70
    32
  0
VERTEX
  5
A95E
  8
0
 10
82.157653680053727
 20
35.756982490190524
 30
0.0
 70
    32
  0
VERTEX
  5
A95F
  8
0
 10
82.149270122734819
 20
35.740731484398282
 30
0.0
 70
    32
  0
VERTEX
  5
A960
  8
0
 10
82.141008622905474
 20
35.725130884646781
 30
0.0
 70
    32
  0
VERTEX
  5
A961
  8
0
 10
82.136923998068596
 20
35.717574681206862
 30
0.0
 70
    32
  0
SEQEND
  5
A962
  8
0
  0
POLYLINE
  5
A963
  8
0
 66
     1
 10
0.0
 20
0.0
 30
0.0
 70
     8
  0
VERTEX
  5
A964
  8
0
 10
81.975789398515417
 20
35.540368288361272
 30
0.0
 70
    32
  0
VERTEX
  5
A965
  8
0
 10
81.972302559257741
 20
35.540499449082184
 30
0.0
 70
    32
  0
VERTEX
  5
A966
  8
0
 10
81.965468352494554
 20
35.541549918616973
 30
0.0
 70
    32
  0
VERTEX
  5
A967
  8
0
 10
81.95882227247489
 20
35.543653393587199
 30
0.0
 70
    32
  0
VERTEX
  5
A968
  8
0
 10
81.955570552476729
 20
35.545100593823861
 30
0.0
 70
    32
  0
SEQEND
  5
A969
  8
0
  0
LINE
  5
A96A
  8
1
 10
114.7969550776543
 20
46.257992780570127
 30
0.0
 11
70.227870070241352
 21
46.257992780570127
 31
0.0
  0
LINE
  5
A96B
  8
0
 10
92.392169518183906
 20
50.257992780570127
 30
0.0
 11
92.092169518183937
 21
50.257992780570127
 31
0.0
  0
LINE
  5
A96C
  8
0
 10
91.692169518183846
 20
40.257992780570127
 30
0.0
 11
92.092169518183937
 21
40.657992780570112
 31
0.0
  0
LINE
  5
A96D
  8
0
 10
92.092169518183937
 20
51.85799278057015
 30
0.0
 11
91.692169518183846
 21
52.257992780570142
 31
0.0
  0
LINE
  5
A96E
  8
0
 10
82.392169518183906
 20
40.257992780570127
 30
0.0
 11
91.692169518183846
 21
40.257992780570127
 31
0.0
  0
LINE
  5
A96F
  8
0
 10
91.692169518183846
 20
52.257992780570142
 30
0.0
 11
82.392169518183906
 21
52.257992780570142
 31
0.0
  0
LINE
  5
A970
  8
0
 10
82.392169518183906
 20
56.757992780570127
 30
0.0
 11
81.955570552476729
 21
58.387402303121398
 31
0.0
  0
ARC
  5
A971
  8
0
 10
81.472607639332182
 20
58.257992780570127
 30
0.0
 40
0.5000000000000054
 50
15.000000000000741
 51
90.0
  0
LINE
  5
A972
  8
0
 10
81.472607639332182
 20
58.757992780570127
 30
0.0
 11
73.765542621177246
 21
58.757992780570127
 31
0.0
  0
ARC
  5
A973
  8
0
 10
73.765542621177246
 20
57.757992780570127
 30
0.0
 40
1.0
 50
90.0
 51
173.99999999999989
  0
LINE
  5
A974
  8
0
 10
72.469174091074365
 20
37.525343209447328
 30
0.0
 11
72.498949264999283
 21
37.242051353040317
 31
0.0
  0
LINE
  5
A975
  8
0
 10
72.771020725808967
 20
57.862521243837762
 30
0.0
 11
72.469174091074365
 21
54.990642351692941
 31
0.0
  0
LINE
  5
A976
  8
0
 10
72.932993856493113
 20
35.540368288361272
 30
0.0
 11
81.975789398527013
 21
35.540368288361272
 31
0.0
  0
LINE
  5
A977
  8
0
 10
92.392169518183906
 20
50.257992780570127
 30
0.0
 11
92.392169518183906
 21
42.257992780570127
 31
0.0
  0
LINE
  5
A978
  8
0
 10
92.092169518183937
 20
51.85799278057015
 30
0.0
 11
92.092169518183937
 21
40.657992780570112
 31
0.0
  0
LINE
  5
A979
  8
0
 10
91.692169518183846
 20
52.257992780570142
 30
0.0
 11
91.692169518183846
 21
40.257992780570127
 31
0.0
  0
LINE
  5
A97A
  8
0
 10
82.392169518183906
 20
56.757992780570127
 30
0.0
 11
82.392169518183906
 21
36.318646266291097
 31
0.0
  0
LINE
  5
A97B
  8
0
 10
72.469174091074365
 20
54.990642351692941
 30
0.0
 11
72.469174091074365
 21
37.525343209447328
 31
0.0
  0
LINE
  5
A97C
  8
0
 10
80.464161917326692
 20
56.720796806275843
 30
0.0
 11
73.843453596216463
 21
56.720796806275843
 31
0.0
  0
POLYLINE
  5
A97D
  8
0
 66
     1
 10
0.0
 20
0.0
 30
0.0
 70
     8
  0
VERTEX
  5
A97E
  8
0
 10
72.771020725808967
 20
35.648493379428373
 30
0.0
 70
    32
  0
VERTEX
  5
A97F
  8
0
 10
72.772662642766136
 20
35.642511059378137
 30
0.0
 70
    32
  0
VERTEX
  5
A980
  8
0
 10
72.776548762445373
 20
35.631058096585832
 30
0.0
 70
    32
  0
VERTEX
  5
A981
  8
0
 10
72.781211754703691
 20
35.620288798172567
 30
0.0
 70
    32
  0
VERTEX
  5
A982
  8
0
 10
72.783825084381974
 20
35.615160940860733
 30
0.0
 70
    32
  0
VERTEX
  5
A983
  8
0
 10
72.78662139835842
 20
35.610204439629172
 30
0.0
 70
    32
  0
VERTEX
  5
A984
  8
0
 10
72.792748698474256
 20
35.6008058082964
 30
0.0
 70
    32
  0
VERTEX
  5
A985
  8
0
 10
72.799565751256523
 20
35.592093207317419
 30
0.0
 70
    32
  0
VERTEX
  5
A986
  8
0
 10
72.807045622202622
 20
35.584066451193962
 30
0.0
 70
    32
  0
VERTEX
  5
A987
  8
0
 10
72.815162237268169
 20
35.576724855242162
 30
0.0
 70
    32
  0
VERTEX
  5
A988
  8
0
 10
72.823890286627829
 20
35.570067220908363
 30
0.0
 70
    32
  0
VERTEX
  5
A989
  8
0
 10
72.82847587785659
 20
35.56699437009167
 30
0.0
 70
    32
  0
VERTEX
  5
A98A
  8
0
 10
72.833205140478853
 20
35.564091818600282
 30
0.0
 70
    32
  0
VERTEX
  5
A98B
  8
0
 10
72.843082776255415
 20
35.558796369417962
 30
0.0
 70
    32
  0
VERTEX
  5
A98C
  8
0
 10
72.853499716578881
 20
35.554178026932448
 30
0.0
 70
    32
  0
VERTEX
  5
A98D
  8
0
 10
72.864432977252363
 20
35.550233359955833
 30
0.0
 70
    32
  0
VERTEX
  5
A98E
  8
0
 10
72.875862036419676
 20
35.546957829817018
 30
0.0
 70
    32
  0
VERTEX
  5
A98F
  8
0
 10
72.887772276511214
 20
35.544345770283371
 30
0.0
 70
    32
  0
VERTEX
  5
A990
  8
0
 10
72.893902270731132
 20
35.543287250997423
 30
0.0
 70
    32
  0
VERTEX
  5
A991
  8
0
 10
72.900145894659545
 20
35.542393055261698
 30
0.0
 70
    32
  0
VERTEX
  5
A992
  8
0
 10
72.912965400325902
 20
35.541095532413522
 30
0.0
 70
    32
  0
VERTEX
  5
A993
  8
0
 10
72.926213884609751
 20
35.540448903914978
 30
0.0
 70
    32
  0
VERTEX
  5
A994
  8
0
 10
72.93299385663795
 20
35.540368288361272
 30
0.0
 70
    32
  0
SEQEND
  5
A995
  8
0
  0
POLYLINE
  5
A996
  8
0
 66
     1
 10
0.0
 20
0.0
 30
0.0
 70
     8
  0
VERTEX
  5
A997
  8
0
 10
81.955570552476729
 20
35.545100593823861
 30
0.0
 70
    32
  0
VERTEX
  5
A998
  8
0
 10
81.958822272474663
 20
35.543653393587313
 30
0.0
 70
    32
  0
VERTEX
  5
A999
  8
0
 10
81.965468352493872
 20
35.541549918617108
 30
0.0
 70
    32
  0
VERTEX
  5
A99A
  8
0
 10
81.972302559256605
 20
35.54049944908224
 30
0.0
 70
    32
  0
VERTEX
  5
A99B
  8
0
 10
81.97578939851428
 20
35.540368288361272
 30
0.0
 70
    32
  0
SEQEND
  5
A99C
  8
0
  0
POLYLINE
  5
A99D
  8
0
 66
     1
 10
0.0
 20
0.0
 30
0.0
 70
     8
  0
VERTEX
  5
A99E
  8
0
 10
81.97578939851428
 20
35.540368288361272
 30
0.0
 70
    32
  0
VERTEX
  5
A99F
  8
0
 10
81.982435992630599
 20
35.540826563639143
 30
0.0
 70
    32
  0
VERTEX
  5
A9A0
  8
0
 10
81.996203079983843
 20
35.544481649700288
 30
0.0
 70
    32
  0
VERTEX
  5
A9A1
  8
0
 10
82.010585112713684
 20
35.551757291289618
 30
0.0
 70
    32
  0
VERTEX
  5
A9A2
  8
0
 10
82.018000022566866
 20
35.556738548927029
 30
0.0
 70
    32
  0
VERTEX
  5
A9A3
  8
0
 10
82.025560573079915
 20
35.562606523648242
 30
0.0
 70
    32
  0
VERTEX
  5
A9A4
  8
0
 10
82.041106758234946
 20
35.576971577758123
 30
0.0
 70
    32
  0
VERTEX
  5
A9A5
  8
0
 10
82.057198336187426
 20
35.594782700959691
 30
0.0
 70
    32
  0
VERTEX
  5
A9A6
  8
0
 10
82.073807465481863
 20
35.615957605411381
 30
0.0
 70
    32
  0
VERTEX
  5
A9A7
  8
0
 10
82.090903943842477
 20
35.640401272459492
 30
0.0
 70
    32
  0
VERTEX
  5
A9A8
  8
0
 10
82.108455398296428
 20
35.668006087967058
 30
0.0
 70
    32
  0
VERTEX
  5
A9A9
  8
0
 10
82.117391090183673
 20
35.682956960408553
 30
0.0
 70
    32
  0
VERTEX
  5
A9AA
  8
0
 10
82.126427528465229
 20
35.698652306360998
 30
0.0
 70
    32
  0
VERTEX
  5
A9AB
  8
0
 10
82.144867256075941
 20
35.732365137520993
 30
0.0
 70
    32
  0
VERTEX
  5
A9AC
  8
0
 10
82.163933023750573
 20
35.769421650148843
 30
0.0
 70
    32
  0
VERTEX
  5
A9AD
  8
0
 10
82.183617089834556
 20
35.809820613731752
 30
0.0
 70
    32
  0
VERTEX
  5
A9AE
  8
0
 10
82.203903549527453
 20
35.853537886864501
 30
0.0
 70
    32
  0
VERTEX
  5
A9AF
  8
0
 10
82.224774948327195
 20
35.900538352243188
 30
0.0
 70
    32
  0
VERTEX
  5
A9B0
  8
0
 10
82.235424195015639
 20
35.925256038084683
 30
0.0
 70
    32
  0
VERTEX
  5
A9B1
  8
0
 10
82.246212582906992
 20
35.950776876514283
 30
0.0
 70
    32
  0
VERTEX
  5
A9B2
  8
0
 10
82.268196833727856
 20
36.004199501940008
 30
0.0
 70
    32
  0
VERTEX
  5
A9B3
  8
0
 10
82.290707538963034
 20
36.060744885333577
 30
0.0
 70
    32
  0
VERTEX
  5
A9B4
  8
0
 10
82.302153780056187
 20
36.09016735368693
 30
0.0
 70
    32
  0
SEQEND
  5
A9B5
  8
0
  0
POLYLINE
  5
A9B6
  8
0
 66
     1
 10
0.0
 20
0.0
 30
0.0
 70
     8
  0
VERTEX
  5
A9B7
  8
0
 10
72.690239170846326
 20
36.09016735368693
 30
0.0
 70
    32
  0
VERTEX
  5
A9B8
  8
0
 10
72.692796652950619
 20
36.073354166305883
 30
0.0
 70
    32
  0
VERTEX
  5
A9B9
  8
0
 10
72.697862651676814
 20
36.040473048150027
 30
0.0
 70
    32
  0
VERTEX
  5
A9BA
  8
0
 10
72.702862056954245
 20
36.008596270456913
 30
0.0
 70
    32
  0
VERTEX
  5
A9BB
  8
0
 10
72.705336328419207
 20
35.993038173976743
 30
0.0
 70
    32
  0
VERTEX
  5
A9BC
  8
0
 10
72.707793408246289
 20
35.977735443548937
 30
0.0
 70
    32
  0
VERTEX
  5
A9BD
  8
0
 10
72.712655279777891
 20
35.947901373063253
 30
0.0
 70
    32
  0
VERTEX
  5
A9BE
  8
0
 10
72.717446255676805
 20
35.919104180349109
 30
0.0
 70
    32
  0
VERTEX
  5
A9BF
  8
0
 10
72.722164943655571
 20
35.89135317799208
 30
0.0
 70
    32
  0
VERTEX
  5
A9C0
  8
0
 10
72.72680998419014
 20
35.86465677923951
 30
0.0
 70
    32
  0
VERTEX
  5
A9C1
  8
0
 10
72.731380059165076
 20
35.839022415888849
 30
0.0
 70
    32
  0
VERTEX
  5
A9C2
  8
0
 10
72.733636585989188
 20
35.826605533262551
 30
0.0
 70
    32
  0
VERTEX
  5
A9C3
  8
0
 10
72.735873899999206
 20
35.81445646463829
 30
0.0
 70
    32
  0
VERTEX
  5
A9C4
  8
0
 10
72.740290295276736
 20
35.790964181900002
 30
0.0
 70
    32
  0
VERTEX
  5
A9C5
  8
0
 10
72.744628097902464
 20
35.768549647085017
 30
0.0
 70
    32
  0
VERTEX
  5
A9C6
  8
0
 10
72.748886231806637
 20
35.747215714389803
 30
0.0
 70
    32
  0
VERTEX
  5
A9C7
  8
0
 10
72.753063698217375
 20
35.726963973140869
 30
0.0
 70
    32
  0
VERTEX
  5
A9C8
  8
0
 10
72.757159581530686
 20
35.707794716790033
 30
0.0
 70
    32
  0
VERTEX
  5
A9C9
  8
0
 10
72.759179182648495
 20
35.698604417244098
 30
0.0
 70
    32
  0
VERTEX
  5
A9CA
  8
0
 10
72.761186000364205
 20
35.689649732972903
 30
0.0
 70
    32
  0
VERTEX
  5
A9CB
  8
0
 10
72.765160652660597
 20
35.672455743819569
 30
0.0
 70
    32
  0
VERTEX
  5
A9CC
  8
0
 10
72.769081341284391
 20
35.656233577282592
 30
0.0
 70
    32
  0
VERTEX
  5
A9CD
  8
0
 10
72.771020725808967
 20
35.648493379428373
 30
0.0
 70
    32
  0
SEQEND
  5
A9CE
  8
0
  0
LINE
  5
A9CF
  8
0
 10
82.302153780056187
 20
36.09016735368693
 30
0.0
 11
82.294030421510115
 21
36.069146680345682
 31
0.0
  0
LINE
  5
A9D0
  8
0
 10
82.294030421510115
 20
36.069146680345682
 30
0.0
 11
82.392169518183906
 21
36.318646266291097
 31
0.0
  0
POLYLINE
  5
A9D1
  8
0
 66
     1
 10
0.0
 20
0.0
 30
0.0
 70
     8
  0
VERTEX
  5
A9D2
  8
0
 10
72.498949264999283
 20
37.242051353040317
 30
0.0
 70
    32
  0
VERTEX
  5
A9D3
  8
0
 10
72.499105562235627
 20
37.24119636569074
 30
0.0
 70
    32
  0
VERTEX
  5
A9D4
  8
0
 10
72.500380174175234
 20
37.23421863640079
 30
0.0
 70
    32
  0
VERTEX
  5
A9D5
  8
0
 10
72.502981309647339
 20
37.219949897493017
 30
0.0
 70
    32
  0
VERTEX
  5
A9D6
  8
0
 10
72.504791141782334
 20
37.209998876958942
 30
0.0
 70
    32
  0
VERTEX
  5
A9D7
  8
0
 10
72.506944296219672
 20
37.198135536657219
 30
0.0
 70
    32
  0
VERTEX
  5
A9D8
  8
0
 10
72.512284640381949
 20
37.168596085737022
 30
0.0
 70
    32
  0
VERTEX
  5
A9D9
  8
0
 10
72.51899855292686
 20
37.131225336229363
 30
0.0
 70
    32
  0
VERTEX
  5
A9DA
  8
0
 10
72.527063322326512
 20
37.085991509123801
 30
0.0
 70
    32
  0
VERTEX
  5
A9DB
  8
0
 10
72.536438095087306
 20
37.03293825762006
 30
0.0
 70
    32
  0
VERTEX
  5
A9DC
  8
0
 10
72.547065551474589
 20
36.972182374462818
 30
0.0
 70
    32
  0
VERTEX
  5
A9DD
  8
0
 10
72.552827976247954
 20
36.93896670981519
 30
0.0
 70
    32
  0
VERTEX
  5
A9DE
  8
0
 10
72.558877044698406
 20
36.903892571307502
 30
0.0
 70
    32
  0
VERTEX
  5
A9DF
  8
0
 10
72.571791080796856
 20
36.828306712090921
 30
0.0
 70
    32
  0
VERTEX
  5
A9E0
  8
0
 10
72.585712542570491
 20
36.745746173920431
 30
0.0
 70
    32
  0
VERTEX
  5
A9E1
  8
0
 10
72.60053665212763
 20
36.656602681555462
 30
0.0
 70
    32
  0
VERTEX
  5
A9E2
  8
0
 10
72.616151340384476
 20
36.56133337207757
 30
0.0
 70
    32
  0
VERTEX
  5
A9E3
  8
0
 10
72.632438479737175
 20
36.460461675081781
 30
0.0
 70
    32
  0
VERTEX
  5
A9E4
  8
0
 10
72.640795745827745
 20
36.408107912669379
 30
0.0
 70
    32
  0
VERTEX
  5
A9E5
  8
0
 10
72.649274404595872
 20
36.354581711316463
 30
0.0
 70
    32
  0
VERTEX
  5
A9E6
  8
0
 10
72.666531580648325
 20
36.244354489578818
 30
0.0
 70
    32
  0
VERTEX
  5
A9E7
  8
0
 10
72.684243656986155
 20
36.129434084436241
 30
0.0
 70
    32
  0
VERTEX
  5
A9E8
  8
0
 10
72.693425593540951
 20
36.069146680345682
 30
0.0
 70
    32
  0
SEQEND
  5
A9E9
  8
0
  0
POLYLINE
  5
A9EA
  8
0
 66
     1
 10
0.0
 20
0.0
 30
0.0
 70
     8
  0
VERTEX
  5
A9EB
  8
0
 10
82.136923998068596
 20
35.717574681206862
 30
0.0
 70
    32
  0
VERTEX
  5
A9EC
  8
0
 10
82.131777851634979
 20
35.708207037090183
 30
0.0
 70
    32
  0
VERTEX
  5
A9ED
  8
0
 10
82.121605644064175
 20
35.690206835803508
 30
0.0
 70
    32
  0
VERTEX
  5
A9EE
  8
0
 10
82.111557726603664
 20
35.67313086165467
 30
0.0
 70
    32
  0
VERTEX
  5
A9EF
  8
0
 10
82.106582074460206
 20
35.664946165797858
 30
0.0
 70
    32
  0
VERTEX
  5
A9F0
  8
0
 10
82.101639659606462
 20
35.657000702004211
 30
0.0
 70
    32
  0
VERTEX
  5
A9F1
  8
0
 10
82.091857579021507
 20
35.641838161885858
 30
0.0
 70
    32
  0
VERTEX
  5
A9F2
  8
0
 10
82.082217448480364
 20
35.627663896605611
 30
0.0
 70
    32
  0
VERTEX
  5
A9F3
  8
0
 10
82.072725043396744
 20
35.614497371336881
 30
0.0
 70
    32
  0
VERTEX
  5
A9F4
  8
0
 10
82.06338593681312
 20
35.602356830718207
 30
0.0
 70
    32
  0
VERTEX
  5
A9F5
  8
0
 10
82.054205486916771
 20
35.591259278454061
 30
0.0
 70
    32
  0
VERTEX
  5
A9F6
  8
0
 10
82.049676371203077
 20
35.586106594545413
 30
0.0
 70
    32
  0
VERTEX
  5
A9F7
  8
0
 10
82.045188826170943
 20
35.581220466990658
 30
0.0
 70
    32
  0
VERTEX
  5
A9F8
  8
0
 10
82.036340852032708
 20
35.572254897398807
 30
0.0
 70
    32
  0
VERTEX
  5
A9F9
  8
0
 10
82.027666219241397
 20
35.56437582965583
 30
0.0
 70
    32
  0
VERTEX
  5
A9FA
  8
0
 10
82.019169333686023
 20
35.557595303565002
 30
0.0
 70
    32
  0
VERTEX
  5
A9FB
  8
0
 10
82.010854339516982
 20
35.551924165393586
 30
0.0
 70
    32
  0
VERTEX
  5
A9FC
  8
0
 10
82.002725067244214
 20
35.547372091839208
 30
0.0
 70
    32
  0
VERTEX
  5
A9FD
  8
0
 10
81.998731277103616
 20
35.545518469536042
 30
0.0
 70
    32
  0
VERTEX
  5
A9FE
  8
0
 10
81.994785349156928
 20
35.543947798500199
 30
0.0
 70
    32
  0
VERTEX
  5
A9FF
  8
0
 10
81.987038913105152
 20
35.541658906400897
 30
0.0
 70
    32
  0
VERTEX
  5
AA00
  8
0
 10
81.979489317728834
 20
35.540511887936823
 30
0.0
 70
    32
  0
VERTEX
  5
AA01
  8
0
 10
81.975789398515417
 20
35.540368288361272
 30
0.0
 70
    32
  0
SEQEND
  5
AA02
  8
0
  0
CIRCLE
  5
AA03
  8
0
 10
36.594127981458769
 20
46.24081753798373
 30
0.0
 40
7.9999999999999956
  0
ARC
  5
AA04
  8
0
 10
31.08696405363526
 20
38.660856674656628
 30
0.0
 40
3.1306531061397118
 50
164.38751379519371
 51
303.61248620422128
  0
ARC
  5
AA05
  8
0
 10
45.504906398294217
 20
49.136104954380698
 30
0.0
 40
3.1306531061397118
 50
308.38751379578019
 51
87.612486204809144
  0
ARC
  5
AA06
  8
0
 10
36.594127981458769
 20
55.610164431843991
 30
0.0
 40
3.1306531061397118
 50
20.387513795193382
 51
159.61248620421961
  0
LINE
  5
AA07
  8
1
 10
36.594127981458769
 20
60.982121558816999
 30
0.0
 11
36.594127981458769
 21
31.499513517150429
 31
0.0
  0
LINE
  5
AA08
  8
1
 10
21.852823960625528
 20
46.24081753798373
 30
0.0
 11
51.335432002292009
 21
46.24081753798373
 31
0.0
  0
ARC
  5
AA09
  8
0
 10
42.101291909282281
 20
38.660856674656628
 30
0.0
 40
3.1306531061397118
 50
236.38751379577869
 51
15.612486204806251
  0
ARC
  5
AA0A
  8
0
 10
27.68334956462331
 20
49.136104954380698
 30
0.0
 40
3.1306531061397118
 50
92.387513795190856
 51
231.6124862042177
  0
ARC
  5
AA0B
  8
0
 10
27.376282887378238
 20
58.928092871179622
 30
0.0
 40
6.6663933335568721
 50
271.5184364955943
 51
340.48156350487062
  0
ARC
  5
AA0C
  8
0
 10
45.811973075539299
 20
58.928092871179622
 30
0.0
 40
6.6663933335568721
 50
199.5184364951279
 51
268.48156350440581
  0
ARC
  5
AA0D
  8
0
 10
36.594127981459224
 20
30.558482776897051
 30
0.0
 40
6.6663933335568712
 50
55.518436495595203
 51
124.48156350486551
  0
ARC
  5
AA0E
  8
0
 10
21.679341316205178
 20
41.394709585331348
 30
0.0
 40
6.6663933335568712
 50
343.51843649512978
 51
52.481563504409991
  0
ARC
  5
AA0F
  8
0
 10
51.508914646712363
 20
41.394709585331348
 30
0.0
 40
6.6663933335568712
 50
127.51843649559
 51
196.48156350487019
  0
ARC
  5
AA10
  8
0
 10
72.069742123550895
 20
50.086151406381809
 30
0.0
 40
1.5383252020162099
 50
331.29936487828309
 51
28.700635121716921
  0
ARC
  5
AA11
  8
0
 10
80.059496168665191
 20
55.059328937089582
 30
0.0
 40
7.8752268142290802
 50
195.4587367923082
 51
212.51993663325959
  0
ARC
  5
AA12
  8
0
 10
80.218385702023625
 20
45.888992594192977
 30
0.0
 40
7.6359277558157688
 50
152.92826291694649
 51
166.06384359303911
  0
ARC
  5
AA13
  8
0
 10
103.6937628983096
 20
43.31223304801906
 30
0.0
 40
31.200478925062569
 50
171.86361530448659
 51
182.50982615954729
  0
ARC
  5
AA14
  8
0
 10
162.49466493536511
 20
46.715858096898039
 30
0.0
 40
90.089438468204776
 50
183.03502766956879
 51
185.42497120652229
  0
ARC
  5
AA15
  8
0
 10
73.495511029550244
 20
36.157559565840131
 30
0.0
 40
0.2700315916270337
 50
300.38705707576452
 51
45.618531993449189
  0
ARC
  5
AA16
  8
0
 10
76.799087920811189
 20
38.924400624063423
 30
0.0
 40
4.0558076606628246
 50
190.30874191293361
 51
208.7379537182031
  0
ARC
  5
AA17
  8
0
 10
72.249671111356975
 20
37.488274705224804
 30
0.0
 40
2.0871336189323371
 50
291.04596538128823
 51
311.48005713674303
  0
LINE
  5
AA18
  8
0
 10
81.493631272346207
 20
56.757992780570127
 30
0.0
 11
81.493631272346207
 21
36.318646266291097
 31
0.0
  0
LINE
  5
AA19
  8
0
 10
80.464161917326692
 20
52.282055332338132
 30
0.0
 11
73.843453596216463
 21
52.282055332338132
 31
0.0
  0
LINE
  5
AA1A
  8
0
 10
80.464161917326692
 20
45.467645017777841
 30
0.0
 11
73.843453596216463
 21
45.467645017777841
 31
0.0
  0
LINE
  5
AA1B
  8
0
 10
80.464161917326692
 20
39.517666349572089
 30
0.0
 11
73.843453596216463
 21
39.517666349572089
 31
0.0
  0
ARC
  5
AA1C
  8
0
 10
69.731233057404324
 20
34.020602715701422
 30
0.0
 40
4.588684746397746
 50
30.514704200305221
 51
40.068459346693039
  0
LINE
  5
AA1E
  8
0
 10
92.392169518183906
 20
42.257992780570127
 30
0.0
 11
92.092169518183937
 21
42.257992780570127
 31
0.0
  0
LINE
  5
AA1F
  8
0
 10
111.90166951818399
 20
43.757992780570127
 30
0.0
 11
92.392169518183906
 21
43.757992780570127
 31
0.0
  0
LINE
  5
AA20
  8
0
 10
92.392169518183906
 20
48.757992780570127
 30
0.0
 11
111.90166951818399
 21
48.757992780570127
 31
0.0
  0
LINE
  5
AA21
  8
0
 10
112.39216951818391
 20
44.248492780570132
 30
0.0
 11
111.90166951818399
 21
43.757992780570127
 31
0.0
  0
LINE
  5
AA22
  8
0
 10
111.90166951818399
 20
48.757992780570127
 30
0.0
 11
112.39216951818391
 21
48.267492780570137
 31
0.0
  0
LINE
  5
AA23
  8
0
 10
111.90166951818399
 20
48.757992780570127
 30
0.0
 11
111.90166951818399
 21
43.757992780570127
 31
0.0
  0
LINE
  5
AA24
  8
0
 10
112.39216951818391
 20
48.267492780570137
 30
0.0
 11
112.39216951818391
 21
44.248492780570132
 31
0.0
  0
LINE
  5
AA25
  8
3
 10
112.39216951818391
 20
44.248492780570132
 30
0.0
 11
93.642169518183906
 21
44.248492780570132
 31
0.0
  0
LINE
  5
AA26
  8
3
 10
92.892169518183891
 20
43.757992780570127
 30
0.0
 11
93.642169518183906
 21
44.248492780570132
 31
0.0
  0
LINE
  5
AA27
  8
0
 10
93.642169518183906
 20
43.757992780570127
 30
0.0
 11
93.642169518183906
 21
48.757992780570127
 31
0.0
  0
LINE
  5
AA28
  8
3
 10
112.39216951818391
 20
48.267492780570137
 30
0.0
 11
93.642169518183906
 21
48.267492780570137
 31
0.0
  0
LINE
  5
AA29
  8
3
 10
92.892169518183891
 20
48.757992780570127
 30
0.0
 11
93.642169518183906
 21
48.267492780570137
 31
0.0
  0
TEXT
  5
C023
  8
0
 62
     3
 10
0.0
 20
0.0
 30
0.0
 40
10.0
  1
SFK25BX20
  7
STANDARD1
  0
ENDSEC
  0
EOF
