  0
SECTION
  2
HEADER
  9
$ACADVER
  1
AC1009
  9
$INSBASE
 10
0.0
 20
0.0
 30
0.0
  9
$EXTMIN
 10
0.0
 20
-2.960436562073669
 30
0.0
  9
$EXTMAX
 10
341.11190374284882
 20
323.23696584936181
 30
0.0
  9
$LIMMIN
 10
0.0
 20
0.0
  9
$LIMMAX
 10
75.0
 20
54.0
  9
$ORTHOMODE
 70
     0
  9
$REGENMODE
 70
     1
  9
$FILLMODE
 70
     1
  9
$QTEXTMODE
 70
     0
  9
$MIRRTEXT
 70
     0
  9
$DRAGMODE
 70
     2
  9
$LTSCALE
 40
2.0
  9
$OSMODE
 70
    55
  9
$ATTMODE
 70
     1
  9
$TEXTSIZE
 40
0.2
  9
$TRACEWID
 40
0.05
  9
$TEXTSTYLE
  7
STANDARD
  9
$CLAYER
  8
0
  9
$CELTYPE
  6
BYLAYER
  9
$CECOLOR
 62
   256
  9
$DIMSCALE
 40
0.2
  9
$DIMASZ
 40
3.0
  9
$DIMEXO
 40
2.0
  9
$DIMDLI
 40
10.0
  9
$DIMRND
 40
0.0
  9
$DIMDLE
 40
0.0
  9
$DIMEXE
 40
2.0
  9
$DIMTP
 40
0.0
  9
$DIMTM
 40
0.0
  9
$DIMTXT
 40
3.0
  9
$DIMCEN
 40
0.09
  9
$DIMTSZ
 40
0.0
  9
$DIMTOL
 70
     0
  9
$DIMLIM
 70
     0
  9
$DIMTIH
 70
     0
  9
$DIMTOH
 70
     0
  9
$DIMSE1
 70
     0
  9
$DIMSE2
 70
     0
  9
$DIMTAD
 70
     1
  9
$DIMZIN
 70
     0
  9
$DIMBLK
  1

  9
$DIMASO
 70
     0
  9
$DIMSHO
 70
     0
  9
$DIMPOST
  1

  9
$DIMAPOST
  1

  9
$DIMALT
 70
     0
  9
$DIMALTD
 70
     2
  9
$DIMALTF
 40
25.399999999999999
  9
$DIMLFAC
 40
1.0
  9
$DIMTOFL
 70
     1
  9
$DIMTVP
 40
1.6000000000000001
  9
$DIMTIX
 70
     1
  9
$DIMSOXD
 70
     0
  9
$DIMSAH
 70
     0
  9
$DIMBLK1
  1

  9
$DIMBLK2
  1

  9
$DIMSTYLE
  2
STANDARD
  9
$DIMCLRD
 70
     0
  9
$DIMCLRE
 70
     0
  9
$DIMCLRT
 70
     0
  9
$DIMTFAC
 40
1.0
  9
$DIMGAP
 40
0.09
  9
$LUNITS
 70
     2
  9
$LUPREC
 70
     4
  9
$SKETCHINC
 40
0.1
  9
$FILLETRAD
 40
0.0
  9
$AUNITS
 70
     0
  9
$AUPREC
 70
     0
  9
$MENU
  1
E:\r13\win\SUPPORT\ACAD
  9
$ELEVATION
 40
0.0
  9
$PELEVATION
 40
0.0
  9
$THICKNESS
 40
0.0
  9
$LIMCHECK
 70
     0
  9
$BLIPMODE
 70
     0
  9
$CHAMFERA
 40
0.0
  9
$CHAMFERB
 40
0.0
  9
$SKPOLY
 70
     0
  9
$TDCREATE
 40
2449840.618888889
  9
$TDUPDATE
 40
2456598.4909767238
  9
$TDINDWG
 40
0.1952790509
  9
$TDUSRTIMER
 40
0.1952790509
  9
$USRTIMER
 70
     1
  9
$ANGBASE
 50
0.0
  9
$ANGDIR
 70
     0
  9
$PDMODE
 70
     0
  9
$PDSIZE
 40
0.0
  9
$PLINEWID
 40
0.0
  9
$COORDS
 70
     1
  9
$SPLFRAME
 70
     0
  9
$SPLINETYPE
 70
     6
  9
$SPLINESEGS
 70
     8
  9
$ATTDIA
 70
     0
  9
$ATTREQ
 70
     1
  9
$HANDLING
 70
     1
  9
$HANDSEED
  5
9D0
  9
$SURFTAB1
 70
     6
  9
$SURFTAB2
 70
     6
  9
$SURFTYPE
 70
     6
  9
$SURFU
 70
     6
  9
$SURFV
 70
     6
  9
$UCSNAME
  2

  9
$UCSORG
 10
0.0
 20
0.0
 30
0.0
  9
$UCSXDIR
 10
1.0
 20
0.0
 30
0.0
  9
$UCSYDIR
 10
0.0
 20
1.0
 30
0.0
  9
$PUCSNAME
  2

  9
$PUCSORG
 10
0.0
 20
0.0
 30
0.0
  9
$PUCSXDIR
 10
1.0
 20
0.0
 30
0.0
  9
$PUCSYDIR
 10
0.0
 20
1.0
 30
0.0
  9
$USERI1
 70
     0
  9
$USERI2
 70
     1
  9
$USERI3
 70
     1
  9
$USERI4
 70
     0
  9
$USERI5
 70
     0
  9
$USERR1
 40
0.0
  9
$USERR2
 40
0.0
  9
$USERR3
 40
0.0
  9
$USERR4
 40
0.0
  9
$USERR5
 40
0.0
  9
$WORLDVIEW
 70
     1
  9
$SHADEDGE
 70
     3
  9
$SHADEDIF
 70
    70
  9
$TILEMODE
 70
     1
  9
$MAXACTVP
 70
    16
  9
$PLIMCHECK
 70
     0
  9
$PEXTMIN
 10
1.0000000000000000E+020
 20
1.0000000000000000E+020
 30
1.0000000000000000E+020
  9
$PEXTMAX
 10
-1.0000000000000000E+020
 20
-1.0000000000000000E+020
 30
-1.0000000000000000E+020
  9
$PLIMMIN
 10
0.0
 20
0.0
  9
$PLIMMAX
 10
12.0
 20
9.0
  9
$UNITMODE
 70
     0
  9
$VISRETAIN
 70
     0
  9
$PLINEGEN
 70
     0
  9
$PSLTSCALE
 70
     0
  0
ENDSEC
  0
SECTION
  2
TABLES
  0
TABLE
  2
VPORT
 70
     1
  0
VPORT
  2
*ACTIVE
 70
     0
 10
0.0
 20
0.0
 11
1.0
 21
1.0
 12
170.55595266563739
 22
209.61839184145001
 13
0.0
 23
0.0
 14
2.0
 24
2.0
 15
2.0
 25
2.0
 16
0.0
 26
0.0
 36
1.0
 17
0.0
 27
0.0
 37
0.0
 40
428.92476601456821
 41
1.7807262569832401
 42
50.0
 43
0.0
 44
0.0
 50
0.0
 51
0.0
 71
     0
 72
   100
 73
     1
 74
     0
 75
     0
 76
     0
 77
     0
 78
     2
  0
ENDTAB
  0
TABLE
  2
LTYPE
 70
     4
  0
LTYPE
  2
CONTINUOUS
 70
     0
  3
Solid Line
 72
    65
 73
     0
 40
0.0
  0
LTYPE
  2
CENTER
 70
     0
  3
____ _ ____ _ ____ _ ____ _ ____ _ ____ _ ____
 72
    65
 73
     4
 40
2.0
 49
1.25
 49
-0.25
 49
0.25
 49
-0.25
  0
LTYPE
  2
HIDDEN
 70
     0
  3
_ _ _ _ _ _ _ _ _ _ _ _ _ _ _ _ _ _ _ _ _ _ _
 72
    65
 73
     2
 40
0.375
 49
0.25
 49
-0.125
  0
LTYPE
  2
PHANTOM2
 70
     0
  3
___ _ _ ___ _ _ ___ _ _ ___ _ _
 72
    65
 73
     6
 40
1.25
 49
0.625
 49
-0.125
 49
0.125
 49
-0.125
 49
0.125
 49
-0.125
  0
ENDTAB
  0
TABLE
  2
LAYER
 70
     4
  0
LAYER
  2
0
 70
     0
 62
     7
  6
CONTINUOUS
  0
LAYER
  2
1
 70
     0
 62
     1
  6
CENTER
  0
LAYER
  2
2
 70
     0
 62
     2
  6
HIDDEN
  0
LAYER
  2
3
 70
     0
 62
     3
  6
CONTINUOUS
  0
ENDTAB
  0
TABLE
  2
STYLE
 70
     2
  0
STYLE
  2
STANDARD
 70
     0
 40
0.0
 41
1.0
 50
0.0
 71
     0
 42
0.2
  3
TXT
  4
BIGFONT
  0
STYLE
  2
STANDARD1
 70
     0
 40
0.0
 41
1.0
 50
0.0
 71
     0
 42
3.0
  3
txt
  4

  0
ENDTAB
  0
TABLE
  2
VIEW
 70
     1
  0
VIEW
  2
ALL
 70
     0
 40
54.0
 10
44.198318999999998
 20
27.0
 41
0.0
 11
0.0
 21
0.0
 31
1.0
 12
0.0
 22
0.0
 32
0.0
 42
0.0
 43
0.0
 44
0.0
 50
0.0
 71
     0
  0
ENDTAB
  0
TABLE
  2
UCS
 70
     0
  0
ENDTAB
  0
TABLE
  2
APPID
 70
     4
  0
APPID
  2
ACAD
 70
     0
  0
APPID
  2
DCO15
 70
     0
  0
APPID
  2
ACAD_MLEADERVER
 70
     0
  0
APPID
  2
ACAD_NAV_VCDISPLAY
 70
     0
  0
ENDTAB
  0
TABLE
  2
DIMSTYLE
 70
     1
  0
DIMSTYLE
  2
STANDARD
 70
     0
  3

  4

  5

  6

  7

 40
1.0
 41
0.18
 42
0.0625
 43
0.38
 44
0.18
 45
0.0
 46
0.0
 47
0.0
 48
0.0
140
0.18
141
0.09
142
0.0
143
25.399999999999999
144
1.0
145
0.0
146
1.0
147
0.09
 71
     0
 72
     0
 73
     1
 74
     1
 75
     0
 76
     0
 77
     0
 78
     0
170
     0
171
     2
172
     0
173
     0
174
     0
175
     0
176
     0
177
     0
178
     0
  0
ENDTAB
  0
ENDSEC
  0
SECTION
  2
BLOCKS
  0
BLOCK
  8
0
  2
$MODEL_SPACE
 70
     0
 10
0.0
 20
0.0
 30
0.0
  3
$MODEL_SPACE
  1

  0
ENDBLK
  5
2D4
  8
0
  0
BLOCK
 67
     1
  8
0
  2
$PAPER_SPACE
 70
     0
 10
0.0
 20
0.0
 30
0.0
  3
$PAPER_SPACE
  1

  0
ENDBLK
  5
2D2
 67
     1
  8
0
  0
BLOCK
  8
0
  2
STDGX5
 70
     0
 10
0.0
 20
0.0
 30
0.0
  3
STDGX5
  1

  0
ENDBLK
  5
1EE
  8
0
  0
ENDSEC
  0
SECTION
  2
ENTITIES
  0
INSERT
  5
28C
  8
0
  2
STDGX5
 10
55.0
 20
0.0
 30
0.0
 41
0.2
 42
0.2
 43
0.2
  0
INSERT
  5
28D
  8
0
  2
STDGX5
 10
55.0
 20
0.0
 30
0.0
 41
0.2
 42
0.2
 43
0.2
  0
INSERT
  5
7EA
  8
0
  2
STDGX5
 10
0.0
 20
0.0
 30
0.0
  0
INSERT
  5
7EB
  8
0
  2
STDGX5
 10
0.0
 20
0.0
 30
0.0
  0
INSERT
  5
7EC
  8
0
  2
STDGX5
 10
275.0
 20
0.0
 30
0.0
  0
INSERT
  5
7ED
  8
0
  2
STDGX5
 10
275.0
 20
0.0
 30
0.0
  0
INSERT
  5
82B
  8
0
  2
STDGX5
 10
0.0
 20
0.0
 30
0.0
  0
INSERT
  5
82C
  8
0
  2
STDGX5
 10
0.0
 20
0.0
 30
0.0
  0
INSERT
  5
82D
  8
0
  2
STDGX5
 10
275.0
 20
0.0
 30
0.0
  0
INSERT
  5
82E
  8
0
  2
STDGX5
 10
275.0
 20
0.0
 30
0.0
  0
LINE
  5
82F
  8
0
 10
228.23529006283741
 20
239.73696584936181
 30
0.0
 11
289.89483751862679
 21
239.73696584936181
 31
0.0
  0
CIRCLE
  5
830
  8
0
 10
207.08029006283749
 20
274.73696584936181
 30
0.0
 40
2.6000000000000001
  0
ARC
  5
831
  8
0
 10
228.23529006283741
 20
242.9369658493618
 30
0.0
 40
3.2000000000000002
 50
180.0
 51
270.0
  0
LINE
  5
832
  8
0
 10
225.03529006283739
 20
242.9369658493618
 30
0.0
 11
225.0352900628375
 21
243.63869419320699
 31
0.0
  0
ARC
  5
833
  8
0
 10
267.11190374284882
 20
274.73696584936152
 30
0.0
 40
64.0
 50
318.55548152028911
 51
41.444518479710887
  0
ARC
  5
834
  8
0
 10
266.83529006283737
 20
274.73696584936152
 30
0.0
 40
44.799999999999997
 50
315.35769683341363
 51
44.642303166587148
  0
ARC
  5
835
  8
0
 10
289.89483751862679
 20
252.53696584936159
 30
0.0
 40
12.800000000000001
 50
270.0
 51
313.53115216737228
  0
LINE
  5
836
  8
0
 10
189.19469113959579
 20
145.48206383477751
 30
0.0
 11
248.07588898607901
 21
145.48206383477751
 31
0.0
  0
LINE
  5
837
  8
0
 10
186.88529006283741
 20
122.1860638347771
 30
0.0
 11
250.38529006283741
 21
122.1860638347775
 31
0.0
  0
LINE
  5
838
  8
0
 10
187.65329006283719
 20
106.98206383477751
 30
0.0
 11
249.6172900628375
 21
106.98206383477751
 31
0.0
  0
LINE
  5
839
  8
0
 10
186.88529006283741
 20
141.48206383477739
 30
0.0
 11
250.38529006283741
 21
141.48206383477739
 31
0.0
  0
LINE
  5
83A
  8
0
 10
186.88529006283721
 20
107.75006383477739
 30
0.0
 11
250.38529006283741
 21
107.75006383477739
 31
0.0
  0
LINE
  5
83B
  8
0
 10
186.88529006283741
 20
122.1860638347775
 30
0.0
 11
186.88529006283741
 21
107.75006383477739
 31
0.0
  0
LINE
  5
83C
  8
0
 10
186.88529006283741
 20
107.75006383477739
 30
0.0
 11
187.65329006283741
 21
106.98206383477751
 31
0.0
  0
LINE
  5
83D
  8
0
 10
186.88529006283741
 20
122.1860638347775
 30
0.0
 11
186.88529006283741
 21
141.48206383477739
 31
0.0
  0
LINE
  5
83E
  8
0
 10
189.19469113959579
 20
145.48206383477751
 30
0.0
 11
186.88529006283741
 21
141.48206383477739
 31
0.0
  0
LINE
  5
83F
  8
0
 10
250.3852900628375
 20
123.23206383477741
 30
0.0
 11
250.38529006283741
 21
107.75006383477739
 31
0.0
  0
LINE
  5
840
  8
0
 10
231.33529006283729
 20
106.18206383477749
 30
0.0
 11
205.93529006283731
 21
106.1820638347774
 31
0.0
  0
LINE
  5
841
  8
0
 10
205.93529006283731
 20
106.98206383477751
 30
0.0
 11
205.93529006283731
 21
106.18206383477779
 31
0.0
  0
LINE
  5
842
  8
0
 10
231.33529006283729
 20
106.9820638347779
 30
0.0
 11
231.33529006283729
 21
106.18206383477769
 31
0.0
  0
LINE
  5
843
  8
0
 10
249.61729006283741
 20
106.98206383477751
 30
0.0
 11
250.38529006283741
 21
107.75006383477739
 31
0.0
  0
LINE
  5
844
  8
0
 10
250.38529006283741
 20
141.48206383477739
 30
0.0
 11
250.3852900628375
 21
135.93206383477741
 31
0.0
  0
LINE
  5
845
  8
0
 10
248.07588898607889
 20
145.48206383477751
 30
0.0
 11
250.38529006283741
 21
141.48206383477739
 31
0.0
  0
LINE
  5
846
  8
1
 10
218.63529006283741
 20
316.73696584936181
 30
0.0
 11
218.63529006283741
 21
232.73696584936181
 31
0.0
  0
LINE
  5
847
  8
1
 10
341.11190374284882
 20
274.73696584936181
 30
0.0
 11
176.63529006283741
 21
274.73696584936181
 31
0.0
  0
LINE
  5
848
  8
1
 10
218.63529006283741
 20
155.48206383477751
 30
0.0
 11
218.6352900628373
 21
72.382063834777625
 31
0.0
  0
LINE
  5
849
  8
1
 10
336.73529006283741
 20
129.5820638347775
 30
0.0
 11
202.23529006283741
 21
129.5820638347775
 31
0.0
  0
ARC
  5
84A
  8
0
 10
218.63529006283741
 20
129.5820638347775
 30
0.0
 40
6.3499999999999988
 50
90.0
 51
270.0
  0
LINE
  5
84B
  8
0
 10
218.63529006283741
 20
135.93206383477741
 30
0.0
 11
324.7619037428488
 21
135.93206383477741
 31
0.0
  0
LINE
  5
84C
  8
0
 10
218.63529006283741
 20
123.23206383477741
 30
0.0
 11
324.7619037428488
 21
123.23206383477741
 31
0.0
  0
ARC
  5
84D
  8
0
 10
324.7619037428488
 20
129.58206383477719
 30
0.0
 40
6.3499999999999988
 50
270.0
 51
90.0
  0
ARC
  5
84E
  8
2
 10
317.98529006283741
 20
129.58206383477719
 30
0.0
 40
6.3499999999999988
 50
90.0
 51
270.0
  0
CIRCLE
  5
84F
  8
0
 10
218.63529006283741
 20
274.73696584936181
 30
0.0
 40
31.75
  0
LINE
  5
850
  8
0
 10
228.23529006283741
 20
309.7369658493617
 30
0.0
 11
289.89483751862679
 21
309.7369658493617
 31
0.0
  0
ARC
  5
852
  8
0
 10
228.23529006283741
 20
306.53696584936171
 30
0.0
 40
3.2000000000000002
 50
90.000000000000028
 51
180.0
  0
ARC
  5
853
  8
0
 10
228.4073025430333
 20
307.1657159471672
 30
0.0
 40
16.072170410748239
 50
90.613220059627096
 51
179.74599995186691
  0
LINE
  5
854
  8
0
 10
212.3352900628372
 20
307.23696584935908
 30
0.0
 11
212.3352900628374
 21
305.85564994750439
 31
0.0
  0
LINE
  5
855
  8
0
 10
225.03529006283739
 20
306.53696584936171
 30
0.0
 11
225.0352900628375
 21
305.83523750551649
 31
0.0
  0
ARC
  5
856
  8
0
 10
289.89483751862679
 20
296.93696584936151
 30
0.0
 40
12.800000000000001
 50
46.468847832627652
 51
90.000000000000028
  0
ARC
  5
857
  8
0
 10
297.87542008382508
 20
296.69815197580698
 30
0.0
 40
26.69026868692367
 50
49.847051921123438
 51
83.893276174622258
  0
LINE
  5
858
  8
0
 10
212.3352900628372
 20
242.2369658493644
 30
0.0
 11
212.3352900628374
 21
243.61828175121909
 31
0.0
  0
ARC
  5
859
  8
0
 10
228.4073025430333
 20
242.3082157515563
 30
0.0
 40
16.072170410748221
 50
180.25400004813289
 51
269.38677994037289
  0
ARC
  5
85B
  8
0
 10
297.87542008382718
 20
252.7757797229128
 30
0.0
 40
26.690268686919861
 50
276.10672382537791
 51
310.15294807887761
  0
CIRCLE
  5
85C
  8
0
 10
230.19029006283731
 20
274.73696584936181
 30
0.0
 40
2.6000000000000001
  0
CIRCLE
  5
85D
  8
0
 10
218.63529006283741
 20
274.73696584936181
 30
0.0
 40
29.44059892324151
  0
INSERT
  5
85E
  8
0
  2
STDGX5
 10
577.20266922987946
 20
58.141019203945007
 30
0.0
  0
INSERT
  5
85F
  8
0
  2
STDGX5
 10
577.20266922987946
 20
58.141019203945007
 30
0.0
  0
INSERT
  5
860
  8
0
  2
STDGX5
 10
852.20266922987958
 20
58.141019203945007
 30
0.0
  0
INSERT
  5
861
  8
0
  2
STDGX5
 10
852.20266922987958
 20
58.141019203945007
 30
0.0
  0
LINE
  5
862
  8
0
 10
208.63529006283821
 20
101.1820638347774
 30
0.0
 11
228.63529006283821
 21
101.1820638347774
 31
0.0
  0
LINE
  5
863
  8
0
 10
226.13529006283821
 20
75.982063834777421
 30
0.0
 11
211.13529006283821
 21
75.982063834777591
 31
0.0
  0
LINE
  5
864
  8
0
 10
228.63529006283821
 20
78.482063834777421
 30
0.0
 11
208.63529006283821
 21
78.482063834777648
 31
0.0
  0
LINE
  5
865
  8
0
 10
208.63529006283821
 20
101.1820638347774
 30
0.0
 11
208.63529006283821
 21
78.482063834777648
 31
0.0
  0
LINE
  5
866
  8
3
 10
209.9882900628383
 20
101.1820638347774
 30
0.0
 11
209.9882900628383
 21
77.129063834777583
 31
0.0
  0
LINE
  5
867
  8
0
 10
211.13529006283821
 20
75.982063834777591
 30
0.0
 11
208.63529006283821
 21
78.482063834777648
 31
0.0
  0
LINE
  5
868
  8
0
 10
210.43529006283819
 20
101.1820638347774
 30
0.0
 11
210.43529006283811
 21
104.6820638347773
 31
0.0
  0
LINE
  5
869
  8
0
 10
228.63529006283821
 20
101.1820638347774
 30
0.0
 11
228.63529006283821
 21
78.482063834777364
 31
0.0
  0
LINE
  5
86A
  8
3
 10
227.28229006283809
 20
101.1820638347774
 30
0.0
 11
227.28229006283809
 21
77.129063834777355
 31
0.0
  0
LINE
  5
86B
  8
0
 10
228.63529006283821
 20
78.482063834777364
 30
0.0
 11
226.13529006283821
 21
75.982063834777421
 31
0.0
  0
LINE
  5
86C
  8
0
 10
226.83529006283811
 20
101.1820638347774
 30
0.0
 11
226.8352900628382
 21
104.68206383477749
 31
0.0
  0
ARC
  5
86D
  8
0
 10
208.93529006283811
 20
104.6820638347773
 30
0.0
 40
1.5
 50
0.0
 51
90.00000000000081
  0
ARC
  5
86E
  8
0
 10
228.3352900628382
 20
104.68206383477749
 30
0.0
 40
1.5
 50
90.000000000000469
 51
180.0
  0
LINE
  5
889
  8
0
 10
228.23529006283749
 20
323.23696584936181
 30
0.0
 11
300.71475112563598
 21
323.23696584936181
 31
0.0
  0
LINE
  5
88A
  8
0
 10
228.23529006283749
 20
226.23696584936181
 30
0.0
 11
300.71475112564138
 21
226.2369658493617
 31
0.0
  0
TEXT
  5
937
  8
0
 62
     3
 10
0.0
 20
0.0
 30
0.0
 40
10.0
  1
SE20
  7
STANDARD1
  0
ENDSEC
  0
EOF
