  0
SECTION
  2
HEADER
  9
$ACADVER
  1
AC1009
  9
$INSBASE
 10
0.0
 20
0.0
 30
0.0
  9
$EXTMIN
 10
0.0
 20
-1.4802182810368341
 30
0.0
  9
$EXTMAX
 10
160.7376651047127
 20
78.729443295043097
 30
0.0
  9
$LIMMIN
 10
0.0
 20
0.0
  9
$LIMMAX
 10
385.0
 20
270.0
  9
$ORTHOMODE
 70
     0
  9
$REGENMODE
 70
     1
  9
$FILLMODE
 70
     1
  9
$QTEXTMODE
 70
     0
  9
$MIRRTEXT
 70
     0
  9
$DRAGMODE
 70
     2
  9
$LTSCALE
 40
5.0
  9
$OSMODE
 70
    37
  9
$ATTMODE
 70
     1
  9
$TEXTSIZE
 40
4.000000000000048
  9
$TRACEWID
 40
0.05
  9
$TEXTSTYLE
  7
STANDARD
  9
$CLAYER
  8
0
  9
$CELTYPE
  6
BYLAYER
  9
$CECOLOR
 62
   256
  9
$DIMSCALE
 40
1.0
  9
$DIMASZ
 40
3.0
  9
$DIMEXO
 40
2.0
  9
$DIMDLI
 40
0.38
  9
$DIMRND
 40
0.0
  9
$DIMDLE
 40
0.0
  9
$DIMEXE
 40
2.0
  9
$DIMTP
 40
0.0
  9
$DIMTM
 40
0.0
  9
$DIMTXT
 40
3.0
  9
$DIMCEN
 40
0.0
  9
$DIMTSZ
 40
0.0
  9
$DIMTOL
 70
     0
  9
$DIMLIM
 70
     0
  9
$DIMTIH
 70
     0
  9
$DIMTOH
 70
     0
  9
$DIMSE1
 70
     0
  9
$DIMSE2
 70
     0
  9
$DIMTAD
 70
     1
  9
$DIMZIN
 70
     0
  9
$DIMBLK
  1

  9
$DIMASO
 70
     0
  9
$DIMSHO
 70
     0
  9
$DIMPOST
  1

  9
$DIMAPOST
  1

  9
$DIMALT
 70
     0
  9
$DIMALTD
 70
     2
  9
$DIMALTF
 40
25.399999999999999
  9
$DIMLFAC
 40
1.0
  9
$DIMTOFL
 70
     1
  9
$DIMTVP
 40
1.6000000000000001
  9
$DIMTIX
 70
     1
  9
$DIMSOXD
 70
     0
  9
$DIMSAH
 70
     0
  9
$DIMBLK1
  1

  9
$DIMBLK2
  1

  9
$DIMSTYLE
  2
STANDARD
  9
$DIMCLRD
 70
     0
  9
$DIMCLRE
 70
     0
  9
$DIMCLRT
 70
     0
  9
$DIMTFAC
 40
1.0
  9
$DIMGAP
 40
1.0
  9
$LUNITS
 70
     2
  9
$LUPREC
 70
     4
  9
$SKETCHINC
 40
0.1
  9
$FILLETRAD
 40
0.0
  9
$AUNITS
 70
     0
  9
$AUPREC
 70
     4
  9
$MENU
  1
E:\r13\win\SUPPORT\ACAD
  9
$ELEVATION
 40
0.0
  9
$PELEVATION
 40
0.0
  9
$THICKNESS
 40
0.0
  9
$LIMCHECK
 70
     0
  9
$BLIPMODE
 70
     0
  9
$CHAMFERA
 40
0.0
  9
$CHAMFERB
 40
0.0
  9
$SKPOLY
 70
     0
  9
$TDCREATE
 40
2450280.598206134
  9
$TDUPDATE
 40
2457161.6005824311
  9
$TDINDWG
 40
0.1333937963
  9
$TDUSRTIMER
 40
0.1333937963
  9
$USRTIMER
 70
     1
  9
$ANGBASE
 50
0.0
  9
$ANGDIR
 70
     0
  9
$PDMODE
 70
     0
  9
$PDSIZE
 40
0.0
  9
$PLINEWID
 40
0.0
  9
$COORDS
 70
     1
  9
$SPLFRAME
 70
     0
  9
$SPLINETYPE
 70
     6
  9
$SPLINESEGS
 70
     8
  9
$ATTDIA
 70
     0
  9
$ATTREQ
 70
     1
  9
$HANDLING
 70
     1
  9
$HANDSEED
  5
DD5
  9
$SURFTAB1
 70
     6
  9
$SURFTAB2
 70
     6
  9
$SURFTYPE
 70
     6
  9
$SURFU
 70
     6
  9
$SURFV
 70
     6
  9
$UCSNAME
  2

  9
$UCSORG
 10
0.0
 20
0.0
 30
0.0
  9
$UCSXDIR
 10
1.0
 20
0.0
 30
0.0
  9
$UCSYDIR
 10
0.0
 20
1.0
 30
0.0
  9
$PUCSNAME
  2

  9
$PUCSORG
 10
0.0
 20
0.0
 30
0.0
  9
$PUCSXDIR
 10
1.0
 20
0.0
 30
0.0
  9
$PUCSYDIR
 10
0.0
 20
1.0
 30
0.0
  9
$USERI1
 70
     3
  9
$USERI2
 70
     1
  9
$USERI3
 70
     1
  9
$USERI4
 70
     0
  9
$USERI5
 70
     0
  9
$USERR1
 40
1.0
  9
$USERR2
 40
3.0
  9
$USERR3
 40
3.0
  9
$USERR4
 40
3.0
  9
$USERR5
 40
10.0
  9
$WORLDVIEW
 70
     1
  9
$SHADEDGE
 70
     3
  9
$SHADEDIF
 70
    70
  9
$TILEMODE
 70
     1
  9
$MAXACTVP
 70
    16
  9
$PLIMCHECK
 70
     0
  9
$PEXTMIN
 10
1.0000000000000000E+020
 20
1.0000000000000000E+020
 30
1.0000000000000000E+020
  9
$PEXTMAX
 10
-1.0000000000000000E+020
 20
-1.0000000000000000E+020
 30
-1.0000000000000000E+020
  9
$PLIMMIN
 10
0.0
 20
0.0
  9
$PLIMMAX
 10
12.0
 20
9.0
  9
$UNITMODE
 70
     0
  9
$VISRETAIN
 70
     0
  9
$PLINEGEN
 70
     0
  9
$PSLTSCALE
 70
     0
  0
ENDSEC
  0
SECTION
  2
TABLES
  0
TABLE
  2
VPORT
 70
     1
  0
VPORT
  2
*ACTIVE
 70
     0
 10
0.0
 20
0.0
 11
1.0
 21
1.0
 12
81.112178079877197
 22
38.628756322215182
 13
0.0
 23
0.0
 14
5.0
 24
5.0
 15
10.0
 25
10.0
 16
0.0
 26
0.0
 36
1.0
 17
0.0
 27
0.0
 37
0.0
 40
119.2710788720142
 41
1.368715083798882
 42
50.0
 43
0.0
 44
0.0
 50
0.0
 51
0.0
 71
     0
 72
   500
 73
     1
 74
     0
 75
     0
 76
     0
 77
     0
 78
     2
  0
ENDTAB
  0
TABLE
  2
LTYPE
 70
     4
  0
LTYPE
  2
CONTINUOUS
 70
     0
  3
Solid Line
 72
    65
 73
     0
 40
0.0
  0
LTYPE
  2
CENTER
 70
     0
  3
____ _ ____ _ ____ _ ____ _ ____ _ ____ _ ____
 72
    65
 73
     4
 40
2.0
 49
1.25
 49
-0.25
 49
0.25
 49
-0.25
  0
LTYPE
  2
HIDDEN
 70
     0
  3
_ _ _ _ _ _ _ _ _ _ _ _ _ _ _ _ _ _ _ _ _ _ _
 72
    65
 73
     2
 40
0.375
 49
0.25
 49
-0.125
  0
LTYPE
  2
PHANTOM2
 70
     0
  3
___ _ _ ___ _ _ ___ _ _ ___ _ _
 72
    65
 73
     6
 40
1.25
 49
0.625
 49
-0.125
 49
0.125
 49
-0.125
 49
0.125
 49
-0.125
  0
ENDTAB
  0
TABLE
  2
LAYER
 70
     4
  0
LAYER
  2
0
 70
     0
 62
     7
  6
CONTINUOUS
  0
LAYER
  2
1
 70
     0
 62
     1
  6
CENTER
  0
LAYER
  2
3
 70
     0
 62
     3
  6
CONTINUOUS
  0
LAYER
  2
2
 70
     0
 62
     2
  6
HIDDEN
  0
ENDTAB
  0
TABLE
  2
STYLE
 70
     2
  0
STYLE
  2
STANDARD
 70
     0
 40
0.0
 41
1.0
 50
0.0
 71
     0
 42
4.000000000000048
  3
SIMPLEX
  4
BIGFONT
  0
STYLE
  2
STANDARD1
 70
     0
 40
0.0
 41
1.0
 50
0.0
 71
     0
 42
3.0
  3
txt
  4

  0
ENDTAB
  0
TABLE
  2
VIEW
 70
     0
  0
ENDTAB
  0
TABLE
  2
UCS
 70
     0
  0
ENDTAB
  0
TABLE
  2
APPID
 70
     4
  0
APPID
  2
ACAD
 70
     0
  0
APPID
  2
ACAD_MLEADERVER
 70
     0
  0
APPID
  2
ACAD_EXEMPT_FROM_CAD_STANDARDS
 70
     0
  0
APPID
  2
ACAD_NAV_VCDISPLAY
 70
     0
  0
ENDTAB
  0
TABLE
  2
DIMSTYLE
 70
     2
  0
DIMSTYLE
  2
STANDARD
 70
     0
  3

  4

  5

  6

  7

 40
1.0
 41
0.18
 42
0.0625
 43
0.38
 44
0.18
 45
0.0
 46
0.0
 47
0.0
 48
0.0
140
0.18
141
0.09
142
0.0
143
25.399999999999999
144
1.0
145
0.0
146
1.0
147
0.09
 71
     0
 72
     0
 73
     1
 74
     1
 75
     0
 76
     0
 77
     0
 78
     0
170
     0
171
     2
172
     0
173
     0
174
     0
175
     0
176
     0
177
     0
178
     0
  0
DIMSTYLE
  2
ISO-25
 70
     0
  3

  4

  5

  6

  7

 40
1.0
 41
2.5
 42
0.625
 43
3.75
 44
1.25
 45
0.0
 46
0.0
 47
0.0
 48
0.0
140
2.5
141
2.5
142
0.0
143
0.0393700787
144
1.0
145
0.0
146
1.0
147
0.625
 71
     0
 72
     0
 73
     0
 74
     0
 75
     0
 76
     0
 77
     1
 78
     8
170
     0
171
     3
172
     1
173
     0
174
     0
175
     0
176
     0
177
     0
178
     0
  0
ENDTAB
  0
ENDSEC
  0
SECTION
  2
BLOCKS
  0
BLOCK
  8
0
  2
$MODEL_SPACE
 70
     0
 10
0.0
 20
0.0
 30
0.0
  3
$MODEL_SPACE
  1

  0
ENDBLK
  5
175
  8
0
  0
BLOCK
 67
     1
  8
0
  2
$PAPER_SPACE
 70
     0
 10
0.0
 20
0.0
 30
0.0
  3
$PAPER_SPACE
  1

  0
ENDBLK
  5
173
 67
     1
  8
0
  0
ENDSEC
  0
SECTION
  2
ENTITIES
  0
TEXT
  5
99A
  8
0
 62
     3
 10
0.0
 20
0.0
 30
0.0
 40
5.0
  1
SDXNE6AW-SUS
  7
STANDARD1
  0
ARC
  5
AAE
  8
0
 10
102.89786342710759
 20
62.52944329511805
 30
0.0
 40
0.8000000000002732
 50
270.0000931697997
 51
356.41667830159992
  0
ARC
  5
AAF
  8
0
 10
102.89786342710759
 20
74.929443295118062
 30
0.0
 40
0.8000000000002447
 50
3.5833216984001681
 51
89.999906830199464
  0
LINE
  5
AB0
  8
0
 10
102.62544515960759
 20
75.729443295118074
 30
0.0
 11
98.496299398207583
 21
72.729443295118074
 31
0.0
  0
LINE
  5
AB1
  8
0
 10
98.496299398207583
 20
64.729443295118074
 30
0.0
 11
102.62544515960759
 21
61.729443295118067
 31
0.0
  0
LINE
  5
AB2
  8
0
 10
102.8978647280076
 20
75.729443295118074
 30
0.0
 11
102.62544515960759
 21
75.729443295118074
 31
0.0
  0
LINE
  5
AB3
  8
0
 10
102.62544515960759
 20
61.729443295118067
 30
0.0
 11
102.8978647280076
 21
61.729443295118067
 31
0.0
  0
LINE
  5
AB4
  8
0
 10
98.496299398207583
 20
72.729443295118074
 30
0.0
 11
93.049852788807584
 21
72.729443295118074
 31
0.0
  0
LINE
  5
AB5
  8
0
 10
93.049852788807584
 20
64.729443295118074
 30
0.0
 11
98.496299398207583
 21
64.729443295118074
 31
0.0
  0
LINE
  5
AB6
  8
0
 10
93.049852788807584
 20
72.729443295018058
 30
0.0
 11
92.696299398307588
 21
72.375889904418074
 31
0.0
  0
LINE
  5
AB7
  8
0
 10
92.696299398307588
 20
65.082996685718086
 30
0.0
 11
93.049852788807584
 21
64.729443295218061
 31
0.0
  0
LINE
  5
AB8
  8
0
 10
82.696299398207586
 20
71.729443295118074
 30
0.0
 11
76.156299398207594
 21
71.729443295118074
 31
0.0
  0
LINE
  5
AB9
  8
0
 10
76.156299398207594
 20
65.729443295118074
 30
0.0
 11
82.696299398207586
 21
65.729443295118074
 31
0.0
  0
LINE
  5
ABA
  8
0
 10
76.156299398207594
 20
71.729443295018058
 30
0.0
 11
75.696299398307573
 21
71.26944329501805
 31
0.0
  0
LINE
  5
ABB
  8
0
 10
75.696299398307573
 20
66.189443295118053
 30
0.0
 11
76.156299398207594
 21
65.729443295218061
 31
0.0
  0
LINE
  5
ABC
  8
0
 10
92.236299398207578
 20
71.729443295118074
 30
0.0
 11
85.696299398207572
 21
71.729443295118074
 31
0.0
  0
LINE
  5
ABD
  8
0
 10
85.696299398207572
 20
65.729443295118074
 30
0.0
 11
92.236299398207578
 21
65.729443295118074
 31
0.0
  0
LINE
  5
ABE
  8
0
 10
92.696299398207586
 20
71.269443295118066
 30
0.0
 11
92.236299398207578
 21
71.729443295118074
 31
0.0
  0
LINE
  5
ABF
  8
0
 10
92.236299398207578
 20
65.729443295018044
 30
0.0
 11
92.696299398207586
 21
66.189443295118053
 31
0.0
  0
LINE
  5
AC0
  8
0
 10
71.496299398207583
 20
70.229443295118074
 30
0.0
 11
70.936824536497255
 21
69.906430333071
 31
0.0
  0
LINE
  5
AC1
  8
0
 10
70.936824536497255
 20
67.552456257065117
 30
0.0
 11
71.496299398207583
 21
67.229443295018058
 31
0.0
  0
LINE
  5
AC2
  8
0
 10
75.696299398207572
 20
70.229443295118074
 30
0.0
 11
71.496299398207583
 21
70.229443295118074
 31
0.0
  0
LINE
  5
AC3
  8
0
 10
71.496299398207583
 20
67.229443295118074
 30
0.0
 11
75.696299398207572
 21
67.229443295118074
 31
0.0
  0
LINE
  5
AC4
  8
0
 10
103.6962993982076
 20
62.479443295118067
 30
0.0
 11
103.6962993982076
 21
74.979443295118074
 31
0.0
  0
LINE
  5
AC5
  8
0
 10
98.496299398207583
 20
72.729443295118074
 30
0.0
 11
98.496299398207583
 21
64.729443295118074
 31
0.0
  0
LINE
  5
AC6
  8
0
 10
102.62544515960759
 20
61.729443295118067
 30
0.0
 11
102.62544515960759
 21
75.729443295118074
 31
0.0
  0
LINE
  5
AC7
  8
0
 10
93.049852788807584
 20
72.729443295118074
 30
0.0
 11
93.049852788807584
 21
64.729443295118074
 31
0.0
  0
LINE
  5
AC8
  8
0
 10
92.696299398307588
 20
72.375889904418074
 30
0.0
 11
92.696299398307588
 21
65.082996685718086
 31
0.0
  0
LINE
  5
AC9
  8
0
 10
76.156299398207594
 20
71.729443295118074
 30
0.0
 11
76.156299398207594
 21
65.729443295118074
 31
0.0
  0
LINE
  5
ACA
  8
0
 10
75.696299398307573
 20
71.269443295018078
 30
0.0
 11
75.696299398307573
 21
66.189443295118053
 31
0.0
  0
LINE
  5
ACB
  8
0
 10
92.236299398207578
 20
71.729443295118074
 30
0.0
 11
92.236299398307565
 21
69.329443295118068
 31
0.0
  0
LINE
  5
ACC
  8
0
 10
92.236299398307565
 20
69.329443295118068
 30
0.0
 11
91.196299398207572
 21
69.329443295118068
 31
0.0
  0
LINE
  5
ACD
  8
0
 10
91.196299398207572
 20
68.129443295118051
 30
0.0
 11
92.236299398307565
 21
68.129443295118051
 31
0.0
  0
LINE
  5
ACE
  8
0
 10
92.236299398307565
 20
68.129443295118051
 30
0.0
 11
92.236299398207578
 21
65.729443295118074
 31
0.0
  0
LINE
  5
ACF
  8
0
 10
91.196299398207572
 20
68.129443295118051
 30
0.0
 11
91.196299398207572
 21
69.329443295118068
 31
0.0
  0
LINE
  5
AD0
  8
0
 10
92.236299398307565
 20
69.329443295118068
 30
0.0
 11
92.696299398207586
 21
69.329443295118068
 31
0.0
  0
LINE
  5
AD1
  8
0
 10
92.696299398207586
 20
68.129443295118051
 30
0.0
 11
92.236299398307565
 21
68.129443295118051
 31
0.0
  0
LINE
  5
AD4
  8
0
 10
71.496299398207583
 20
70.229443295118074
 30
0.0
 11
71.496299398207583
 21
67.229443295018058
 31
0.0
  0
LINE
  5
AD5
  8
0
 10
102.8978647280076
 20
61.729443295118067
 30
0.0
 11
102.8978647280076
 21
75.729443295118074
 31
0.0
  0
CIRCLE
  5
AD6
  8
0
 10
150.7378498043133
 20
68.730268208443064
 30
0.0
 40
5.7234505683742576
  0
CIRCLE
  5
AD7
  8
0
 10
150.73766510471319
 20
68.729443295043083
 30
0.0
 40
6.2499999999994591
  0
CIRCLE
  5
AD8
  8
0
 10
150.73766510471319
 20
68.729443295043083
 30
0.0
 40
6.9999999999994866
  0
CIRCLE
  5
AD9
  8
0
 10
23.654933691701839
 20
68.729443295043097
 30
0.0
 40
1.038119784652735
  0
CIRCLE
  5
ADA
  8
0
 10
23.654933691701839
 20
68.729443295043097
 30
0.0
 40
1.5
  0
CIRCLE
  5
ADB
  8
0
 10
23.654933691701839
 20
68.729443295043097
 30
0.0
 40
2.5399999999535781
  0
CIRCLE
  5
ADC
  8
0
 10
23.654933691701839
 20
68.729443295043097
 30
0.0
 40
3.0000000000000062
  0
LINE
  5
ADD
  8
0
 10
23.654933691701839
 20
62.955940603143112
 30
0.0
 11
18.654933691701871
 21
65.842691949143074
 31
0.0
  0
LINE
  5
ADE
  8
0
 10
18.654933691701871
 20
65.842691949143088
 30
0.0
 11
18.654933691701871
 21
71.616194640943121
 31
0.0
  0
LINE
  5
ADF
  8
0
 10
28.654933691701899
 20
65.842691949143088
 30
0.0
 11
23.65493369170181
 21
62.955940603143119
 31
0.0
  0
LINE
  5
AE0
  8
0
 10
18.654933691701871
 20
71.616194640943121
 30
0.0
 11
23.654933691701871
 21
74.502945986943104
 31
0.0
  0
LINE
  5
AE1
  8
0
 10
28.654933691701899
 20
71.616194640943121
 30
0.0
 11
28.654933691701899
 21
65.842691949143116
 31
0.0
  0
LINE
  5
AE2
  8
0
 10
23.654933691701871
 20
74.502945986943104
 30
0.0
 11
28.654933691701899
 21
71.616194640943064
 31
0.0
  0
CIRCLE
  5
AE3
  8
0
 10
23.654933691701839
 20
68.729443295043097
 30
0.0
 40
7.0
  0
ARC
  5
AE4
  8
0
 10
102.89786342710759
 20
22.38297201047844
 30
0.0
 40
0.8000000000002447
 50
270.0000931697997
 51
356.41667830159992
  0
ARC
  5
AE5
  8
0
 10
102.89786342710759
 20
34.782972010478453
 30
0.0
 40
0.8000000000002447
 50
3.5833216984001681
 51
89.999906830199464
  0
LINE
  5
AE6
  8
0
 10
102.62544515960759
 20
35.582972010478457
 30
0.0
 11
98.496299398207583
 21
32.582972010478457
 31
0.0
  0
LINE
  5
AE7
  8
0
 10
98.496299398207583
 20
24.582972010478461
 30
0.0
 11
102.62544515960759
 21
21.582972010478461
 31
0.0
  0
LINE
  5
AE8
  8
0
 10
102.8978647280076
 20
35.582972010478457
 30
0.0
 11
102.62544515960759
 21
35.582972010478457
 31
0.0
  0
LINE
  5
AE9
  8
0
 10
102.62544515960759
 20
21.582972010478461
 30
0.0
 11
102.8978647280076
 21
21.582972010478461
 31
0.0
  0
LINE
  5
AEA
  8
0
 10
98.496299398207583
 20
32.582972010478457
 30
0.0
 11
93.049852788807584
 21
32.582972010478457
 31
0.0
  0
LINE
  5
AEB
  8
0
 10
93.049852788807584
 20
24.582972010478461
 30
0.0
 11
98.496299398207583
 21
24.582972010478461
 31
0.0
  0
LINE
  5
AEC
  8
0
 10
93.049852788807584
 20
32.582972010478457
 30
0.0
 11
92.696299398307588
 21
32.229418619878452
 31
0.0
  0
LINE
  5
AED
  8
0
 10
92.696299398307588
 20
24.936525401178429
 30
0.0
 11
93.049852788807584
 21
24.58297201057842
 31
0.0
  0
LINE
  5
AEE
  8
0
 10
76.156299398207594
 20
31.58297201037842
 30
0.0
 11
75.696299398307573
 21
31.122972010478449
 31
0.0
  0
LINE
  5
AEF
  8
0
 10
75.696299398307573
 20
26.042972010578431
 30
0.0
 11
76.156299398207594
 21
25.582972010678461
 31
0.0
  0
LINE
  5
AF0
  8
0
 10
82.696299398207586
 20
31.582972010478461
 30
0.0
 11
76.156299398207594
 21
31.582972010478461
 31
0.0
  0
LINE
  5
AF1
  8
0
 10
76.156299398207594
 20
25.582972010478461
 30
0.0
 11
82.696299398207586
 21
25.582972010478461
 31
0.0
  0
LINE
  5
AF2
  8
0
 10
71.496299398207583
 20
30.08297201057842
 30
0.0
 11
70.936824536497255
 21
29.759959048531371
 31
0.0
  0
LINE
  5
AF3
  8
0
 10
70.936824536497255
 20
27.40598497252547
 30
0.0
 11
71.496299398207583
 21
27.082972010478461
 31
0.0
  0
LINE
  5
AF4
  8
0
 10
75.696299398207572
 20
30.082972010478461
 30
0.0
 11
71.496299398207583
 21
30.082972010478461
 31
0.0
  0
LINE
  5
AF5
  8
0
 10
71.496299398207583
 20
27.082972010478461
 30
0.0
 11
75.696299398207572
 21
27.082972010478461
 31
0.0
  0
LINE
  5
AF6
  8
0
 10
103.6962993982076
 20
22.332972010478461
 30
0.0
 11
103.6962993982076
 21
34.832972010478457
 31
0.0
  0
LINE
  5
AF7
  8
0
 10
98.496299398207583
 20
32.582972010478457
 30
0.0
 11
98.496299398207583
 21
24.582972010478461
 31
0.0
  0
LINE
  5
AF8
  8
0
 10
102.62544515960759
 20
21.582972010478461
 30
0.0
 11
102.62544515960759
 21
35.582972010478457
 31
0.0
  0
LINE
  5
AF9
  8
0
 10
93.049852788807584
 20
32.582972010478457
 30
0.0
 11
93.049852788807584
 21
24.582972010478461
 31
0.0
  0
LINE
  5
AFA
  8
0
 10
92.696299398307588
 20
32.229418619878452
 30
0.0
 11
92.696299398307588
 21
24.936525401178429
 31
0.0
  0
LINE
  5
AFB
  8
0
 10
75.696299398307573
 20
31.122972010478449
 30
0.0
 11
75.696299398307573
 21
26.042972010578431
 31
0.0
  0
LINE
  5
AFC
  8
0
 10
76.156299398207594
 20
31.58297201037842
 30
0.0
 11
76.156299398207594
 21
25.582972010478461
 31
0.0
  0
LINE
  5
AFE
  8
0
 10
71.496299398207583
 20
30.082972010478461
 30
0.0
 11
71.496299398207583
 21
27.082972010478461
 31
0.0
  0
LINE
  5
AFF
  8
0
 10
102.8978647280076
 20
21.582972010478461
 30
0.0
 11
102.8978647280076
 21
35.582972010478457
 31
0.0
  0
ARC
  5
B00
  8
2
 10
111.8962993982076
 20
28.582972010478461
 30
0.0
 40
9.9999999999999734
 50
145.09296127780121
 51
214.8996215836996
  0
POLYLINE
  5
B01
  8
0
 66
     1
 10
0.0
 20
0.0
 30
0.0
 70
   128
  0
VERTEX
  5
D85
  8
0
 10
82.977831354207609
 20
33.582972010478457
 30
0.0
  0
VERTEX
  5
D86
  8
0
 10
82.771812679407589
 20
32.34325607917846
 30
0.0
  0
VERTEX
  5
D87
  8
0
 10
82.696299398207586
 20
31.082972010478461
 30
0.0
  0
SEQEND
  5
D88
  8
0
  0
POLYLINE
  5
B02
  8
0
 66
     1
 10
0.0
 20
0.0
 30
0.0
 70
   128
  0
VERTEX
  5
D89
  8
0
 10
85.414767459307555
 20
33.582971929078461
 30
0.0
  0
VERTEX
  5
D8A
  8
0
 10
85.620786121907585
 20
32.343256037678451
 30
0.0
  0
VERTEX
  5
D8B
  8
0
 10
85.696299398207572
 20
31.082972010478461
 30
0.0
  0
SEQEND
  5
D8C
  8
0
  0
POLYLINE
  5
B03
  8
0
 66
     1
 10
0.0
 20
0.0
 30
0.0
 70
   128
  0
VERTEX
  5
D8D
  8
0
 10
85.696299398207572
 20
31.082972010478461
 30
0.0
  0
VERTEX
  5
D8E
  8
0
 10
85.621989413907585
 20
29.832971994378472
 30
0.0
  0
VERTEX
  5
D8F
  8
0
 10
85.414767435507585
 20
28.582971978278451
 30
0.0
  0
SEQEND
  5
D90
  8
0
  0
LINE
  5
B04
  8
0
 10
85.414767450807602
 20
28.582971969778459
 30
0.0
 11
82.977831354207609
 21
28.582972010478461
 31
0.0
  0
POLYLINE
  5
B05
  8
0
 66
     1
 10
0.0
 20
0.0
 30
0.0
 70
   128
  0
VERTEX
  5
D91
  8
0
 10
82.696299398207586
 20
31.082972010478461
 30
0.0
  0
VERTEX
  5
D92
  8
0
 10
82.770609380607596
 20
29.832972010478461
 30
0.0
  0
VERTEX
  5
D93
  8
0
 10
82.977831354207609
 20
28.582972010478461
 30
0.0
  0
SEQEND
  5
D94
  8
0
  0
POLYLINE
  5
B06
  8
0
 66
     1
 10
0.0
 20
0.0
 30
0.0
 70
   128
  0
VERTEX
  5
D95
  8
0
 10
82.977831354207609
 20
28.582972010478461
 30
0.0
  0
VERTEX
  5
D96
  8
0
 10
82.771812679407589
 20
27.34325607917846
 30
0.0
  0
VERTEX
  5
D97
  8
0
 10
82.696299398207586
 20
26.082972010478461
 30
0.0
  0
SEQEND
  5
D98
  8
0
  0
POLYLINE
  5
B07
  8
0
 66
     1
 10
0.0
 20
0.0
 30
0.0
 70
   128
  0
VERTEX
  5
D99
  8
0
 10
85.414767459307555
 20
28.582971929078461
 30
0.0
  0
VERTEX
  5
D9A
  8
0
 10
85.620786121907585
 20
27.343256037678451
 30
0.0
  0
VERTEX
  5
D9B
  8
0
 10
85.696299398207572
 20
26.082972010478461
 30
0.0
  0
SEQEND
  5
D9C
  8
0
  0
POLYLINE
  5
B08
  8
0
 66
     1
 10
0.0
 20
0.0
 30
0.0
 70
   128
  0
VERTEX
  5
D9D
  8
0
 10
85.696299398207572
 20
26.082972010478461
 30
0.0
  0
VERTEX
  5
D9E
  8
0
 10
85.621989413907585
 20
24.832971994378472
 30
0.0
  0
VERTEX
  5
D9F
  8
0
 10
85.414767435507585
 20
23.58297197837847
 30
0.0
  0
SEQEND
  5
DA0
  8
0
  0
POLYLINE
  5
B09
  8
0
 66
     1
 10
0.0
 20
0.0
 30
0.0
 70
   128
  0
VERTEX
  5
DA1
  8
0
 10
82.696299398207586
 20
26.082972010478461
 30
0.0
  0
VERTEX
  5
DA2
  8
0
 10
82.770609380607596
 20
24.832972010478461
 30
0.0
  0
VERTEX
  5
DA3
  8
0
 10
82.977831354207609
 20
23.582972010478461
 30
0.0
  0
SEQEND
  5
DA4
  8
0
  0
LINE
  5
B0A
  8
0
 10
82.696299398207586
 20
33.582972010478457
 30
0.0
 11
85.696299398207572
 21
33.582972010478457
 31
0.0
  0
LINE
  5
B0B
  8
0
 10
85.696299398207572
 20
23.582972010478461
 30
0.0
 11
85.696299398207572
 21
33.582972010478457
 31
0.0
  0
LINE
  5
B0C
  8
0
 10
82.696299398207586
 20
63.729443295118067
 30
0.0
 11
82.977831354207609
 21
62.955940603318048
 31
0.0
  0
LINE
  5
B0D
  8
0
 10
82.977831354207609
 20
74.502945987018052
 30
0.0
 11
82.696299398207586
 21
73.729443295118074
 31
0.0
  0
LINE
  5
B0E
  8
0
 10
85.696299398207572
 20
73.729443295118074
 30
0.0
 11
85.414767450807602
 21
74.502945963518073
 31
0.0
  0
LINE
  5
B0F
  8
0
 10
85.414767450807602
 20
62.955940626818041
 30
0.0
 11
85.696299398207572
 21
63.72944329521804
 31
0.0
  0
LINE
  5
B10
  8
0
 10
82.977831354207609
 20
65.84269194921805
 30
0.0
 11
85.414767450807602
 21
65.842691925718043
 31
0.0
  0
POLYLINE
  5
B11
  8
0
 66
     1
 10
0.0
 20
0.0
 30
0.0
 70
   128
  0
VERTEX
  5
DA5
  8
0
 10
85.414767459307555
 20
65.842691902218064
 30
0.0
  0
VERTEX
  5
DA6
  8
0
 10
85.620786121907585
 20
65.12694159861806
 30
0.0
  0
VERTEX
  5
DA7
  8
0
 10
85.696299398207572
 20
64.39931627621803
 30
0.0
  0
SEQEND
  5
DA8
  8
0
  0
POLYLINE
  5
B12
  8
0
 66
     1
 10
0.0
 20
0.0
 30
0.0
 70
   128
  0
VERTEX
  5
DA9
  8
0
 10
85.696299398207572
 20
64.39931627621803
 30
0.0
  0
VERTEX
  5
DAA
  8
0
 10
85.621989413907585
 20
63.677628430518041
 30
0.0
  0
VERTEX
  5
DAB
  8
0
 10
85.414767435507585
 20
62.955940584718057
 30
0.0
  0
SEQEND
  5
DAC
  8
0
  0
LINE
  5
B13
  8
0
 10
82.977831354207609
 20
62.955940603318048
 30
0.0
 11
85.414767450807602
 21
62.955940626818041
 31
0.0
  0
POLYLINE
  5
B14
  8
0
 66
     1
 10
0.0
 20
0.0
 30
0.0
 70
   128
  0
VERTEX
  5
DAD
  8
0
 10
82.696299398207586
 20
64.39931627621803
 30
0.0
  0
VERTEX
  5
DAE
  8
0
 10
82.770609380607596
 20
63.67762843971807
 30
0.0
  0
VERTEX
  5
DAF
  8
0
 10
82.977831354207609
 20
62.955940603318048
 30
0.0
  0
SEQEND
  5
DB0
  8
0
  0
POLYLINE
  5
B15
  8
0
 66
     1
 10
0.0
 20
0.0
 30
0.0
 70
   128
  0
VERTEX
  5
DB1
  8
0
 10
85.696299398207572
 20
68.729443295118074
 30
0.0
  0
VERTEX
  5
DB2
  8
0
 10
85.621989413907585
 20
67.286067603618051
 30
0.0
  0
VERTEX
  5
DB3
  8
0
 10
85.414767435507585
 20
65.842691912118013
 30
0.0
  0
SEQEND
  5
DB4
  8
0
  0
LINE
  5
B16
  8
0
 10
82.977831354207609
 20
71.616194641118057
 30
0.0
 11
85.414767450807602
 21
71.616194594118042
 31
0.0
  0
POLYLINE
  5
B17
  8
0
 66
     1
 10
0.0
 20
0.0
 30
0.0
 70
   128
  0
VERTEX
  5
DB5
  8
0
 10
85.414767459307555
 20
71.616194547118027
 30
0.0
  0
VERTEX
  5
DB6
  8
0
 10
85.620786121907585
 20
70.184693939818033
 30
0.0
  0
VERTEX
  5
DB7
  8
0
 10
85.696299398207572
 20
68.729443295218033
 30
0.0
  0
SEQEND
  5
DB8
  8
0
  0
POLYLINE
  5
B18
  8
0
 66
     1
 10
0.0
 20
0.0
 30
0.0
 70
   128
  0
VERTEX
  5
DB9
  8
0
 10
85.696299398207572
 20
73.059570314118034
 30
0.0
  0
VERTEX
  5
DBA
  8
0
 10
85.621989413907585
 20
72.337882468318071
 30
0.0
  0
VERTEX
  5
DBB
  8
0
 10
85.414767435507585
 20
71.616194622518023
 30
0.0
  0
SEQEND
  5
DBC
  8
0
  0
POLYLINE
  5
B19
  8
0
 66
     1
 10
0.0
 20
0.0
 30
0.0
 70
   128
  0
VERTEX
  5
DBD
  8
0
 10
82.977831354207609
 20
74.502945987018052
 30
0.0
  0
VERTEX
  5
DBE
  8
0
 10
82.771812679407589
 20
73.787195660418064
 30
0.0
  0
VERTEX
  5
DBF
  8
0
 10
82.696299398207586
 20
73.059570314118034
 30
0.0
  0
SEQEND
  5
DC0
  8
0
  0
LINE
  5
B1A
  8
0
 10
85.414767450807602
 20
74.502945963518073
 30
0.0
 11
82.977831354207609
 21
74.502945987018052
 31
0.0
  0
POLYLINE
  5
B1B
  8
0
 66
     1
 10
0.0
 20
0.0
 30
0.0
 70
   128
  0
VERTEX
  5
DC1
  8
0
 10
85.414767459307555
 20
74.502945940018023
 30
0.0
  0
VERTEX
  5
DC2
  8
0
 10
85.620786121907585
 20
73.787195636418033
 30
0.0
  0
VERTEX
  5
DC3
  8
0
 10
85.696299398207572
 20
73.059570314118034
 30
0.0
  0
SEQEND
  5
DC4
  8
0
  0
LINE
  5
B1C
  8
0
 10
85.696299398207572
 20
63.72944329521804
 30
0.0
 11
85.696299398207572
 21
73.729443295118131
 31
0.0
  0
ARC
  5
B1D
  8
2
 10
111.8962993982076
 20
68.729443295118074
 30
0.0
 40
9.9999999999999734
 50
145.0929612777999
 51
214.8996215836996
  0
LINE
  5
B1E
  8
0
 10
92.236299398207578
 20
31.582972010478461
 30
0.0
 11
85.696299398207572
 21
31.582972010478461
 31
0.0
  0
LINE
  5
B1F
  8
0
 10
85.696299398207572
 20
25.582972010478461
 30
0.0
 11
92.236299398207578
 21
25.582972010478461
 31
0.0
  0
LINE
  5
B20
  8
0
 10
92.696299398207586
 20
31.122972010478449
 30
0.0
 11
92.236299398207578
 21
31.582972010478461
 31
0.0
  0
LINE
  5
B21
  8
0
 10
92.236299398207578
 20
25.582972010378441
 30
0.0
 11
92.696299398207586
 21
26.04297201047844
 31
0.0
  0
LINE
  5
B22
  8
0
 10
92.236299398207578
 20
31.582972010478461
 30
0.0
 11
92.236299398457547
 21
25.58297201062841
 31
0.0
  0
CIRCLE
  5
B23
  8
0
 10
23.654933691701839
 20
68.729443295043097
 30
0.0
 40
4.9999999999807798
  0
LINE
  5
B24
  8
0
 10
82.696299398207586
 20
63.72944329521804
 30
0.0
 11
82.696299398207586
 21
73.729443295118131
 31
0.0
  0
POLYLINE
  5
B25
  8
0
 66
     1
 10
0.0
 20
0.0
 30
0.0
 70
   128
  0
VERTEX
  5
DC5
  8
0
 10
82.977831345707642
 20
65.842691902218064
 30
0.0
  0
VERTEX
  5
DC6
  8
0
 10
82.77181268310764
 20
65.12694159861806
 30
0.0
  0
VERTEX
  5
DC7
  8
0
 10
82.696299406807626
 20
64.39931627621803
 30
0.0
  0
SEQEND
  5
DC8
  8
0
  0
POLYLINE
  5
B26
  8
0
 66
     1
 10
0.0
 20
0.0
 30
0.0
 70
   128
  0
VERTEX
  5
DC9
  8
0
 10
82.696299406807626
 20
68.729443295118074
 30
0.0
  0
VERTEX
  5
DCA
  8
0
 10
82.770609391107627
 20
67.286067603618051
 30
0.0
  0
VERTEX
  5
DCB
  8
0
 10
82.977831369507641
 20
65.842691912118013
 30
0.0
  0
SEQEND
  5
DCC
  8
0
  0
POLYLINE
  5
B27
  8
0
 66
     1
 10
0.0
 20
0.0
 30
0.0
 70
   128
  0
VERTEX
  5
DCD
  8
0
 10
82.977831345707642
 20
71.616194547118027
 30
0.0
  0
VERTEX
  5
DCE
  8
0
 10
82.77181268310764
 20
70.184693939818033
 30
0.0
  0
VERTEX
  5
DCF
  8
0
 10
82.696299406807626
 20
68.729443295218033
 30
0.0
  0
SEQEND
  5
DD0
  8
0
  0
POLYLINE
  5
B28
  8
0
 66
     1
 10
0.0
 20
0.0
 30
0.0
 70
   128
  0
VERTEX
  5
DD1
  8
0
 10
82.696299406807626
 20
73.059570314118034
 30
0.0
  0
VERTEX
  5
DD2
  8
0
 10
82.770609391107627
 20
72.337882468318071
 30
0.0
  0
VERTEX
  5
DD3
  8
0
 10
82.977831369507641
 20
71.616194622518023
 30
0.0
  0
SEQEND
  5
DD4
  8
0
  0
LINE
  5
B29
  8
0
 10
82.696299398207586
 20
23.582972010478461
 30
0.0
 11
82.696299398207586
 21
33.582972010478457
 31
0.0
  0
LINE
  5
B2A
  8
0
 10
82.696299398207586
 20
23.582971969778448
 30
0.0
 11
85.696299398207572
 21
23.582971969778448
 31
0.0
  0
LINE
  5
B3C
  8
1
 10
140.73766510471381
 20
68.729443295043083
 30
0.0
 11
160.7376651047127
 21
68.729443295043083
 31
0.0
  0
LINE
  5
B3D
  8
1
 10
150.73766510471319
 20
78.729443295042572
 30
0.0
 11
150.73766510471319
 21
58.729443295043602
 31
0.0
  0
LINE
  5
B3E
  8
1
 10
23.654933691701839
 20
78.729443295043097
 30
0.0
 11
23.654933691701839
 21
58.729443295043097
 31
0.0
  0
LINE
  5
B3F
  8
1
 10
13.65493369170184
 20
68.729443295043097
 30
0.0
 11
33.654933691701842
 21
68.729443295043097
 31
0.0
  0
LINE
  5
B40
  8
1
 10
67.696299398207572
 20
28.582972010528419
 30
0.0
 11
106.6962993982076
 21
28.582972010478461
 31
0.0
  0
LINE
  5
B42
  8
3
 10
75.696299398307573
 20
30.9694720104964
 30
0.0
 11
82.6962993982076
 21
30.9694720104964
 31
0.0
  0
LINE
  5
B45
  8
3
 10
75.696299398307573
 20
26.196472010496379
 30
0.0
 11
82.6962993982076
 21
26.196472010496379
 31
0.0
  0
LINE
  5
B46
  8
3
 10
85.696299398207572
 20
30.9694720104964
 30
0.0
 11
92.696299398307545
 21
30.9694720104964
 31
0.0
  0
LINE
  5
B47
  8
3
 10
85.696299398207572
 20
26.196472010496372
 30
0.0
 11
92.696299398307545
 21
26.196472010496372
 31
0.0
  0
LINE
  5
B51
  8
1
 10
67.696299398207572
 20
68.729443295068066
 30
0.0
 11
106.6962993982076
 21
68.7294432950181
 31
0.0
  0
LINE
  5
B52
  8
3
 10
75.696299398307573
 20
71.115943295036033
 30
0.0
 11
82.6962993982076
 21
71.115943295036033
 31
0.0
  0
LINE
  5
B54
  8
3
 10
75.696299398307573
 20
66.342943295036022
 30
0.0
 11
82.6962993982076
 21
66.342943295036022
 31
0.0
  0
LINE
  5
B55
  8
3
 10
85.696299398207572
 20
71.115943295036033
 30
0.0
 11
92.696299398307588
 21
71.115943295036047
 31
0.0
  0
LINE
  5
B56
  8
3
 10
85.696299398207572
 20
66.342943295035994
 30
0.0
 11
92.696299398307588
 21
66.342943295036022
 31
0.0
  0
CIRCLE
  5
B59
  8
3
 10
23.654933691701839
 20
68.729443295043097
 30
0.0
 40
2.3864999999679659
  0
LINE
  5
B9D
  8
0
 10
70.936824536497255
 20
69.90643033310478
 30
0.0
 11
70.936824536497255
 21
67.552456257131354
 31
0.0
  0
ARC
  5
B9E
  8
0
 10
73.696299398207572
 20
68.729443295118074
 30
0.0
 40
3.0
 50
156.90050479442391
 51
203.09949520557609
  0
LINE
  5
BA4
  8
0
 10
70.936824536497255
 20
29.759959048465159
 30
0.0
 11
70.936824536497255
 21
27.405984972491751
 31
0.0
  0
ARC
  5
BA5
  8
0
 10
73.696299398207572
 20
28.582972010478461
 30
0.0
 40
3.0
 50
156.90050479442391
 51
203.09949520557609
  0
ENDSEC
  0
EOF
