  0
SECTION
  2
HEADER
  9
$ACADVER
  1
AC1009
  9
$INSBASE
 10
0.0
 20
0.0
 30
0.0
  9
$EXTMIN
 10
0.0
 20
-1.4802182810368341
 30
0.0
  9
$EXTMAX
 10
292.27633960885697
 20
194.588444691783
 30
0.0
  9
$LIMMIN
 10
0.0
 20
0.0
  9
$LIMMAX
 10
187.5
 20
135.0
  9
$ORTHOMODE
 70
     0
  9
$REGENMODE
 70
     1
  9
$FILLMODE
 70
     1
  9
$QTEXTMODE
 70
     0
  9
$MIRRTEXT
 70
     0
  9
$DRAGMODE
 70
     2
  9
$LTSCALE
 40
5.0
  9
$OSMODE
 70
    37
  9
$ATTMODE
 70
     1
  9
$TEXTSIZE
 40
4.0
  9
$TRACEWID
 40
0.05
  9
$TEXTSTYLE
  7
STANDARD
  9
$CLAYER
  8
0
  9
$CELTYPE
  6
BYLAYER
  9
$CECOLOR
 62
   256
  9
$DIMSCALE
 40
0.5
  9
$DIMASZ
 40
3.0
  9
$DIMEXO
 40
2.0
  9
$DIMDLI
 40
0.38
  9
$DIMRND
 40
0.0
  9
$DIMDLE
 40
0.0
  9
$DIMEXE
 40
2.0
  9
$DIMTP
 40
0.0
  9
$DIMTM
 40
0.0
  9
$DIMTXT
 40
3.0
  9
$DIMCEN
 40
0.0
  9
$DIMTSZ
 40
0.0
  9
$DIMTOL
 70
     0
  9
$DIMLIM
 70
     0
  9
$DIMTIH
 70
     0
  9
$DIMTOH
 70
     0
  9
$DIMSE1
 70
     0
  9
$DIMSE2
 70
     0
  9
$DIMTAD
 70
     1
  9
$DIMZIN
 70
     0
  9
$DIMBLK
  1

  9
$DIMASO
 70
     0
  9
$DIMSHO
 70
     0
  9
$DIMPOST
  1

  9
$DIMAPOST
  1

  9
$DIMALT
 70
     0
  9
$DIMALTD
 70
     2
  9
$DIMALTF
 40
25.399999999999999
  9
$DIMLFAC
 40
1.0
  9
$DIMTOFL
 70
     0
  9
$DIMTVP
 40
1.6000000000000001
  9
$DIMTIX
 70
     1
  9
$DIMSOXD
 70
     0
  9
$DIMSAH
 70
     0
  9
$DIMBLK1
  1

  9
$DIMBLK2
  1

  9
$DIMSTYLE
  2
STANDARD
  9
$DIMCLRD
 70
     0
  9
$DIMCLRE
 70
     0
  9
$DIMCLRT
 70
     0
  9
$DIMTFAC
 40
1.0
  9
$DIMGAP
 40
0.09
  9
$LUNITS
 70
     2
  9
$LUPREC
 70
     4
  9
$SKETCHINC
 40
0.1
  9
$FILLETRAD
 40
1.0
  9
$AUNITS
 70
     0
  9
$AUPREC
 70
     0
  9
$MENU
  1
E:\r13\win\SUPPORT\ACAD
  9
$ELEVATION
 40
0.0
  9
$PELEVATION
 40
0.0
  9
$THICKNESS
 40
0.0
  9
$LIMCHECK
 70
     0
  9
$BLIPMODE
 70
     0
  9
$CHAMFERA
 40
0.0
  9
$CHAMFERB
 40
0.0
  9
$SKPOLY
 70
     0
  9
$TDCREATE
 40
2449840.6143865739
  9
$TDUPDATE
 40
2457161.6005651392
  9
$TDINDWG
 40
0.243088044
  9
$TDUSRTIMER
 40
0.243088044
  9
$USRTIMER
 70
     1
  9
$ANGBASE
 50
0.0
  9
$ANGDIR
 70
     0
  9
$PDMODE
 70
     0
  9
$PDSIZE
 40
0.0
  9
$PLINEWID
 40
0.0
  9
$COORDS
 70
     1
  9
$SPLFRAME
 70
     0
  9
$SPLINETYPE
 70
     6
  9
$SPLINESEGS
 70
     8
  9
$ATTDIA
 70
     0
  9
$ATTREQ
 70
     1
  9
$HANDLING
 70
     1
  9
$HANDSEED
  5
1814
  9
$SURFTAB1
 70
     6
  9
$SURFTAB2
 70
     6
  9
$SURFTYPE
 70
     6
  9
$SURFU
 70
     6
  9
$SURFV
 70
     6
  9
$UCSNAME
  2

  9
$UCSORG
 10
0.0
 20
0.0
 30
0.0
  9
$UCSXDIR
 10
1.0
 20
0.0
 30
0.0
  9
$UCSYDIR
 10
0.0
 20
1.0
 30
0.0
  9
$PUCSNAME
  2

  9
$PUCSORG
 10
0.0
 20
0.0
 30
0.0
  9
$PUCSXDIR
 10
1.0
 20
0.0
 30
0.0
  9
$PUCSYDIR
 10
0.0
 20
1.0
 30
0.0
  9
$USERI1
 70
     0
  9
$USERI2
 70
     1
  9
$USERI3
 70
     1
  9
$USERI4
 70
     0
  9
$USERI5
 70
     0
  9
$USERR1
 40
0.0
  9
$USERR2
 40
0.0
  9
$USERR3
 40
0.0
  9
$USERR4
 40
0.0
  9
$USERR5
 40
0.0
  9
$WORLDVIEW
 70
     1
  9
$SHADEDGE
 70
     3
  9
$SHADEDIF
 70
    70
  9
$TILEMODE
 70
     1
  9
$MAXACTVP
 70
    16
  9
$PLIMCHECK
 70
     0
  9
$PEXTMIN
 10
1.0000000000000000E+020
 20
1.0000000000000000E+020
 30
1.0000000000000000E+020
  9
$PEXTMAX
 10
-1.0000000000000000E+020
 20
-1.0000000000000000E+020
 30
-1.0000000000000000E+020
  9
$PLIMMIN
 10
0.0
 20
0.0
  9
$PLIMMAX
 10
12.0
 20
9.0
  9
$UNITMODE
 70
     0
  9
$VISRETAIN
 70
     0
  9
$PLINEGEN
 70
     0
  9
$PSLTSCALE
 70
     0
  0
ENDSEC
  0
SECTION
  2
TABLES
  0
TABLE
  2
VPORT
 70
     1
  0
VPORT
  2
*ACTIVE
 70
     0
 10
0.0
 20
0.0
 11
1.0
 21
1.0
 12
147.47911951856901
 22
96.559409004614295
 13
0.0
 23
0.0
 14
5.0
 24
5.0
 15
5.0
 25
5.0
 16
0.0
 26
0.0
 36
1.0
 17
0.0
 27
0.0
 37
0.0
 40
216.86136049628311
 41
1.368715083798882
 42
50.0
 43
0.0
 44
0.0
 50
0.0
 51
0.0
 71
     0
 72
   100
 73
     1
 74
     0
 75
     0
 76
     0
 77
     0
 78
     0
  0
ENDTAB
  0
TABLE
  2
LTYPE
 70
     4
  0
LTYPE
  2
CONTINUOUS
 70
     0
  3
Solid Line
 72
    65
 73
     0
 40
0.0
  0
LTYPE
  2
CENTER
 70
     0
  3
____ _ ____ _ ____ _ ____ _ ____ _ ____ _ ____
 72
    65
 73
     4
 40
2.0
 49
1.25
 49
-0.25
 49
0.25
 49
-0.25
  0
LTYPE
  2
HIDDEN
 70
     0
  3
_ _ _ _ _ _ _ _ _ _ _ _ _ _ _ _ _ _ _ _ _ _ _
 72
    65
 73
     2
 40
0.375
 49
0.25
 49
-0.125
  0
LTYPE
  2
PHANTOM2
 70
     0
  3
___ _ _ ___ _ _ ___ _ _ ___ _ _
 72
    65
 73
     6
 40
1.25
 49
0.625
 49
-0.125
 49
0.125
 49
-0.125
 49
0.125
 49
-0.125
  0
ENDTAB
  0
TABLE
  2
LAYER
 70
     4
  0
LAYER
  2
0
 70
     0
 62
     7
  6
CONTINUOUS
  0
LAYER
  2
1
 70
     0
 62
     1
  6
CENTER
  0
LAYER
  2
3
 70
     0
 62
     3
  6
CONTINUOUS
  0
LAYER
  2
2
 70
     0
 62
     2
  6
HIDDEN
  0
ENDTAB
  0
TABLE
  2
STYLE
 70
     2
  0
STYLE
  2
STANDARD
 70
     0
 40
0.0
 41
1.0
 50
0.0
 71
     0
 42
4.0
  3
TXT
  4
BIGFONT
  0
STYLE
  2
STANDARD1
 70
     0
 40
0.0
 41
1.0
 50
0.0
 71
     0
 42
3.0
  3
txt
  4

  0
ENDTAB
  0
TABLE
  2
VIEW
 70
     1
  0
VIEW
  2
ALL
 70
     0
 40
179.66152299999999
 10
141.903918
 20
89.830760999999995
 41
0.0
 11
0.0
 21
0.0
 31
1.0
 12
0.0
 22
0.0
 32
0.0
 42
0.0
 43
0.0
 44
0.0
 50
0.0
 71
     0
  0
ENDTAB
  0
TABLE
  2
UCS
 70
     0
  0
ENDTAB
  0
TABLE
  2
APPID
 70
     5
  0
APPID
  2
ACAD
 70
     0
  0
APPID
  2
DCO15
 70
     0
  0
APPID
  2
ACAD_MLEADERVER
 70
     0
  0
APPID
  2
ACAD_EXEMPT_FROM_CAD_STANDARDS
 70
     0
  0
APPID
  2
ACAD_NAV_VCDISPLAY
 70
     0
  0
ENDTAB
  0
TABLE
  2
DIMSTYLE
 70
     1
  0
DIMSTYLE
  2
STANDARD
 70
     0
  3

  4

  5

  6

  7

 40
1.0
 41
0.18
 42
0.0625
 43
0.38
 44
0.18
 45
0.0
 46
0.0
 47
0.0
 48
0.0
140
0.18
141
0.09
142
0.0
143
25.399999999999999
144
1.0
145
0.0
146
1.0
147
0.09
 71
     0
 72
     0
 73
     1
 74
     1
 75
     0
 76
     0
 77
     0
 78
     0
170
     0
171
     2
172
     0
173
     0
174
     0
175
     0
176
     0
177
     0
178
     0
  0
ENDTAB
  0
ENDSEC
  0
SECTION
  2
BLOCKS
  0
BLOCK
  8
0
  2
$MODEL_SPACE
 70
     0
 10
0.0
 20
0.0
 30
0.0
  3
$MODEL_SPACE
  1

  0
ENDBLK
  5
1BD
  8
0
  0
BLOCK
 67
     1
  8
0
  2
$PAPER_SPACE
 70
     0
 10
0.0
 20
0.0
 30
0.0
  3
$PAPER_SPACE
  1

  0
ENDBLK
  5
1BB
 67
     1
  8
0
  0
ENDSEC
  0
SECTION
  2
ENTITIES
  0
LINE
  5
14F7
  8
0
 10
285.77633960885697
 20
179.96230823421669
 30
0.0
 11
285.77633960885697
 21
181.74869872962711
 31
0.0
  0
LINE
  5
14F8
  8
0
 10
284.22928005875252
 20
163.53499540623341
 30
0.0
 11
285.77633960885697
 21
164.42819065393871
 31
0.0
  0
LINE
  5
14F9
  8
0
 10
269.22928005875229
 20
156.66113186379951
 30
0.0
 11
270.77633960885697
 21
155.7679366160942
 31
0.0
  0
LINE
  5
14FA
  8
0
 10
255.77633960885711
 20
166.2145811493491
 30
0.0
 11
255.776339608857
 21
164.42819065393849
 31
0.0
  0
LINE
  5
14FB
  8
0
 10
257.32339915896159
 20
182.64189397733239
 30
0.0
 11
255.776339608857
 21
181.74869872962719
 31
0.0
  0
LINE
  5
14FC
  8
0
 10
272.32339915896171
 20
189.5157575197664
 30
0.0
 11
270.7763396088572
 21
190.40895276747159
 31
0.0
  0
LINE
  5
14FD
  8
0
 10
270.77633960885697
 20
155.7679366160942
 30
0.0
 11
272.32339915896171
 21
156.66113186379951
 31
0.0
  0
LINE
  5
14FE
  8
0
 10
255.776339608857
 20
164.42819065393849
 30
0.0
 11
257.32339915896182
 21
163.53499540623309
 31
0.0
  0
LINE
  5
14FF
  8
0
 10
255.776339608857
 20
181.74869872962719
 30
0.0
 11
255.77633960885711
 21
179.96230823421681
 31
0.0
  0
LINE
  5
1500
  8
0
 10
270.7763396088572
 20
190.40895276747159
 30
0.0
 11
269.22928005875281
 21
189.5157575197664
 31
0.0
  0
LINE
  5
1501
  8
0
 10
285.77633960885697
 20
181.74869872962711
 30
0.0
 11
284.22928005875258
 21
182.6418939773323
 31
0.0
  0
LINE
  5
1502
  8
0
 10
285.77633960885697
 20
164.42819065393871
 30
0.0
 11
285.77633960885697
 21
166.2145811493491
 31
0.0
  0
ARC
  5
1503
  8
0
 10
68.776339608857015
 20
173.088444691783
 30
0.0
 40
16.499999999999989
 50
215.38002267134181
 51
264.61997732865723
  0
ARC
  5
1504
  8
0
 10
68.776339608857015
 20
173.088444691783
 30
0.0
 40
16.499999999999989
 50
275.38002267134277
 51
324.61997732865859
  0
ARC
  5
1505
  8
0
 10
68.776339608857015
 20
173.088444691783
 30
0.0
 40
16.499999999999989
 50
335.38002267134351
 51
24.6199773286565
  0
ARC
  5
1506
  8
0
 10
68.776339608857015
 20
173.088444691783
 30
0.0
 40
16.499999999999989
 50
35.380022671340782
 51
84.6199773286572
  0
ARC
  5
1507
  8
0
 10
68.776339608857015
 20
173.088444691783
 30
0.0
 40
16.499999999999989
 50
155.38002267134351
 51
204.61997732865649
  0
LINE
  5
1508
  8
0
 10
170.2763396088456
 20
95.061533755032542
 30
0.0
 11
184.35633960885721
 21
95.061533755032542
 31
0.0
  0
LINE
  5
1509
  8
3
 10
170.2763396088458
 20
95.981533755032615
 30
0.0
 11
185.276339608857
 21
95.981533755032615
 31
0.0
  0
LINE
  5
150A
  8
3
 10
170.2763396088458
 20
114.1415337550325
 30
0.0
 11
185.276339608857
 21
114.1415337550325
 31
0.0
  0
LINE
  5
150B
  8
0
 10
160.27633960886871
 20
115.0615337550325
 30
0.0
 11
146.1963396088571
 21
115.0615337550325
 31
0.0
  0
LINE
  5
150C
  8
3
 10
170.27633960884589
 20
182.16844469178301
 30
0.0
 11
185.276339608857
 21
182.16844469178301
 31
0.0
  0
LINE
  5
150D
  8
0
 10
160.2763396088688
 20
183.088444691783
 30
0.0
 11
146.1963396088571
 21
183.088444691783
 31
0.0
  0
LINE
  5
150E
  8
0
 10
170.27633960884609
 20
163.088444691783
 30
0.0
 11
184.35633960885721
 21
163.088444691783
 31
0.0
  0
LINE
  5
150F
  8
3
 10
170.27633960884609
 20
164.0084446917831
 30
0.0
 11
185.276339608857
 21
164.0084446917831
 31
0.0
  0
LINE
  5
1510
  8
0
 10
161.90476070561871
 20
105.0615337550325
 30
0.0
 11
168.64791851210029
 21
105.0615337550325
 31
0.0
  0
LINE
  5
1511
  8
0
 10
170.2763396088456
 20
90.561533755032514
 30
0.0
 11
170.2763396088456
 21
119.56153375503089
 31
0.0
  0
LINE
  5
1512
  8
0
 10
160.2763396088686
 20
119.56153375503089
 30
0.0
 11
160.2763396088686
 21
90.561533755034105
 31
0.0
  0
ARC
  5
1513
  8
0
 10
182.2276735171325
 20
112.5615337550325
 30
0.0
 40
21.662658773668529
 50
159.74384199960269
 51
200.25615800039731
  0
LINE
  5
1514
  8
0
 10
160.2763396088686
 20
119.56153375503089
 30
0.0
 11
160.5650147434641
 21
120.0615337550323
 31
0.0
  0
LINE
  5
1515
  8
0
 10
170.2763396088456
 20
119.56153375503089
 30
0.0
 11
169.9876644742499
 21
120.0615337550323
 31
0.0
  0
ARC
  5
1516
  8
0
 10
148.3250057005817
 20
112.5615337550325
 30
0.0
 40
21.662658773668529
 50
339.74384199960269
 51
20.256158000397299
  0
LINE
  5
1517
  8
0
 10
160.5650147434641
 20
120.0615337550325
 30
0.0
 11
169.98766447425021
 21
120.0615337550323
 31
0.0
  0
LINE
  5
1518
  8
0
 10
160.5650147434641
 20
90.061533755032514
 30
0.0
 11
169.98766447425021
 21
90.061533755032741
 31
0.0
  0
ARC
  5
1519
  8
0
 10
148.3250057005817
 20
97.561533755032514
 30
0.0
 40
21.662658773668529
 50
339.74384199960269
 51
20.256158000397299
  0
LINE
  5
151A
  8
0
 10
170.2763396088456
 20
90.561533755034105
 30
0.0
 11
169.9876644742499
 21
90.061533755032741
 31
0.0
  0
LINE
  5
151B
  8
0
 10
160.2763396088686
 20
90.561533755034105
 30
0.0
 11
160.5650147434641
 21
90.061533755032741
 31
0.0
  0
ARC
  5
151C
  8
0
 10
182.2276735171325
 20
97.561533755032514
 30
0.0
 40
21.662658773668529
 50
159.74384199960269
 51
200.25615800039731
  0
LINE
  5
151D
  8
0
 10
53.776339608857022
 20
181.74869872962731
 30
0.0
 11
53.776339608857022
 21
164.4281906539386
 31
0.0
  0
LINE
  5
151E
  8
0
 10
53.776339608857022
 20
164.4281906539386
 30
0.0
 11
68.776339608857015
 21
155.7679366160942
 31
0.0
  0
LINE
  5
151F
  8
0
 10
68.776339608857015
 20
155.7679366160942
 30
0.0
 11
83.776339608857015
 21
164.42819065393871
 31
0.0
  0
LINE
  5
1520
  8
0
 10
83.776339608857015
 20
164.42819065393871
 30
0.0
 11
83.776339608857015
 21
181.74869872962719
 31
0.0
  0
LINE
  5
1521
  8
0
 10
83.776339608857015
 20
181.74869872962719
 30
0.0
 11
68.776339608857256
 21
190.4089527674717
 31
0.0
  0
LINE
  5
1522
  8
0
 10
68.776339608857256
 20
190.4089527674717
 30
0.0
 11
53.776339608857022
 21
181.74869872962731
 31
0.0
  0
CIRCLE
  5
1523
  8
0
 10
68.776339608857015
 20
173.088444691783
 30
0.0
 40
14.5
  0
LINE
  5
1524
  8
0
 10
160.2763396088684
 20
158.5884446917828
 30
0.0
 11
161.90476070561891
 21
155.7679366160942
 31
0.0
  0
ARC
  5
1525
  8
0
 10
168.2324829887396
 20
160.09806363501659
 30
0.0
 40
7.6674682452751783
 50
145.61575253199061
 51
205.6157525295416
  0
ARC
  5
1526
  8
0
 10
168.2324829887396
 20
160.09806363501659
 30
0.0
 40
7.6674682452751783
 50
214.38424746800939
 51
214.38424746801141
  0
ARC
  5
1527
  8
0
 10
189.22526878085711
 20
173.08844469185621
 30
0.0
 40
28.6602540373928
 50
162.41204622587171
 51
197.58795377443579
  0
ARC
  5
1528
  8
0
 10
162.32019622897479
 20
160.09806363501659
 30
0.0
 40
7.6674682452751783
 50
325.61575253198862
 51
325.61575253199072
  0
ARC
  5
1529
  8
0
 10
162.32019622897479
 20
160.09806363501659
 30
0.0
 40
7.6674682452751783
 50
334.38424747045838
 51
34.384247468009349
  0
LINE
  5
152A
  8
0
 10
170.27633960884609
 20
158.5884446917828
 30
0.0
 11
168.647918512096
 21
155.7679366160942
 31
0.0
  0
LINE
  5
152B
  8
0
 10
161.90476070561891
 20
155.7679366160944
 30
0.0
 11
168.64791851193201
 21
155.76793661581061
 31
0.0
  0
LINE
  5
152C
  8
0
 10
168.64791851207229
 20
164.4281906539386
 30
0.0
 11
161.90476070561891
 21
164.4281906540925
 31
0.0
  0
ARC
  5
152D
  8
0
 10
141.32741043685749
 20
173.08844469185621
 30
0.0
 40
28.6602540373928
 50
342.41204622556421
 51
17.58795377412822
  0
LINE
  5
152E
  8
0
 10
168.64791851207229
 20
181.74869872962699
 30
0.0
 11
161.90476070561891
 21
181.74869872947301
 31
0.0
  0
LINE
  5
152F
  8
0
 10
161.90476070561891
 20
190.40895276747119
 30
0.0
 11
168.64791851193201
 21
190.4089527677549
 31
0.0
  0
LINE
  5
1530
  8
0
 10
170.27633960884609
 20
187.5884446917828
 30
0.0
 11
168.647918512096
 21
190.40895276747139
 31
0.0
  0
ARC
  5
1531
  8
0
 10
162.32019622897479
 20
186.07882574854901
 30
0.0
 40
7.6674682452751783
 50
325.61575253199072
 51
25.615752529541609
  0
ARC
  5
1532
  8
0
 10
162.32019622897479
 20
186.07882574854901
 30
0.0
 40
7.6674682452751783
 50
34.384247468009349
 51
34.384247468011367
  0
ARC
  5
1533
  8
0
 10
168.2324829887396
 20
186.07882574854901
 30
0.0
 40
7.6674682452751783
 50
145.61575253198859
 51
145.61575253199061
  0
ARC
  5
1534
  8
0
 10
168.2324829887396
 20
186.07882574854901
 30
0.0
 40
7.6674682452751783
 50
154.3842474704584
 51
214.38424746800939
  0
LINE
  5
1535
  8
0
 10
160.2763396088684
 20
187.5884446917828
 30
0.0
 11
161.90476070561891
 21
190.40895276747139
 31
0.0
  0
LINE
  5
1536
  8
0
 10
160.2763396088684
 20
158.5884446917828
 30
0.0
 11
160.2763396088688
 21
187.58844469178351
 31
0.0
  0
LINE
  5
1537
  8
0
 10
170.27633960884589
 20
187.5884446917832
 30
0.0
 11
170.27633960884609
 21
158.5884446917828
 31
0.0
  0
LINE
  5
1538
  8
0
 10
184.35633960885721
 20
163.088444691783
 30
0.0
 11
185.276339608857
 21
164.0084446917831
 31
0.0
  0
LINE
  5
1539
  8
0
 10
145.276339608857
 20
164.0084446917831
 30
0.0
 11
146.1963396088571
 21
163.088444691783
 31
0.0
  0
LINE
  5
153A
  8
0
 10
146.1963396088571
 20
183.088444691783
 30
0.0
 11
145.276339608857
 21
182.16844469178301
 31
0.0
  0
LINE
  5
153B
  8
0
 10
146.1963396088571
 20
163.088444691783
 30
0.0
 11
160.27633960886851
 21
163.088444691783
 31
0.0
  0
LINE
  5
153C
  8
0
 10
184.35633960885721
 20
183.088444691783
 30
0.0
 11
170.27633960884589
 21
183.088444691783
 31
0.0
  0
LINE
  5
153D
  8
0
 10
185.276339608857
 20
182.16844469178301
 30
0.0
 11
184.35633960885721
 21
183.088444691783
 31
0.0
  0
ARC
  5
153E
  8
2
 10
231.57633960885701
 20
173.08844469178311
 30
0.0
 40
26.000000000000011
 50
149.05845441465291
 51
210.941545585347
  0
ARC
  5
153F
  8
0
 10
207.276339608857
 20
187.08844469178291
 30
0.0
 40
2.500000000000036
 50
36.869897645844347
 51
90.0
  0
ARC
  5
1540
  8
0
 10
207.276339608857
 20
159.088444691783
 30
0.0
 40
2.500000000000028
 50
270.0
 51
323.13010235415572
  0
LINE
  5
1541
  8
0
 10
206.96565336019989
 20
156.588444691783
 30
0.0
 11
207.276339608857
 21
156.588444691783
 31
0.0
  0
LINE
  5
1542
  8
0
 10
207.276339608857
 20
189.58844469178291
 30
0.0
 11
206.96565336019989
 21
189.58844469178291
 31
0.0
  0
LINE
  5
1543
  8
0
 10
197.67633960885709
 20
163.588444691783
 30
0.0
 11
206.96565336019989
 21
156.588444691783
 31
0.0
  0
LINE
  5
1544
  8
0
 10
206.96565336019989
 20
189.58844469178291
 30
0.0
 11
197.67633960885709
 21
182.588444691783
 31
0.0
  0
LINE
  5
1545
  8
0
 10
185.84202503380629
 20
163.588444691783
 30
0.0
 11
197.67633960885709
 21
163.588444691783
 31
0.0
  0
LINE
  5
1546
  8
0
 10
197.67633960885709
 20
182.588444691783
 30
0.0
 11
185.84202503380629
 21
182.588444691783
 31
0.0
  0
LINE
  5
1547
  8
0
 10
185.276339608857
 20
164.15413011673229
 30
0.0
 11
185.84202503380629
 21
163.588444691783
 31
0.0
  0
LINE
  5
1548
  8
0
 10
185.84202503380629
 20
182.588444691783
 30
0.0
 11
185.276339608857
 21
182.0227592668337
 31
0.0
  0
LINE
  5
1549
  8
0
 10
185.276339608857
 20
171.838444691783
 30
0.0
 11
185.276339608857
 21
164.0084446917831
 31
0.0
  0
LINE
  5
154A
  8
0
 10
145.276339608857
 20
182.16844469178301
 30
0.0
 11
145.276339608857
 21
164.0084446917831
 31
0.0
  0
LINE
  5
154B
  8
0
 10
146.1963396088571
 20
183.088444691783
 30
0.0
 11
146.1963396088571
 21
163.088444691783
 31
0.0
  0
LINE
  5
154C
  8
0
 10
184.35633960885721
 20
171.838444691783
 30
0.0
 11
184.35633960885721
 21
163.088444691783
 31
0.0
  0
LINE
  5
154D
  8
0
 10
184.35633960885721
 20
183.088444691783
 30
0.0
 11
184.35633960885721
 21
174.338444691783
 31
0.0
  0
LINE
  5
154E
  8
0
 10
185.276339608857
 20
182.16844469178301
 30
0.0
 11
185.276339608857
 21
174.338444691783
 31
0.0
  0
POLYLINE
  5
154F
  8
0
 66
     1
 10
0.0
 20
0.0
 30
0.0
  0
VERTEX
  5
17D0
  8
0
 10
185.276339608857
 20
171.838444691783
 30
0.0
  0
VERTEX
  5
17D1
  8
0
 10
185.1291798082876
 20
171.838444691783
 30
0.0
  0
VERTEX
  5
17D2
  8
0
 10
184.82763062778741
 20
171.838444691783
 30
0.0
  0
VERTEX
  5
17D3
  8
0
 10
184.51604828845061
 20
171.838444691783
 30
0.0
  0
VERTEX
  5
17D4
  8
0
 10
184.35633960885721
 20
171.838444691783
 30
0.0
  0
SEQEND
  5
17D5
  8
0
  0
LINE
  5
1550
  8
0
 10
184.35633960885721
 20
171.838444691783
 30
0.0
 11
179.776339608857
 21
171.838444691783
 31
0.0
  0
LINE
  5
1551
  8
0
 10
179.776339608857
 20
171.838444691783
 30
0.0
 11
179.776339608857
 21
174.338444691783
 31
0.0
  0
POLYLINE
  5
1552
  8
0
 66
     1
 10
0.0
 20
0.0
 30
0.0
  0
VERTEX
  5
17D6
  8
0
 10
184.35633960885721
 20
174.338444691783
 30
0.0
  0
VERTEX
  5
17D7
  8
0
 10
184.51604828845061
 20
174.338444691783
 30
0.0
  0
VERTEX
  5
17D8
  8
0
 10
184.82763062778741
 20
174.338444691783
 30
0.0
  0
VERTEX
  5
17D9
  8
0
 10
185.1291798082876
 20
174.338444691783
 30
0.0
  0
VERTEX
  5
17DA
  8
0
 10
185.276339608857
 20
174.338444691783
 30
0.0
  0
SEQEND
  5
17DB
  8
0
  0
LINE
  5
1553
  8
0
 10
179.776339608857
 20
174.338444691783
 30
0.0
 11
184.35633960885721
 21
174.338444691783
 31
0.0
  0
LINE
  5
1554
  8
0
 10
209.276339608857
 20
188.58844469178291
 30
0.0
 11
209.276339608857
 21
157.588444691783
 31
0.0
  0
LINE
  5
1555
  8
0
 10
207.276339608857
 20
189.58844469178291
 30
0.0
 11
207.276339608857
 21
156.588444691783
 31
0.0
  0
LINE
  5
1556
  8
0
 10
206.96565336019989
 20
189.58844469178291
 30
0.0
 11
206.96565336019989
 21
156.588444691783
 31
0.0
  0
LINE
  5
1557
  8
0
 10
197.67633960885709
 20
182.588444691783
 30
0.0
 11
197.67633960885709
 21
163.588444691783
 31
0.0
  0
LINE
  5
1558
  8
0
 10
185.84202503380629
 20
182.588444691783
 30
0.0
 11
185.84202503380629
 21
163.588444691783
 31
0.0
  0
LINE
  5
1559
  8
0
 10
185.276339608857
 20
182.0227592668337
 30
0.0
 11
185.276339608857
 21
164.15413011673229
 31
0.0
  0
LINE
  5
155A
  8
0
 10
184.35633960885721
 20
174.338444691783
 30
0.0
 11
185.276339608857
 21
174.338444691783
 31
0.0
  0
LINE
  5
155B
  8
0
 10
185.276339608857
 20
171.838444691783
 30
0.0
 11
184.35633960885721
 21
171.838444691783
 31
0.0
  0
LINE
  5
155C
  8
3
 10
145.276339608857
 20
164.0084446917831
 30
0.0
 11
160.2763396088686
 21
164.0084446917831
 31
0.0
  0
LINE
  5
155D
  8
3
 10
145.276339608857
 20
182.16844469178301
 30
0.0
 11
160.2763396088688
 21
182.16844469178301
 31
0.0
  0
LINE
  5
155E
  8
1
 10
214.276339608857
 20
173.08844469178291
 30
0.0
 11
125.276339608857
 21
173.088444691783
 31
0.0
  0
ARC
  5
155F
  8
0
 10
68.776339608857015
 20
173.088444691783
 30
0.0
 40
16.499999999999989
 50
95.380022671342786
 51
144.61997732865851
  0
CIRCLE
  5
1560
  8
0
 10
68.776339608857015
 20
173.088444691783
 30
0.0
 40
4.999999999999992
  0
LINE
  5
1561
  8
1
 10
47.276339608857029
 20
173.088444691783
 30
0.0
 11
90.276339608857029
 21
173.088444691783
 31
0.0
  0
CIRCLE
  5
1562
  8
3
 10
68.776339608857015
 20
173.088444691783
 30
0.0
 40
9.0799999999999947
  0
LINE
  5
1563
  8
1
 10
68.776339608857015
 20
194.588444691783
 30
0.0
 11
68.776339608857015
 21
151.588444691783
 31
0.0
  0
LINE
  5
1564
  8
0
 10
145.276339608857
 20
168.08844469178311
 30
0.0
 11
133.07633960885701
 21
168.08844469178311
 31
0.0
  0
LINE
  5
1565
  8
0
 10
133.07633960885701
 20
178.088444691783
 30
0.0
 11
133.07633960885701
 21
168.08844469178311
 31
0.0
  0
LINE
  5
1566
  8
0
 10
133.07633960885701
 20
168.08844469178311
 30
0.0
 11
131.03540516676151
 21
169.2667787413254
 31
0.0
  0
ARC
  5
1567
  8
0
 10
140.276339608857
 20
173.088444691783
 30
0.0
 40
10.0
 50
157.5320487330639
 51
202.4679512669361
  0
LINE
  5
1568
  8
0
 10
131.03540516676131
 20
176.9101106422406
 30
0.0
 11
131.03540516676131
 21
169.2667787413254
 31
0.0
  0
LINE
  5
1569
  8
0
 10
145.276339608857
 20
178.088444691783
 30
0.0
 11
133.07633960885701
 21
178.088444691783
 31
0.0
  0
LINE
  5
156A
  8
0
 10
133.07633960885701
 20
178.088444691783
 30
0.0
 11
131.03540516676151
 21
176.91011064224071
 31
0.0
  0
LINE
  5
156B
  8
0
 10
133.07633960885701
 20
110.0615337550325
 30
0.0
 11
131.03540516676151
 21
108.8831997054902
 31
0.0
  0
LINE
  5
156C
  8
0
 10
145.276339608857
 20
110.0615337550325
 30
0.0
 11
133.07633960885701
 21
110.0615337550325
 31
0.0
  0
LINE
  5
156D
  8
0
 10
131.03540516676131
 20
108.8831997054901
 30
0.0
 11
131.03540516676131
 21
101.2398678045749
 31
0.0
  0
ARC
  5
156E
  8
0
 10
140.276339608857
 20
105.0615337550325
 30
0.0
 40
10.0
 50
157.5320487330639
 51
202.4679512669361
  0
LINE
  5
156F
  8
0
 10
133.07633960885701
 20
100.0615337550326
 30
0.0
 11
131.03540516676151
 21
101.2398678045749
 31
0.0
  0
LINE
  5
1570
  8
0
 10
133.07633960885701
 20
110.0615337550325
 30
0.0
 11
133.07633960885701
 21
100.0615337550326
 31
0.0
  0
LINE
  5
1571
  8
0
 10
145.276339608857
 20
100.0615337550326
 30
0.0
 11
133.07633960885701
 21
100.0615337550326
 31
0.0
  0
LINE
  5
1572
  8
1
 10
214.276339608857
 20
105.0615337550325
 30
0.0
 11
125.276339608857
 21
105.0615337550325
 31
0.0
  0
LINE
  5
1573
  8
3
 10
145.276339608857
 20
114.1415337550325
 30
0.0
 11
160.2763396088686
 21
114.1415337550325
 31
0.0
  0
LINE
  5
1574
  8
3
 10
145.276339608857
 20
95.981533755032615
 30
0.0
 11
160.2763396088686
 21
95.981533755032615
 31
0.0
  0
LINE
  5
1575
  8
0
 10
185.276339608857
 20
113.99584833008321
 30
0.0
 11
185.276339608857
 21
96.127219179981807
 31
0.0
  0
LINE
  5
1576
  8
0
 10
185.84202503380629
 20
114.5615337550325
 30
0.0
 11
185.84202503380629
 21
95.561533755032556
 31
0.0
  0
LINE
  5
1577
  8
0
 10
197.67633960885709
 20
114.5615337550325
 30
0.0
 11
197.67633960885709
 21
95.561533755032556
 31
0.0
  0
LINE
  5
1578
  8
0
 10
206.96565336019989
 20
121.5615337550325
 30
0.0
 11
206.96565336019989
 21
88.561533755032542
 31
0.0
  0
LINE
  5
1579
  8
0
 10
207.276339608857
 20
121.5615337550325
 30
0.0
 11
207.276339608857
 21
88.561533755032542
 31
0.0
  0
LINE
  5
157A
  8
0
 10
209.276339608857
 20
120.5615337550325
 30
0.0
 11
209.276339608857
 21
89.561533755032528
 31
0.0
  0
LINE
  5
157B
  8
0
 10
185.276339608857
 20
114.1415337550325
 30
0.0
 11
185.276339608857
 21
106.3115337550325
 31
0.0
  0
LINE
  5
157C
  8
0
 10
184.35633960885721
 20
115.0615337550325
 30
0.0
 11
184.35633960885721
 21
95.061533755032542
 31
0.0
  0
LINE
  5
157D
  8
0
 10
146.1963396088571
 20
115.0615337550325
 30
0.0
 11
146.1963396088571
 21
95.061533755032542
 31
0.0
  0
LINE
  5
157E
  8
0
 10
145.276339608857
 20
114.1415337550325
 30
0.0
 11
145.276339608857
 21
95.981533755032615
 31
0.0
  0
LINE
  5
157F
  8
0
 10
185.276339608857
 20
103.8115337550325
 30
0.0
 11
185.276339608857
 21
95.981533755032615
 31
0.0
  0
LINE
  5
1580
  8
0
 10
185.84202503380629
 20
114.5615337550325
 30
0.0
 11
185.276339608857
 21
113.99584833008321
 31
0.0
  0
LINE
  5
1581
  8
0
 10
185.276339608857
 20
96.127219179981807
 30
0.0
 11
185.84202503380629
 21
95.561533755032556
 31
0.0
  0
LINE
  5
1582
  8
0
 10
197.67633960885709
 20
114.5615337550325
 30
0.0
 11
185.84202503380629
 21
114.5615337550325
 31
0.0
  0
LINE
  5
1583
  8
0
 10
185.84202503380629
 20
95.561533755032556
 30
0.0
 11
197.67633960885709
 21
95.561533755032556
 31
0.0
  0
LINE
  5
1584
  8
0
 10
206.96565336019989
 20
121.5615337550325
 30
0.0
 11
197.67633960885709
 21
114.5615337550325
 31
0.0
  0
LINE
  5
1585
  8
0
 10
197.67633960885709
 20
95.561533755032556
 30
0.0
 11
206.96565336019989
 21
88.561533755032542
 31
0.0
  0
LINE
  5
1586
  8
0
 10
207.276339608857
 20
121.5615337550325
 30
0.0
 11
206.96565336019989
 21
121.5615337550325
 31
0.0
  0
LINE
  5
1587
  8
0
 10
206.96565336019989
 20
88.561533755032542
 30
0.0
 11
207.276339608857
 21
88.561533755032542
 31
0.0
  0
ARC
  5
1588
  8
0
 10
207.276339608857
 20
91.061533755032542
 30
0.0
 40
2.500000000000028
 50
270.0
 51
323.13010235415572
  0
ARC
  5
1589
  8
0
 10
207.276339608857
 20
119.0615337550324
 30
0.0
 40
2.500000000000036
 50
36.869897645844347
 51
90.0
  0
ARC
  5
158A
  8
2
 10
231.57633960885701
 20
105.0615337550326
 30
0.0
 40
26.000000000000011
 50
149.05845441465291
 51
210.941545585347
  0
LINE
  5
158B
  8
0
 10
185.276339608857
 20
114.1415337550325
 30
0.0
 11
184.35633960885721
 21
115.0615337550325
 31
0.0
  0
LINE
  5
158C
  8
0
 10
184.35633960885721
 20
115.0615337550325
 30
0.0
 11
170.2763396088456
 21
115.0615337550325
 31
0.0
  0
LINE
  5
158D
  8
0
 10
146.1963396088571
 20
95.061533755032542
 30
0.0
 11
160.27633960886871
 21
95.061533755032542
 31
0.0
  0
LINE
  5
158E
  8
0
 10
146.1963396088571
 20
115.0615337550325
 30
0.0
 11
145.276339608857
 21
114.1415337550325
 31
0.0
  0
LINE
  5
158F
  8
0
 10
145.276339608857
 20
95.981533755032615
 30
0.0
 11
146.1963396088571
 21
95.061533755032542
 31
0.0
  0
LINE
  5
1590
  8
0
 10
184.35633960885721
 20
95.061533755032542
 30
0.0
 11
185.276339608857
 21
95.981533755032615
 31
0.0
  0
CIRCLE
  5
1591
  8
0
 10
68.776339608857015
 20
173.088444691783
 30
0.0
 40
3.821665950457557
  0
CIRCLE
  5
1592
  8
0
 10
68.776339608857015
 20
173.088444691783
 30
0.0
 40
10.000000000000011
  0
LINE
  5
1593
  8
1
 10
270.77633960885697
 20
194.588444691783
 30
0.0
 11
270.77633960885697
 21
151.58844469178291
 31
0.0
  0
LINE
  5
1594
  8
1
 10
249.276339608857
 20
173.08844469178291
 30
0.0
 11
292.27633960885697
 21
173.08844469178291
 31
0.0
  0
CIRCLE
  5
1595
  8
0
 10
270.77633960885697
 20
173.08844469178291
 30
0.0
 40
16.499999999999989
  0
CIRCLE
  5
1596
  8
0
 10
270.77633960885697
 20
173.08844469178291
 30
0.0
 40
15.5
  0
CIRCLE
  5
1597
  8
0
 10
270.77633960885697
 20
173.08844469178291
 30
0.0
 40
13.36824595823999
  0
TEXT
  5
1641
  8
0
 62
     3
 10
0.0
 20
0.0
 30
0.0
 40
5.0
  1
SDXNE20AW-SUS
  7
STANDARD1
  0
ENDSEC
  0
EOF
