  0
SECTION
  2
HEADER
  9
$ACADVER
  1
AC1009
  9
$INSBASE
 10
0.0
 20
0.0
 30
0.0
  9
$EXTMIN
 10
0.0
 20
-1.4802182810368341
 30
0.0
  9
$EXTMAX
 10
200.15270861793451
 20
129.8181094152269
 30
0.0
  9
$LIMMIN
 10
0.0
 20
0.0
  9
$LIMMAX
 10
187.5
 20
135.0
  9
$ORTHOMODE
 70
     0
  9
$REGENMODE
 70
     1
  9
$FILLMODE
 70
     1
  9
$QTEXTMODE
 70
     0
  9
$MIRRTEXT
 70
     0
  9
$DRAGMODE
 70
     2
  9
$LTSCALE
 40
5.0
  9
$OSMODE
 70
    37
  9
$ATTMODE
 70
     1
  9
$TEXTSIZE
 40
4.0
  9
$TRACEWID
 40
0.05
  9
$TEXTSTYLE
  7
STANDARD
  9
$CLAYER
  8
0
  9
$CELTYPE
  6
BYLAYER
  9
$CECOLOR
 62
   256
  9
$DIMSCALE
 40
0.5
  9
$DIMASZ
 40
3.0
  9
$DIMEXO
 40
2.0
  9
$DIMDLI
 40
0.38
  9
$DIMRND
 40
0.0
  9
$DIMDLE
 40
0.0
  9
$DIMEXE
 40
2.0
  9
$DIMTP
 40
0.0
  9
$DIMTM
 40
0.0
  9
$DIMTXT
 40
3.0
  9
$DIMCEN
 40
0.0
  9
$DIMTSZ
 40
0.0
  9
$DIMTOL
 70
     0
  9
$DIMLIM
 70
     0
  9
$DIMTIH
 70
     0
  9
$DIMTOH
 70
     0
  9
$DIMSE1
 70
     0
  9
$DIMSE2
 70
     0
  9
$DIMTAD
 70
     1
  9
$DIMZIN
 70
     0
  9
$DIMBLK
  1

  9
$DIMASO
 70
     0
  9
$DIMSHO
 70
     0
  9
$DIMPOST
  1

  9
$DIMAPOST
  1

  9
$DIMALT
 70
     0
  9
$DIMALTD
 70
     2
  9
$DIMALTF
 40
25.399999999999999
  9
$DIMLFAC
 40
1.0
  9
$DIMTOFL
 70
     0
  9
$DIMTVP
 40
1.6000000000000001
  9
$DIMTIX
 70
     1
  9
$DIMSOXD
 70
     0
  9
$DIMSAH
 70
     0
  9
$DIMBLK1
  1

  9
$DIMBLK2
  1

  9
$DIMSTYLE
  2
STANDARD
  9
$DIMCLRD
 70
     0
  9
$DIMCLRE
 70
     0
  9
$DIMCLRT
 70
     0
  9
$DIMTFAC
 40
1.0
  9
$DIMGAP
 40
0.09
  9
$LUNITS
 70
     2
  9
$LUPREC
 70
     4
  9
$SKETCHINC
 40
0.1
  9
$FILLETRAD
 40
1.0
  9
$AUNITS
 70
     0
  9
$AUPREC
 70
     0
  9
$MENU
  1
E:\r13\win\SUPPORT\ACAD
  9
$ELEVATION
 40
0.0
  9
$PELEVATION
 40
0.0
  9
$THICKNESS
 40
0.0
  9
$LIMCHECK
 70
     0
  9
$BLIPMODE
 70
     0
  9
$CHAMFERA
 40
0.0
  9
$CHAMFERB
 40
0.0
  9
$SKPOLY
 70
     0
  9
$TDCREATE
 40
2449840.6143865739
  9
$TDUPDATE
 40
2457161.6005294332
  9
$TDINDWG
 40
0.2406804861
  9
$TDUSRTIMER
 40
0.2406804861
  9
$USRTIMER
 70
     1
  9
$ANGBASE
 50
0.0
  9
$ANGDIR
 70
     0
  9
$PDMODE
 70
     0
  9
$PDSIZE
 40
0.0
  9
$PLINEWID
 40
0.0
  9
$COORDS
 70
     1
  9
$SPLFRAME
 70
     0
  9
$SPLINETYPE
 70
     6
  9
$SPLINESEGS
 70
     8
  9
$ATTDIA
 70
     0
  9
$ATTREQ
 70
     1
  9
$HANDLING
 70
     1
  9
$HANDSEED
  5
16A9
  9
$SURFTAB1
 70
     6
  9
$SURFTAB2
 70
     6
  9
$SURFTYPE
 70
     6
  9
$SURFU
 70
     6
  9
$SURFV
 70
     6
  9
$UCSNAME
  2

  9
$UCSORG
 10
0.0
 20
0.0
 30
0.0
  9
$UCSXDIR
 10
1.0
 20
0.0
 30
0.0
  9
$UCSYDIR
 10
0.0
 20
1.0
 30
0.0
  9
$PUCSNAME
  2

  9
$PUCSORG
 10
0.0
 20
0.0
 30
0.0
  9
$PUCSXDIR
 10
1.0
 20
0.0
 30
0.0
  9
$PUCSYDIR
 10
0.0
 20
1.0
 30
0.0
  9
$USERI1
 70
     0
  9
$USERI2
 70
     1
  9
$USERI3
 70
     1
  9
$USERI4
 70
     0
  9
$USERI5
 70
     0
  9
$USERR1
 40
0.0
  9
$USERR2
 40
0.0
  9
$USERR3
 40
0.0
  9
$USERR4
 40
0.0
  9
$USERR5
 40
0.0
  9
$WORLDVIEW
 70
     1
  9
$SHADEDGE
 70
     3
  9
$SHADEDIF
 70
    70
  9
$TILEMODE
 70
     1
  9
$MAXACTVP
 70
    16
  9
$PLIMCHECK
 70
     0
  9
$PEXTMIN
 10
1.0000000000000000E+020
 20
1.0000000000000000E+020
 30
1.0000000000000000E+020
  9
$PEXTMAX
 10
-1.0000000000000000E+020
 20
-1.0000000000000000E+020
 30
-1.0000000000000000E+020
  9
$PLIMMIN
 10
0.0
 20
0.0
  9
$PLIMMAX
 10
12.0
 20
9.0
  9
$UNITMODE
 70
     0
  9
$VISRETAIN
 70
     0
  9
$PLINEGEN
 70
     0
  9
$PSLTSCALE
 70
     0
  0
ENDSEC
  0
SECTION
  2
TABLES
  0
TABLE
  2
VPORT
 70
     1
  0
VPORT
  2
*ACTIVE
 70
     0
 10
0.0
 20
0.0
 11
1.0
 21
1.0
 12
100.9920831902907
 22
64.167614789884965
 13
0.0
 23
0.0
 14
5.0
 24
5.0
 15
5.0
 25
5.0
 16
0.0
 26
0.0
 36
1.0
 17
0.0
 27
0.0
 37
0.0
 40
148.50429098818711
 41
1.368715083798882
 42
50.0
 43
0.0
 44
0.0
 50
0.0
 51
0.0
 71
     0
 72
   100
 73
     1
 74
     0
 75
     0
 76
     0
 77
     0
 78
     0
  0
ENDTAB
  0
TABLE
  2
LTYPE
 70
     4
  0
LTYPE
  2
CONTINUOUS
 70
     0
  3
Solid Line
 72
    65
 73
     0
 40
0.0
  0
LTYPE
  2
CENTER
 70
     0
  3
____ _ ____ _ ____ _ ____ _ ____ _ ____ _ ____
 72
    65
 73
     4
 40
2.0
 49
1.25
 49
-0.25
 49
0.25
 49
-0.25
  0
LTYPE
  2
HIDDEN
 70
     0
  3
_ _ _ _ _ _ _ _ _ _ _ _ _ _ _ _ _ _ _ _ _ _ _
 72
    65
 73
     2
 40
0.375
 49
0.25
 49
-0.125
  0
LTYPE
  2
PHANTOM2
 70
     0
  3
___ _ _ ___ _ _ ___ _ _ ___ _ _
 72
    65
 73
     6
 40
1.25
 49
0.625
 49
-0.125
 49
0.125
 49
-0.125
 49
0.125
 49
-0.125
  0
ENDTAB
  0
TABLE
  2
LAYER
 70
     4
  0
LAYER
  2
0
 70
     0
 62
     7
  6
CONTINUOUS
  0
LAYER
  2
1
 70
     0
 62
     1
  6
CENTER
  0
LAYER
  2
3
 70
     0
 62
     3
  6
CONTINUOUS
  0
LAYER
  2
2
 70
     0
 62
     2
  6
HIDDEN
  0
ENDTAB
  0
TABLE
  2
STYLE
 70
     2
  0
STYLE
  2
STANDARD
 70
     0
 40
0.0
 41
1.0
 50
0.0
 71
     0
 42
4.0
  3
TXT
  4
BIGFONT
  0
STYLE
  2
STANDARD1
 70
     0
 40
0.0
 41
1.0
 50
0.0
 71
     0
 42
3.0
  3
txt
  4

  0
ENDTAB
  0
TABLE
  2
VIEW
 70
     1
  0
VIEW
  2
ALL
 70
     0
 40
179.66152299999999
 10
141.903918
 20
89.830760999999995
 41
0.0
 11
0.0
 21
0.0
 31
1.0
 12
0.0
 22
0.0
 32
0.0
 42
0.0
 43
0.0
 44
0.0
 50
0.0
 71
     0
  0
ENDTAB
  0
TABLE
  2
UCS
 70
     0
  0
ENDTAB
  0
TABLE
  2
APPID
 70
     5
  0
APPID
  2
ACAD
 70
     0
  0
APPID
  2
DCO15
 70
     0
  0
APPID
  2
ACAD_MLEADERVER
 70
     0
  0
APPID
  2
ACAD_EXEMPT_FROM_CAD_STANDARDS
 70
     0
  0
APPID
  2
ACAD_NAV_VCDISPLAY
 70
     0
  0
ENDTAB
  0
TABLE
  2
DIMSTYLE
 70
     1
  0
DIMSTYLE
  2
STANDARD
 70
     0
  3

  4

  5

  6

  7

 40
1.0
 41
0.18
 42
0.0625
 43
0.38
 44
0.18
 45
0.0
 46
0.0
 47
0.0
 48
0.0
140
0.18
141
0.09
142
0.0
143
25.399999999999999
144
1.0
145
0.0
146
1.0
147
0.09
 71
     0
 72
     0
 73
     1
 74
     1
 75
     0
 76
     0
 77
     0
 78
     0
170
     0
171
     2
172
     0
173
     0
174
     0
175
     0
176
     0
177
     0
178
     0
  0
ENDTAB
  0
ENDSEC
  0
SECTION
  2
BLOCKS
  0
BLOCK
  8
0
  2
$MODEL_SPACE
 70
     0
 10
0.0
 20
0.0
 30
0.0
  3
$MODEL_SPACE
  1

  0
ENDBLK
  5
1BD
  8
0
  0
BLOCK
 67
     1
  8
0
  2
$PAPER_SPACE
 70
     0
 10
0.0
 20
0.0
 30
0.0
  3
$PAPER_SPACE
  1

  0
ENDBLK
  5
1BB
 67
     1
  8
0
  0
ENDSEC
  0
SECTION
  2
ENTITIES
  0
LINE
  5
13A1
  8
3
 10
111.45962081577871
 20
56.878543827745538
 30
0.0
 11
122.4237224309162
 21
56.878543827745489
 31
0.0
  0
LINE
  5
13A2
  8
0
 10
111.45962081577871
 20
55.95854382774553
 30
0.0
 11
121.5037224309161
 21
55.95854382774553
 31
0.0
  0
LINE
  5
13A3
  8
3
 10
111.45962081577871
 20
67.038543827745514
 30
0.0
 11
122.4237224309162
 21
67.038543827745514
 31
0.0
  0
LINE
  5
13A4
  8
0
 10
105.45962081577871
 20
67.95854382774553
 30
0.0
 11
95.343722430916273
 21
67.95854382774553
 31
0.0
  0
LINE
  5
13A5
  8
0
 10
111.45962081577861
 20
106.3036163217155
 30
0.0
 11
121.5037224309161
 21
106.30361632171559
 31
0.0
  0
LINE
  5
13A6
  8
3
 10
111.45962081577871
 20
107.2236163217155
 30
0.0
 11
122.4237224309162
 21
107.2236163217155
 31
0.0
  0
LINE
  5
13A7
  8
3
 10
111.45962081577871
 20
117.38361632171561
 30
0.0
 11
122.4237224309162
 21
117.38361632171561
 31
0.0
  0
LINE
  5
13A8
  8
0
 10
105.45962081577871
 20
118.3036163217155
 30
0.0
 11
95.343722430916273
 21
118.30361632171559
 31
0.0
  0
LINE
  5
13A9
  8
0
 10
105.7482959503736
 20
52.458543827747349
 30
0.0
 11
105.45962081577871
 21
52.958543827747341
 31
0.0
  0
ARC
  5
13AA
  8
0
 10
119.4679798403667
 20
57.208543827747349
 30
0.0
 40
13.719683889993171
 50
159.74384199960289
 51
200.25615800039711
  0
LINE
  5
13AB
  8
0
 10
111.45962081577871
 20
52.958543827747341
 30
0.0
 11
111.0991489114586
 21
52.458543827747349
 31
0.0
  0
LINE
  5
13AC
  8
0
 10
111.0991489114586
 20
52.458543827747349
 30
0.0
 11
105.7482959503736
 21
52.458543827747349
 31
0.0
  0
ARC
  5
13AD
  8
0
 10
97.451261791190745
 20
57.208543827747349
 30
0.0
 40
13.719683889993171
 50
339.74384199960292
 51
20.2561580003971
  0
ARC
  5
13AE
  8
0
 10
97.451261791190745
 20
66.708543827747334
 30
0.0
 40
13.719683889993171
 50
339.74384199960292
 51
20.2561580003971
  0
LINE
  5
13AF
  8
0
 10
111.0991489114586
 20
71.458543827747349
 30
0.0
 11
105.7482959503736
 21
71.458543827747349
 31
0.0
  0
LINE
  5
13B0
  8
0
 10
111.45962081577871
 20
70.958543827747349
 30
0.0
 11
111.0991489114586
 21
71.458543827747349
 31
0.0
  0
ARC
  5
13B1
  8
0
 10
119.4679798403667
 20
66.708543827747334
 30
0.0
 40
13.719683889993171
 50
159.74384199960289
 51
200.25615800039711
  0
LINE
  5
13B2
  8
0
 10
105.7482959503736
 20
71.458543827747349
 30
0.0
 11
105.45962081577871
 21
70.958543827747349
 31
0.0
  0
LINE
  5
13B3
  8
0
 10
105.45962081577871
 20
70.958543827747349
 30
0.0
 11
105.45962081577871
 21
52.958543827747341
 31
0.0
  0
LINE
  5
13B4
  8
0
 10
111.45962081577871
 20
52.958543827747341
 30
0.0
 11
111.45962081577871
 21
70.958543827747349
 31
0.0
  0
LINE
  5
13B5
  8
0
 10
106.59680172640449
 20
61.958543827750532
 30
0.0
 11
110.3224399051529
 21
61.958543827747349
 31
0.0
  0
LINE
  5
13B6
  8
0
 10
42.909229337406828
 20
123.2732714363202
 30
0.0
 11
33.409229337406828
 21
117.7884438790187
 31
0.0
  0
LINE
  5
13B7
  8
0
 10
52.409229337406828
 20
117.7884438790186
 30
0.0
 11
42.909229337406828
 21
123.2732714363202
 31
0.0
  0
LINE
  5
13B8
  8
0
 10
52.409229337406828
 20
106.8187887644158
 30
0.0
 11
52.409229337406828
 21
117.7884438790186
 31
0.0
  0
LINE
  5
13B9
  8
0
 10
42.909229337406828
 20
101.3339612071145
 30
0.0
 11
52.409229337406828
 21
106.8187887644158
 31
0.0
  0
LINE
  5
13BA
  8
0
 10
33.409229337406828
 20
106.818788764416
 30
0.0
 11
42.909229337406828
 21
101.3339612071145
 31
0.0
  0
CIRCLE
  5
13BB
  8
0
 10
42.909229337406828
 20
112.3036163217173
 30
0.0
 40
9.0
  0
LINE
  5
13BC
  8
0
 10
33.409229337406828
 20
117.7884438790187
 30
0.0
 11
33.409229337406828
 21
106.818788764416
 31
0.0
  0
LINE
  5
13BD
  8
0
 10
106.59680172640449
 20
101.3339612071124
 30
0.0
 11
105.45962081577871
 21
103.3036163217141
 31
0.0
  0
ARC
  5
13BE
  8
0
 10
110.604359172382
 20
104.0763749857631
 30
0.0
 40
4.8560632220084576
 50
145.61575253199419
 51
205.61575253191509
  0
ARC
  5
13BF
  8
0
 10
123.899790174359
 20
112.3036163217155
 30
0.0
 40
18.15149422398537
 50
162.4120462260237
 51
197.5879537739763
  0
ARC
  5
13C0
  8
0
 10
110.604359172382
 20
120.5308576576678
 30
0.0
 40
4.8560632220084576
 50
154.38424746808491
 51
214.38424746800581
  0
LINE
  5
13C1
  8
0
 10
106.59680172640449
 20
123.2732714363185
 30
0.0
 11
105.45962081577871
 21
121.3036163217168
 31
0.0
  0
LINE
  5
13C2
  8
0
 10
105.45962081577871
 20
103.3036163217141
 30
0.0
 11
105.45962081577871
 21
121.3036163217168
 31
0.0
  0
LINE
  5
13C3
  8
0
 10
111.45962081577871
 20
103.3036163217141
 30
0.0
 11
111.45962081577871
 21
121.3036163217168
 31
0.0
  0
LINE
  5
13C4
  8
0
 10
110.3224399051529
 20
123.2732714363185
 30
0.0
 11
111.45962081577871
 21
121.3036163217168
 31
0.0
  0
ARC
  5
13C5
  8
0
 10
106.31488245917539
 20
120.5308576576678
 30
0.0
 40
4.8560632220084576
 50
325.61575253199419
 51
25.615752531915131
  0
ARC
  5
13C6
  8
0
 10
93.019451457198443
 20
112.3036163217155
 30
0.0
 40
18.15149422398537
 50
342.41204622602368
 51
17.587953773976281
  0
ARC
  5
13C7
  8
0
 10
106.31488245917539
 20
104.0763749857631
 30
0.0
 40
4.8560632220084576
 50
334.38424746808488
 51
34.384247468005832
  0
LINE
  5
13C8
  8
0
 10
110.3224399051529
 20
101.3339612071124
 30
0.0
 11
111.45962081577871
 21
103.3036163217141
 31
0.0
  0
LINE
  5
13C9
  8
0
 10
106.59680172640449
 20
101.3339612071124
 30
0.0
 11
110.322439905153
 21
101.3339612071124
 31
0.0
  0
LINE
  5
13CA
  8
0
 10
106.59680172640449
 20
106.8187887644183
 30
0.0
 11
110.3224399051532
 21
106.81878876441419
 31
0.0
  0
LINE
  5
13CB
  8
0
 10
106.59680172640449
 20
123.2732714363185
 30
0.0
 11
110.322439905153
 21
123.2732714363185
 31
0.0
  0
LINE
  5
13CC
  8
0
 10
106.59680172640449
 20
117.7884438790127
 30
0.0
 11
110.3224399051532
 21
117.7884438790167
 31
0.0
  0
LINE
  5
13CD
  8
0
 10
121.5037224309162
 20
106.30361632171559
 30
0.0
 11
122.4237224309162
 21
107.2236163217155
 31
0.0
  0
LINE
  5
13CE
  8
0
 10
94.4237224309162
 20
107.2236163217155
 30
0.0
 11
95.343722430916273
 21
106.30361632171559
 31
0.0
  0
LINE
  5
13CF
  8
0
 10
95.343722430916273
 20
118.30361632171559
 30
0.0
 11
94.4237224309162
 21
117.38361632171561
 31
0.0
  0
LINE
  5
13D0
  8
0
 10
95.343722430916273
 20
106.30361632171559
 30
0.0
 11
105.45962081577871
 21
106.3036163217155
 31
0.0
  0
LINE
  5
13D1
  8
0
 10
121.5037224309161
 20
118.30361632171559
 30
0.0
 11
111.45962081577861
 21
118.3036163217155
 31
0.0
  0
LINE
  5
13D2
  8
0
 10
122.4237224309162
 20
117.38361632171549
 30
0.0
 11
121.5037224309162
 21
118.30361632171559
 31
0.0
  0
ARC
  5
13D3
  8
2
 10
152.82372243091541
 20
112.3036163217172
 30
0.0
 40
15.99999999999994
 50
142.53734892745371
 51
217.46265107254629
  0
ARC
  5
13D4
  8
0
 10
138.38338449325511
 20
122.8047043207437
 30
0.0
 40
1.999999999999992
 50
29.521719295186291
 51
91.889977246617505
  0
ARC
  5
13D5
  8
0
 10
138.38338449325511
 20
101.80252832269061
 30
0.0
 40
1.9999999999999889
 50
268.11002275318538
 51
330.4782807048137
  0
LINE
  5
13D6
  8
0
 10
138.14304655559491
 20
99.8036163217173
 30
0.0
 11
138.31742380523309
 21
99.8036163217173
 31
0.0
  0
LINE
  5
13D7
  8
0
 10
138.31742380523309
 20
124.8036163217173
 30
0.0
 11
138.14304655559491
 21
124.8036163217173
 31
0.0
  0
LINE
  5
13D8
  8
0
 10
122.7772758215086
 20
105.3036163217173
 30
0.0
 11
131.12372243091539
 21
105.3036163217173
 31
0.0
  0
LINE
  5
13D9
  8
0
 10
131.12372243091539
 20
119.3036163217173
 30
0.0
 11
122.7772758215086
 21
119.3036163217173
 31
0.0
  0
LINE
  5
13DA
  8
0
 10
122.4237224309154
 20
105.65716971231051
 30
0.0
 11
122.7772758215086
 21
105.3036163217173
 31
0.0
  0
LINE
  5
13DB
  8
0
 10
122.7772758215086
 20
119.3036163217173
 30
0.0
 11
122.4237224309154
 21
118.95006293112399
 31
0.0
  0
LINE
  5
13DC
  8
0
 10
122.4237224309162
 20
111.5036163217155
 30
0.0
 11
122.4237224309162
 21
107.2236163217155
 31
0.0
  0
LINE
  5
13DD
  8
0
 10
94.4237224309162
 20
117.38361632171549
 30
0.0
 11
94.4237224309162
 21
107.2236163217155
 31
0.0
  0
LINE
  5
13DE
  8
0
 10
95.343722430916273
 20
118.30361632171559
 30
0.0
 11
95.343722430916273
 21
106.30361632171559
 31
0.0
  0
LINE
  5
13DF
  8
0
 10
121.5037224309161
 20
111.5036163217155
 30
0.0
 11
121.5037224309161
 21
106.30361632171559
 31
0.0
  0
LINE
  5
13E0
  8
0
 10
121.5037224309161
 20
118.30361632171559
 30
0.0
 11
121.5037224309161
 21
113.10361632171551
 31
0.0
  0
LINE
  5
13E1
  8
0
 10
122.4237224309162
 20
117.38361632171549
 30
0.0
 11
122.4237224309162
 21
113.10361632171551
 31
0.0
  0
POLYLINE
  5
13E2
  8
0
 66
     1
 10
0.0
 20
0.0
 30
0.0
  0
VERTEX
  5
1665
  8
0
 10
122.4237224309162
 20
111.5036163217155
 30
0.0
  0
VERTEX
  5
1666
  8
0
 10
122.2809528257761
 20
111.5036163217155
 30
0.0
  0
VERTEX
  5
1667
  8
0
 10
121.9832640285896
 20
111.5036163217155
 30
0.0
  0
VERTEX
  5
1668
  8
0
 10
121.6682219856645
 20
111.5036163217155
 30
0.0
  0
VERTEX
  5
1669
  8
0
 10
121.5037224309161
 20
111.5036163217155
 30
0.0
  0
SEQEND
  5
166A
  8
0
  0
LINE
  5
13E3
  8
0
 10
121.5037224309161
 20
111.5036163217155
 30
0.0
 11
118.9237224309162
 21
111.5036163217155
 31
0.0
  0
LINE
  5
13E4
  8
0
 10
118.9237224309162
 20
111.5036163217155
 30
0.0
 11
118.9237224309162
 21
113.10361632171551
 31
0.0
  0
POLYLINE
  5
13E5
  8
0
 66
     1
 10
0.0
 20
0.0
 30
0.0
  0
VERTEX
  5
166B
  8
0
 10
121.5037224309161
 20
113.10361632171551
 30
0.0
  0
VERTEX
  5
166C
  8
0
 10
121.6682219856645
 20
113.10361632171551
 30
0.0
  0
VERTEX
  5
166D
  8
0
 10
121.9832640285896
 20
113.10361632171551
 30
0.0
  0
VERTEX
  5
166E
  8
0
 10
122.2809528257761
 20
113.10361632171551
 30
0.0
  0
VERTEX
  5
166F
  8
0
 10
122.4237224309162
 20
113.10361632171551
 30
0.0
  0
SEQEND
  5
1670
  8
0
  0
LINE
  5
13E6
  8
0
 10
118.9237224309162
 20
113.10361632171551
 30
0.0
 11
121.5037224309161
 21
113.10361632171551
 31
0.0
  0
LINE
  5
13E7
  8
0
 10
140.12372243091849
 20
123.7902112272286
 30
0.0
 11
140.12372243091221
 21
100.81702141619471
 31
0.0
  0
LINE
  5
13E8
  8
0
 10
138.14304655559829
 20
124.8036163217173
 30
0.0
 11
138.1430465555913
 21
99.8036163217173
 31
0.0
  0
LINE
  5
13E9
  8
0
 10
138.3174238052367
 20
124.8036163217173
 30
0.0
 11
138.31742380522971
 21
99.8036163217173
 31
0.0
  0
LINE
  5
13EA
  8
0
 10
131.12372243091741
 20
119.3036163217173
 30
0.0
 11
131.12372243091349
 21
105.3036163217173
 31
0.0
  0
LINE
  5
13EB
  8
0
 10
122.7772758215107
 20
119.3036163217173
 30
0.0
 11
122.77727582150681
 21
105.3036163217173
 31
0.0
  0
LINE
  5
13EC
  8
0
 10
122.42372243091719
 20
118.95006293112399
 30
0.0
 11
122.4237224309136
 21
105.65716971231051
 31
0.0
  0
LINE
  5
13ED
  8
0
 10
121.5037224309161
 20
113.10361632171551
 30
0.0
 11
122.4237224309162
 21
113.10361632171551
 31
0.0
  0
LINE
  5
13EE
  8
0
 10
122.4237224309162
 20
111.5036163217155
 30
0.0
 11
121.5037224309161
 21
111.5036163217155
 31
0.0
  0
LINE
  5
13EF
  8
3
 10
94.4237224309162
 20
107.2236163217155
 30
0.0
 11
105.45962081577871
 21
107.2236163217155
 31
0.0
  0
LINE
  5
13F0
  8
3
 10
94.4237224309162
 20
117.38361632171561
 30
0.0
 11
105.45962081577871
 21
117.38361632171561
 31
0.0
  0
LINE
  5
13F1
  8
1
 10
145.12372243091539
 20
112.3036163217173
 30
0.0
 11
80.423722430916428
 21
112.3036163217173
 31
0.0
  0
CIRCLE
  5
13F2
  8
0
 10
42.909229337406828
 20
112.3036163217173
 30
0.0
 40
3.0
  0
LINE
  5
13F3
  8
1
 10
42.909229337406828
 20
129.81810941522679
 30
0.0
 11
42.909229337406828
 21
94.7891232282077
 31
0.0
  0
LINE
  5
13F4
  8
1
 10
25.394736243897231
 20
112.3036163217173
 30
0.0
 11
60.423722430916428
 21
112.3036163217173
 31
0.0
  0
CIRCLE
  5
13F5
  8
3
 10
42.909229337406828
 20
112.3036163217173
 30
0.0
 40
5.0799999999999956
  0
LINE
  5
13F6
  8
0
 10
85.842647825718245
 20
114.5062525266334
 30
0.0
 11
85.842647825718245
 21
110.1009801167977
 31
0.0
  0
ARC
  5
13F7
  8
0
 10
91.423722430916413
 20
112.30361632171559
 30
0.0
 40
6.0
 50
158.46275075362149
 51
201.53724924638209
  0
LINE
  5
13F8
  8
0
 10
87.223722430916396
 20
109.30361632171559
 30
0.0
 11
85.842647825719155
 21
110.1009801167972
 31
0.0
  0
LINE
  5
13F9
  8
0
 10
87.223722430916396
 20
115.30361632171559
 30
0.0
 11
85.842647825718814
 21
114.5062525266338
 31
0.0
  0
LINE
  5
13FA
  8
0
 10
87.223722430916396
 20
115.30361632171559
 30
0.0
 11
87.223722430916396
 21
109.30361632171559
 31
0.0
  0
LINE
  5
13FB
  8
0
 10
87.223722430916396
 20
115.30361632171559
 30
0.0
 11
94.4237224309162
 21
115.30361632171559
 31
0.0
  0
LINE
  5
13FC
  8
0
 10
87.223722430916396
 20
109.30361632171559
 30
0.0
 11
94.4237224309162
 21
109.30361632171559
 31
0.0
  0
LINE
  5
13FD
  8
0
 10
87.223722430916396
 20
58.95854382774553
 30
0.0
 11
94.4237224309162
 21
58.95854382774553
 31
0.0
  0
LINE
  5
13FE
  8
0
 10
87.223722430916396
 20
64.958543827745515
 30
0.0
 11
94.4237224309162
 21
64.958543827745515
 31
0.0
  0
LINE
  5
13FF
  8
0
 10
87.223722430916396
 20
64.958543827745515
 30
0.0
 11
87.223722430916396
 21
58.95854382774553
 31
0.0
  0
LINE
  5
1400
  8
0
 10
87.223722430916396
 20
64.958543827745515
 30
0.0
 11
85.842647825718814
 21
64.161180032663765
 31
0.0
  0
LINE
  5
1401
  8
0
 10
87.223722430916396
 20
58.95854382774553
 30
0.0
 11
85.842647825719155
 21
59.755907622827181
 31
0.0
  0
ARC
  5
1402
  8
0
 10
91.423722430916413
 20
61.95854382774553
 30
0.0
 40
6.0
 50
158.46275075362149
 51
201.53724924638209
  0
LINE
  5
1403
  8
0
 10
85.842647825718245
 20
64.16118003266331
 30
0.0
 11
85.842647825718245
 21
59.755907622827628
 31
0.0
  0
LINE
  5
1404
  8
1
 10
145.12372243091539
 20
61.958543827747228
 30
0.0
 11
80.423722430916428
 21
61.958543827747228
 31
0.0
  0
LINE
  5
1405
  8
3
 10
94.4237224309162
 20
67.038543827745514
 30
0.0
 11
105.45962081577871
 21
67.038543827745514
 31
0.0
  0
LINE
  5
1406
  8
3
 10
94.4237224309162
 20
56.878543827745489
 30
0.0
 11
105.45962081577871
 21
56.878543827745538
 31
0.0
  0
LINE
  5
1407
  8
0
 10
122.42372243091719
 20
68.604990437153901
 30
0.0
 11
122.4237224309136
 21
55.312097218340448
 31
0.0
  0
LINE
  5
1408
  8
0
 10
122.7772758215107
 20
68.958543827747235
 30
0.0
 11
122.77727582150681
 21
54.958543827747228
 31
0.0
  0
LINE
  5
1409
  8
0
 10
131.12372243091741
 20
68.958543827747235
 30
0.0
 11
131.12372243091349
 21
54.958543827747228
 31
0.0
  0
LINE
  5
140A
  8
0
 10
122.4237224309162
 20
67.038543827745457
 30
0.0
 11
122.4237224309162
 21
62.758543827745477
 31
0.0
  0
LINE
  5
140B
  8
0
 10
121.5037224309162
 20
67.95854382774553
 30
0.0
 11
121.5037224309161
 21
55.95854382774553
 31
0.0
  0
LINE
  5
140C
  8
0
 10
95.343722430916273
 20
67.95854382774553
 30
0.0
 11
95.343722430916273
 21
55.95854382774553
 31
0.0
  0
LINE
  5
140D
  8
0
 10
94.4237224309162
 20
67.038543827745457
 30
0.0
 11
94.4237224309162
 21
56.878543827745489
 31
0.0
  0
LINE
  5
140E
  8
0
 10
122.4237224309162
 20
61.158543827745461
 30
0.0
 11
122.4237224309162
 21
56.878543827745489
 31
0.0
  0
LINE
  5
140F
  8
0
 10
122.7772758215086
 20
68.958543827747235
 30
0.0
 11
122.4237224309154
 21
68.604990437153901
 31
0.0
  0
LINE
  5
1410
  8
0
 10
122.4237224309154
 20
55.312097218340448
 30
0.0
 11
122.7772758215086
 21
54.958543827747228
 31
0.0
  0
LINE
  5
1411
  8
0
 10
131.12372243091539
 20
68.958543827747235
 30
0.0
 11
122.7772758215086
 21
68.958543827747235
 31
0.0
  0
LINE
  5
1412
  8
0
 10
122.7772758215086
 20
54.958543827747228
 30
0.0
 11
131.12372243091539
 21
54.958543827747228
 31
0.0
  0
LINE
  5
1413
  8
0
 10
122.4237224309162
 20
67.038543827745457
 30
0.0
 11
121.5037224309162
 21
67.95854382774553
 31
0.0
  0
LINE
  5
1414
  8
0
 10
121.5037224309161
 20
67.95854382774553
 30
0.0
 11
111.45962081577871
 21
67.95854382774553
 31
0.0
  0
LINE
  5
1415
  8
0
 10
95.343722430916273
 20
55.95854382774553
 30
0.0
 11
105.45962081577871
 21
55.95854382774553
 31
0.0
  0
LINE
  5
1416
  8
0
 10
95.343722430916273
 20
67.95854382774553
 30
0.0
 11
94.4237224309162
 21
67.038543827745514
 31
0.0
  0
LINE
  5
1417
  8
0
 10
94.4237224309162
 20
56.878543827745489
 30
0.0
 11
95.343722430916273
 21
55.95854382774553
 31
0.0
  0
LINE
  5
1418
  8
0
 10
121.5037224309162
 20
55.95854382774553
 30
0.0
 11
122.4237224309162
 21
56.878543827745489
 31
0.0
  0
CIRCLE
  5
1419
  8
0
 10
42.909229337406828
 20
112.3036163217173
 30
0.0
 40
2.2026362049153358
  0
CIRCLE
  5
141A
  8
0
 10
42.909229337406828
 20
112.3036163217173
 30
0.0
 40
5.9999999999982938
  0
CIRCLE
  5
141B
  8
0
 10
42.909229337406828
 20
112.3036163217173
 30
0.0
 40
12.5
  0
CIRCLE
  5
141C
  8
0
 10
182.63821552442499
 20
112.3036163217173
 30
0.0
 40
12.5
  0
LINE
  5
141D
  8
1
 10
165.12372243091539
 20
112.3036163217173
 30
0.0
 11
200.15270861793451
 21
112.3036163217173
 31
0.0
  0
LINE
  5
141E
  8
1
 10
182.63821552442499
 20
129.8181094152269
 30
0.0
 11
182.63821552442499
 21
94.7891232282077
 31
0.0
  0
CIRCLE
  5
141F
  8
0
 10
182.63821552442499
 20
112.3036163217173
 30
0.0
 40
11.5
  0
CIRCLE
  5
1420
  8
0
 10
182.63821552442499
 20
112.3036163217173
 30
0.0
 40
9.7319062880814915
  0
LINE
  5
1421
  8
0
 10
131.12372243091741
 20
119.3036163217173
 30
0.0
 11
138.14304655559829
 21
124.8036163217173
 31
0.0
  0
LINE
  5
1422
  8
0
 10
131.12372243091539
 20
105.3036163217173
 30
0.0
 11
138.1430465555913
 21
99.8036163217173
 31
0.0
  0
LINE
  5
1423
  8
0
 10
131.12372243091539
 20
54.958543827747228
 30
0.0
 11
138.1430465555913
 21
49.458543827747228
 31
0.0
  0
LINE
  5
1424
  8
0
 10
138.3174238052367
 20
74.458543827747235
 30
0.0
 11
138.31742380522971
 21
49.458543827747228
 31
0.0
  0
LINE
  5
1425
  8
0
 10
138.14304655559829
 20
74.458543827747235
 30
0.0
 11
138.1430465555913
 21
49.458543827747228
 31
0.0
  0
LINE
  5
1426
  8
0
 10
140.12372243091849
 20
73.445138733258545
 30
0.0
 11
140.12372243091221
 21
50.471948922224612
 31
0.0
  0
LINE
  5
1427
  8
0
 10
138.14304655559491
 20
49.458543827747228
 30
0.0
 11
138.31742380523309
 21
49.458543827747228
 31
0.0
  0
ARC
  5
1428
  8
0
 10
138.38338449325511
 20
51.457455828720519
 30
0.0
 40
1.9999999999999889
 50
268.11002275318538
 51
330.4782807048137
  0
ARC
  5
1429
  8
2
 10
152.82372243091541
 20
61.958543827747121
 30
0.0
 40
15.99999999999994
 50
142.53734892745371
 51
217.46265107254629
  0
LINE
  5
142A
  8
0
 10
131.12372243091741
 20
68.958543827747235
 30
0.0
 11
138.14304655559829
 21
74.458543827747235
 31
0.0
  0
LINE
  5
142B
  8
0
 10
138.31742380523309
 20
74.458543827747235
 30
0.0
 11
138.14304655559491
 21
74.458543827747235
 31
0.0
  0
ARC
  5
142C
  8
0
 10
138.38338449325511
 20
72.459631826773716
 30
0.0
 40
1.999999999999992
 50
29.521719295186291
 51
91.889977246617505
  0
TEXT
  5
14D6
  8
0
 62
     3
 10
0.0
 20
0.0
 30
0.0
 40
5.0
  1
SDXNE12AW-SUS
  7
STANDARD1
  0
ENDSEC
  0
EOF
