  0
SECTION
  2
HEADER
  9
$ACADVER
  1
AC1009
  9
$INSBASE
 10
0.0
 20
0.0
 30
0.0
  9
$EXTMIN
 10
0.0
 20
-1.4802182810368341
 30
0.0
  9
$EXTMAX
 10
197.15270861793451
 20
129.8181094152269
 30
0.0
  9
$LIMMIN
 10
0.0
 20
0.0
  9
$LIMMAX
 10
187.5
 20
135.0
  9
$ORTHOMODE
 70
     1
  9
$REGENMODE
 70
     1
  9
$FILLMODE
 70
     1
  9
$QTEXTMODE
 70
     0
  9
$MIRRTEXT
 70
     0
  9
$DRAGMODE
 70
     2
  9
$LTSCALE
 40
5.0
  9
$OSMODE
 70
    55
  9
$ATTMODE
 70
     1
  9
$TEXTSIZE
 40
4.0
  9
$TRACEWID
 40
0.05
  9
$TEXTSTYLE
  7
STANDARD
  9
$CLAYER
  8
0
  9
$CELTYPE
  6
BYLAYER
  9
$CECOLOR
 62
   256
  9
$DIMSCALE
 40
0.5
  9
$DIMASZ
 40
3.0
  9
$DIMEXO
 40
2.0
  9
$DIMDLI
 40
0.38
  9
$DIMRND
 40
0.0
  9
$DIMDLE
 40
0.0
  9
$DIMEXE
 40
2.0
  9
$DIMTP
 40
0.0
  9
$DIMTM
 40
0.0
  9
$DIMTXT
 40
3.0
  9
$DIMCEN
 40
0.0
  9
$DIMTSZ
 40
0.0
  9
$DIMTOL
 70
     0
  9
$DIMLIM
 70
     0
  9
$DIMTIH
 70
     0
  9
$DIMTOH
 70
     0
  9
$DIMSE1
 70
     0
  9
$DIMSE2
 70
     0
  9
$DIMTAD
 70
     1
  9
$DIMZIN
 70
     0
  9
$DIMBLK
  1

  9
$DIMASO
 70
     0
  9
$DIMSHO
 70
     0
  9
$DIMPOST
  1

  9
$DIMAPOST
  1

  9
$DIMALT
 70
     0
  9
$DIMALTD
 70
     2
  9
$DIMALTF
 40
25.399999999999999
  9
$DIMLFAC
 40
1.0
  9
$DIMTOFL
 70
     0
  9
$DIMTVP
 40
1.6000000000000001
  9
$DIMTIX
 70
     1
  9
$DIMSOXD
 70
     0
  9
$DIMSAH
 70
     0
  9
$DIMBLK1
  1

  9
$DIMBLK2
  1

  9
$DIMSTYLE
  2
STANDARD
  9
$DIMCLRD
 70
     0
  9
$DIMCLRE
 70
     0
  9
$DIMCLRT
 70
     0
  9
$DIMTFAC
 40
1.0
  9
$DIMGAP
 40
0.09
  9
$LUNITS
 70
     2
  9
$LUPREC
 70
     4
  9
$SKETCHINC
 40
0.1
  9
$FILLETRAD
 40
1.0
  9
$AUNITS
 70
     0
  9
$AUPREC
 70
     0
  9
$MENU
  1
E:\r13\win\SUPPORT\ACAD
  9
$ELEVATION
 40
0.0
  9
$PELEVATION
 40
0.0
  9
$THICKNESS
 40
0.0
  9
$LIMCHECK
 70
     0
  9
$BLIPMODE
 70
     0
  9
$CHAMFERA
 40
0.0
  9
$CHAMFERB
 40
0.0
  9
$SKPOLY
 70
     0
  9
$TDCREATE
 40
2449840.6143865739
  9
$TDUPDATE
 40
2456598.4902496301
  9
$TDINDWG
 40
0.2388987269
  9
$TDUSRTIMER
 40
0.2388987269
  9
$USRTIMER
 70
     1
  9
$ANGBASE
 50
0.0
  9
$ANGDIR
 70
     0
  9
$PDMODE
 70
     0
  9
$PDSIZE
 40
0.0
  9
$PLINEWID
 40
0.0
  9
$COORDS
 70
     1
  9
$SPLFRAME
 70
     0
  9
$SPLINETYPE
 70
     6
  9
$SPLINESEGS
 70
     8
  9
$ATTDIA
 70
     0
  9
$ATTREQ
 70
     1
  9
$HANDLING
 70
     1
  9
$HANDSEED
  5
14E9
  9
$SURFTAB1
 70
     6
  9
$SURFTAB2
 70
     6
  9
$SURFTYPE
 70
     6
  9
$SURFU
 70
     6
  9
$SURFV
 70
     6
  9
$UCSNAME
  2

  9
$UCSORG
 10
0.0
 20
0.0
 30
0.0
  9
$UCSXDIR
 10
1.0
 20
0.0
 30
0.0
  9
$UCSYDIR
 10
0.0
 20
1.0
 30
0.0
  9
$PUCSNAME
  2

  9
$PUCSORG
 10
0.0
 20
0.0
 30
0.0
  9
$PUCSXDIR
 10
1.0
 20
0.0
 30
0.0
  9
$PUCSYDIR
 10
0.0
 20
1.0
 30
0.0
  9
$USERI1
 70
     0
  9
$USERI2
 70
     1
  9
$USERI3
 70
     1
  9
$USERI4
 70
     0
  9
$USERI5
 70
     0
  9
$USERR1
 40
0.0
  9
$USERR2
 40
0.0
  9
$USERR3
 40
0.0
  9
$USERR4
 40
0.0
  9
$USERR5
 40
0.0
  9
$WORLDVIEW
 70
     1
  9
$SHADEDGE
 70
     3
  9
$SHADEDIF
 70
    70
  9
$TILEMODE
 70
     1
  9
$MAXACTVP
 70
    16
  9
$PLIMCHECK
 70
     0
  9
$PEXTMIN
 10
1.0000000000000000E+020
 20
1.0000000000000000E+020
 30
1.0000000000000000E+020
  9
$PEXTMAX
 10
-1.0000000000000000E+020
 20
-1.0000000000000000E+020
 30
-1.0000000000000000E+020
  9
$PLIMMIN
 10
0.0
 20
0.0
  9
$PLIMMAX
 10
12.0
 20
9.0
  9
$UNITMODE
 70
     0
  9
$VISRETAIN
 70
     0
  9
$PLINEGEN
 70
     0
  9
$PSLTSCALE
 70
     0
  0
ENDSEC
  0
SECTION
  2
TABLES
  0
TABLE
  2
VPORT
 70
     1
  0
VPORT
  2
*ACTIVE
 70
     0
 10
0.0
 20
0.0
 11
1.0
 21
1.0
 12
98.576354767999248
 22
87.458386271734256
 13
0.0
 23
0.0
 14
5.0
 24
5.0
 15
5.0
 25
5.0
 16
0.0
 26
0.0
 36
1.0
 17
0.0
 27
0.0
 37
0.0
 40
179.46013949787169
 41
1.7807262569832401
 42
50.0
 43
0.0
 44
0.0
 50
0.0
 51
0.0
 71
     0
 72
   100
 73
     1
 74
     0
 75
     0
 76
     0
 77
     0
 78
     0
  0
ENDTAB
  0
TABLE
  2
LTYPE
 70
     4
  0
LTYPE
  2
CONTINUOUS
 70
     0
  3
Solid Line
 72
    65
 73
     0
 40
0.0
  0
LTYPE
  2
CENTER
 70
     0
  3
____ _ ____ _ ____ _ ____ _ ____ _ ____ _ ____
 72
    65
 73
     4
 40
2.0
 49
1.25
 49
-0.25
 49
0.25
 49
-0.25
  0
LTYPE
  2
HIDDEN
 70
     0
  3
_ _ _ _ _ _ _ _ _ _ _ _ _ _ _ _ _ _ _ _ _ _ _
 72
    65
 73
     2
 40
0.375
 49
0.25
 49
-0.125
  0
LTYPE
  2
PHANTOM2
 70
     0
  3
___ _ _ ___ _ _ ___ _ _ ___ _ _
 72
    65
 73
     6
 40
1.25
 49
0.625
 49
-0.125
 49
0.125
 49
-0.125
 49
0.125
 49
-0.125
  0
ENDTAB
  0
TABLE
  2
LAYER
 70
     4
  0
LAYER
  2
0
 70
     0
 62
     7
  6
CONTINUOUS
  0
LAYER
  2
1
 70
     0
 62
     1
  6
CENTER
  0
LAYER
  2
3
 70
     0
 62
     3
  6
CONTINUOUS
  0
LAYER
  2
2
 70
     0
 62
     2
  6
HIDDEN
  0
ENDTAB
  0
TABLE
  2
STYLE
 70
     2
  0
STYLE
  2
STANDARD
 70
     0
 40
0.0
 41
1.0
 50
0.0
 71
     0
 42
4.0
  3
TXT
  4
BIGFONT
  0
STYLE
  2
STANDARD1
 70
     0
 40
0.0
 41
1.0
 50
0.0
 71
     0
 42
3.0
  3
txt
  4

  0
ENDTAB
  0
TABLE
  2
VIEW
 70
     1
  0
VIEW
  2
ALL
 70
     0
 40
179.66152299999999
 10
141.903918
 20
89.830760999999995
 41
0.0
 11
0.0
 21
0.0
 31
1.0
 12
0.0
 22
0.0
 32
0.0
 42
0.0
 43
0.0
 44
0.0
 50
0.0
 71
     0
  0
ENDTAB
  0
TABLE
  2
UCS
 70
     0
  0
ENDTAB
  0
TABLE
  2
APPID
 70
     4
  0
APPID
  2
ACAD
 70
     0
  0
APPID
  2
DCO15
 70
     0
  0
APPID
  2
ACAD_MLEADERVER
 70
     0
  0
APPID
  2
ACAD_NAV_VCDISPLAY
 70
     0
  0
ENDTAB
  0
TABLE
  2
DIMSTYLE
 70
     1
  0
DIMSTYLE
  2
STANDARD
 70
     0
  3

  4

  5

  6

  7

 40
1.0
 41
0.18
 42
0.0625
 43
0.38
 44
0.18
 45
0.0
 46
0.0
 47
0.0
 48
0.0
140
0.18
141
0.09
142
0.0
143
25.399999999999999
144
1.0
145
0.0
146
1.0
147
0.09
 71
     0
 72
     0
 73
     1
 74
     1
 75
     0
 76
     0
 77
     0
 78
     0
170
     0
171
     2
172
     0
173
     0
174
     0
175
     0
176
     0
177
     0
178
     0
  0
ENDTAB
  0
ENDSEC
  0
SECTION
  2
BLOCKS
  0
BLOCK
  8
0
  2
$MODEL_SPACE
 70
     0
 10
0.0
 20
0.0
 30
0.0
  3
$MODEL_SPACE
  1

  0
ENDBLK
  5
1BD
  8
0
  0
BLOCK
 67
     1
  8
0
  2
$PAPER_SPACE
 70
     0
 10
0.0
 20
0.0
 30
0.0
  3
$PAPER_SPACE
  1

  0
ENDBLK
  5
1BB
 67
     1
  8
0
  0
ENDSEC
  0
SECTION
  2
ENTITIES
  0
ARC
  5
1339
  8
0
 10
135.38338449325499
 20
72.459631826773716
 30
0.0
 40
1.999999999999992
 50
29.521719295186291
 51
91.889977246617505
  0
LINE
  5
133A
  8
0
 10
135.31742380523309
 20
74.458543827747235
 30
0.0
 11
135.14304655559471
 21
74.458543827747235
 31
0.0
  0
LINE
  5
133B
  8
0
 10
128.1237224309173
 20
68.958543827747235
 30
0.0
 11
135.1430465555982
 21
74.458543827747235
 31
0.0
  0
ARC
  5
133C
  8
2
 10
149.82372243091521
 20
61.958543827747121
 30
0.0
 40
15.99999999999994
 50
142.53734892745371
 51
217.46265107254629
  0
ARC
  5
133D
  8
0
 10
135.38338449325499
 20
51.457455828720519
 30
0.0
 40
1.9999999999999889
 50
268.11002275318538
 51
330.4782807048137
  0
LINE
  5
133E
  8
0
 10
135.14304655559471
 20
49.458543827747228
 30
0.0
 11
135.31742380523309
 21
49.458543827747228
 31
0.0
  0
LINE
  5
133F
  8
0
 10
137.12372243091849
 20
73.445138733258545
 30
0.0
 11
137.12372243091221
 21
50.471948922224612
 31
0.0
  0
LINE
  5
1340
  8
0
 10
135.1430465555982
 20
74.458543827747235
 30
0.0
 11
135.1430465555913
 21
49.458543827747228
 31
0.0
  0
LINE
  5
1341
  8
0
 10
135.3174238052365
 20
74.458543827747235
 30
0.0
 11
135.31742380522971
 21
49.458543827747228
 31
0.0
  0
LINE
  5
1342
  8
0
 10
128.12372243091539
 20
54.958543827747228
 30
0.0
 11
135.1430465555913
 21
49.458543827747228
 31
0.0
  0
LINE
  5
1343
  8
0
 10
128.12372243091539
 20
105.3036163217173
 30
0.0
 11
135.1430465555913
 21
99.8036163217173
 31
0.0
  0
LINE
  5
1344
  8
0
 10
128.1237224309173
 20
119.3036163217173
 30
0.0
 11
135.1430465555982
 21
124.8036163217173
 31
0.0
  0
CIRCLE
  5
1345
  8
0
 10
179.63821552442499
 20
112.3036163217173
 30
0.0
 40
9.7319062880814915
  0
CIRCLE
  5
1346
  8
0
 10
179.63821552442499
 20
112.3036163217173
 30
0.0
 40
11.5
  0
LINE
  5
1347
  8
1
 10
179.63821552442499
 20
129.8181094152269
 30
0.0
 11
179.63821552442499
 21
94.7891232282077
 31
0.0
  0
LINE
  5
1348
  8
1
 10
162.12372243091539
 20
112.3036163217173
 30
0.0
 11
197.15270861793451
 21
112.3036163217173
 31
0.0
  0
CIRCLE
  5
1349
  8
0
 10
179.63821552442499
 20
112.3036163217173
 30
0.0
 40
12.5
  0
CIRCLE
  5
134A
  8
0
 10
42.909229337406757
 20
112.3036163217173
 30
0.0
 40
12.5
  0
CIRCLE
  5
134B
  8
0
 10
42.909229337406828
 20
112.3036163217173
 30
0.0
 40
5.9999999999982938
  0
CIRCLE
  5
134C
  8
0
 10
42.909229337406828
 20
112.3036163217173
 30
0.0
 40
2.2026362049153358
  0
LINE
  5
134D
  8
0
 10
118.5037224309162
 20
55.95854382774553
 30
0.0
 11
119.4237224309161
 21
56.878543827745489
 31
0.0
  0
LINE
  5
134E
  8
0
 10
91.423722430916143
 20
56.878543827745489
 30
0.0
 11
92.343722430916159
 21
55.95854382774553
 31
0.0
  0
LINE
  5
134F
  8
0
 10
92.343722430916159
 20
67.95854382774553
 30
0.0
 11
91.423722430916143
 21
67.038543827745514
 31
0.0
  0
LINE
  5
1350
  8
0
 10
92.343722430916159
 20
55.95854382774553
 30
0.0
 11
118.5037224309161
 21
55.95854382774553
 31
0.0
  0
LINE
  5
1351
  8
0
 10
118.5037224309161
 20
67.95854382774553
 30
0.0
 11
92.343722430916159
 21
67.95854382774553
 31
0.0
  0
LINE
  5
1352
  8
0
 10
119.4237224309161
 20
67.038543827745457
 30
0.0
 11
118.5037224309162
 21
67.95854382774553
 31
0.0
  0
LINE
  5
1353
  8
0
 10
119.7772758215086
 20
54.958543827747228
 30
0.0
 11
128.12372243091539
 21
54.958543827747228
 31
0.0
  0
LINE
  5
1354
  8
0
 10
128.12372243091539
 20
68.958543827747235
 30
0.0
 11
119.7772758215086
 21
68.958543827747235
 31
0.0
  0
LINE
  5
1355
  8
0
 10
119.4237224309153
 20
55.312097218340448
 30
0.0
 11
119.7772758215086
 21
54.958543827747228
 31
0.0
  0
LINE
  5
1356
  8
0
 10
119.7772758215086
 20
68.958543827747235
 30
0.0
 11
119.4237224309153
 21
68.604990437153901
 31
0.0
  0
LINE
  5
1357
  8
0
 10
119.4237224309161
 20
61.158543827745461
 30
0.0
 11
119.4237224309161
 21
56.878543827745489
 31
0.0
  0
LINE
  5
1358
  8
0
 10
91.423722430916143
 20
67.038543827745457
 30
0.0
 11
91.423722430916143
 21
56.878543827745489
 31
0.0
  0
LINE
  5
1359
  8
0
 10
92.343722430916159
 20
67.95854382774553
 30
0.0
 11
92.343722430916159
 21
55.95854382774553
 31
0.0
  0
LINE
  5
135A
  8
0
 10
118.5037224309162
 20
67.95854382774553
 30
0.0
 11
118.5037224309161
 21
55.95854382774553
 31
0.0
  0
LINE
  5
135B
  8
0
 10
119.4237224309161
 20
67.038543827745457
 30
0.0
 11
119.4237224309161
 21
62.758543827745477
 31
0.0
  0
LINE
  5
135C
  8
0
 10
128.1237224309173
 20
68.958543827747235
 30
0.0
 11
128.1237224309134
 21
54.958543827747228
 31
0.0
  0
LINE
  5
135D
  8
0
 10
119.7772758215105
 20
68.958543827747235
 30
0.0
 11
119.77727582150671
 21
54.958543827747228
 31
0.0
  0
LINE
  5
135E
  8
0
 10
119.4237224309171
 20
68.604990437153901
 30
0.0
 11
119.4237224309135
 21
55.312097218340448
 31
0.0
  0
LINE
  5
135F
  8
3
 10
91.423722430916143
 20
56.878543827745489
 30
0.0
 11
119.4237224309161
 21
56.878543827745489
 31
0.0
  0
LINE
  5
1360
  8
3
 10
91.423722430916143
 20
67.038543827745514
 30
0.0
 11
119.4237224309161
 21
67.038543827745514
 31
0.0
  0
LINE
  5
1361
  8
1
 10
142.12372243091539
 20
61.958543827747228
 30
0.0
 11
80.423722430916371
 21
61.958543827747228
 31
0.0
  0
LINE
  5
1362
  8
0
 10
85.842647825718117
 20
64.16118003266331
 30
0.0
 11
85.842647825718117
 21
59.755907622827628
 31
0.0
  0
ARC
  5
1363
  8
0
 10
91.423722430916371
 20
61.95854382774553
 30
0.0
 40
6.0
 50
158.46275075362149
 51
201.53724924638209
  0
LINE
  5
1364
  8
0
 10
87.223722430916396
 20
58.95854382774553
 30
0.0
 11
85.842647825719055
 21
59.755907622827181
 31
0.0
  0
LINE
  5
1365
  8
0
 10
87.223722430916396
 20
64.958543827745515
 30
0.0
 11
85.842647825718757
 21
64.161180032663765
 31
0.0
  0
LINE
  5
1366
  8
0
 10
87.223722430916396
 20
64.958543827745515
 30
0.0
 11
87.223722430916396
 21
58.95854382774553
 31
0.0
  0
LINE
  5
1367
  8
0
 10
87.223722430916396
 20
64.958543827745515
 30
0.0
 11
91.423722430916143
 21
64.958543827745515
 31
0.0
  0
LINE
  5
1368
  8
0
 10
87.223722430916396
 20
58.95854382774553
 30
0.0
 11
91.423722430916143
 21
58.95854382774553
 31
0.0
  0
LINE
  5
1369
  8
0
 10
87.223722430916396
 20
109.30361632171559
 30
0.0
 11
91.423722430916143
 21
109.30361632171559
 31
0.0
  0
LINE
  5
136A
  8
0
 10
87.223722430916396
 20
115.30361632171559
 30
0.0
 11
91.423722430916143
 21
115.30361632171559
 31
0.0
  0
LINE
  5
136B
  8
0
 10
87.223722430916396
 20
115.30361632171559
 30
0.0
 11
87.223722430916396
 21
109.30361632171559
 31
0.0
  0
LINE
  5
136C
  8
0
 10
87.223722430916396
 20
115.30361632171559
 30
0.0
 11
85.842647825718757
 21
114.5062525266338
 31
0.0
  0
LINE
  5
136D
  8
0
 10
87.223722430916396
 20
109.30361632171559
 30
0.0
 11
85.842647825719055
 21
110.1009801167972
 31
0.0
  0
ARC
  5
136E
  8
0
 10
91.423722430916371
 20
112.30361632171559
 30
0.0
 40
6.0
 50
158.46275075362149
 51
201.53724924638209
  0
LINE
  5
136F
  8
0
 10
85.842647825718117
 20
114.5062525266334
 30
0.0
 11
85.842647825718117
 21
110.1009801167977
 31
0.0
  0
CIRCLE
  5
1370
  8
3
 10
42.909229337406757
 20
112.3036163217173
 30
0.0
 40
5.0799999999999956
  0
LINE
  5
1371
  8
1
 10
25.394736243897231
 20
112.3036163217173
 30
0.0
 11
60.423722430916371
 21
112.3036163217173
 31
0.0
  0
LINE
  5
1372
  8
1
 10
42.909229337406828
 20
129.81810941522679
 30
0.0
 11
42.909229337406828
 21
94.7891232282077
 31
0.0
  0
CIRCLE
  5
1373
  8
0
 10
42.909229337406757
 20
112.3036163217173
 30
0.0
 40
3.0
  0
CIRCLE
  5
1374
  8
0
 10
42.909229337406757
 20
112.3036163217173
 30
0.0
 40
6.6464466094067181
  0
CIRCLE
  5
1375
  8
0
 10
42.909229337406757
 20
112.3036163217173
 30
0.0
 40
7.0
  0
LINE
  5
1376
  8
1
 10
142.12372243091539
 20
112.3036163217173
 30
0.0
 11
80.423722430916371
 21
112.3036163217173
 31
0.0
  0
LINE
  5
1377
  8
3
 10
91.423722430916143
 20
117.38361632171561
 30
0.0
 11
119.4237224309161
 21
117.38361632171561
 31
0.0
  0
LINE
  5
1378
  8
3
 10
91.423722430916143
 20
107.2236163217155
 30
0.0
 11
119.4237224309161
 21
107.2236163217155
 31
0.0
  0
LINE
  5
1379
  8
0
 10
119.4237224309161
 20
111.5036163217155
 30
0.0
 11
118.5037224309161
 21
111.5036163217155
 31
0.0
  0
LINE
  5
137A
  8
0
 10
118.5037224309161
 20
113.10361632171551
 30
0.0
 11
119.4237224309161
 21
113.10361632171551
 31
0.0
  0
LINE
  5
137B
  8
0
 10
119.4237224309171
 20
118.95006293112399
 30
0.0
 11
119.4237224309135
 21
105.65716971231051
 31
0.0
  0
LINE
  5
137C
  8
0
 10
119.7772758215105
 20
119.3036163217173
 30
0.0
 11
119.77727582150671
 21
105.3036163217173
 31
0.0
  0
LINE
  5
137D
  8
0
 10
128.1237224309173
 20
119.3036163217173
 30
0.0
 11
128.1237224309134
 21
105.3036163217173
 31
0.0
  0
LINE
  5
137E
  8
0
 10
135.3174238052365
 20
124.8036163217173
 30
0.0
 11
135.31742380522971
 21
99.8036163217173
 31
0.0
  0
LINE
  5
137F
  8
0
 10
135.1430465555982
 20
124.8036163217173
 30
0.0
 11
135.1430465555913
 21
99.8036163217173
 31
0.0
  0
LINE
  5
1380
  8
0
 10
137.12372243091849
 20
123.7902112272286
 30
0.0
 11
137.12372243091221
 21
100.81702141619471
 31
0.0
  0
LINE
  5
1381
  8
0
 10
115.9237224309161
 20
113.10361632171551
 30
0.0
 11
118.5037224309161
 21
113.10361632171551
 31
0.0
  0
POLYLINE
  5
1382
  8
0
 66
     1
 10
0.0
 20
0.0
 30
0.0
  0
VERTEX
  5
14A5
  8
0
 10
118.5037224309161
 20
113.10361632171551
 30
0.0
  0
VERTEX
  5
14A6
  8
0
 10
118.6682219856645
 20
113.10361632171551
 30
0.0
  0
VERTEX
  5
14A7
  8
0
 10
118.9832640285894
 20
113.10361632171551
 30
0.0
  0
VERTEX
  5
14A8
  8
0
 10
119.280952825776
 20
113.10361632171551
 30
0.0
  0
VERTEX
  5
14A9
  8
0
 10
119.4237224309161
 20
113.10361632171551
 30
0.0
  0
SEQEND
  5
14AA
  8
0
  0
LINE
  5
1383
  8
0
 10
115.9237224309161
 20
111.5036163217155
 30
0.0
 11
115.9237224309161
 21
113.10361632171551
 31
0.0
  0
LINE
  5
1384
  8
0
 10
118.5037224309161
 20
111.5036163217155
 30
0.0
 11
115.9237224309161
 21
111.5036163217155
 31
0.0
  0
POLYLINE
  5
1385
  8
0
 66
     1
 10
0.0
 20
0.0
 30
0.0
  0
VERTEX
  5
14AB
  8
0
 10
119.4237224309161
 20
111.5036163217155
 30
0.0
  0
VERTEX
  5
14AC
  8
0
 10
119.280952825776
 20
111.5036163217155
 30
0.0
  0
VERTEX
  5
14AD
  8
0
 10
118.9832640285894
 20
111.5036163217155
 30
0.0
  0
VERTEX
  5
14AE
  8
0
 10
118.6682219856645
 20
111.5036163217155
 30
0.0
  0
VERTEX
  5
14AF
  8
0
 10
118.5037224309161
 20
111.5036163217155
 30
0.0
  0
SEQEND
  5
14B0
  8
0
  0
LINE
  5
1386
  8
0
 10
119.4237224309161
 20
117.38361632171549
 30
0.0
 11
119.4237224309161
 21
113.10361632171551
 31
0.0
  0
LINE
  5
1387
  8
0
 10
118.5037224309161
 20
118.30361632171559
 30
0.0
 11
118.5037224309161
 21
113.10361632171551
 31
0.0
  0
LINE
  5
1388
  8
0
 10
118.5037224309161
 20
111.5036163217155
 30
0.0
 11
118.5037224309161
 21
106.30361632171559
 31
0.0
  0
LINE
  5
1389
  8
0
 10
92.343722430916159
 20
118.30361632171559
 30
0.0
 11
92.343722430916159
 21
106.30361632171559
 31
0.0
  0
LINE
  5
138A
  8
0
 10
91.423722430916143
 20
117.38361632171549
 30
0.0
 11
91.423722430916143
 21
107.2236163217155
 31
0.0
  0
LINE
  5
138B
  8
0
 10
119.4237224309161
 20
111.5036163217155
 30
0.0
 11
119.4237224309161
 21
107.2236163217155
 31
0.0
  0
LINE
  5
138C
  8
0
 10
119.7772758215086
 20
119.3036163217173
 30
0.0
 11
119.4237224309153
 21
118.95006293112399
 31
0.0
  0
LINE
  5
138D
  8
0
 10
119.4237224309153
 20
105.65716971231051
 30
0.0
 11
119.7772758215086
 21
105.3036163217173
 31
0.0
  0
LINE
  5
138E
  8
0
 10
128.12372243091539
 20
119.3036163217173
 30
0.0
 11
119.7772758215086
 21
119.3036163217173
 31
0.0
  0
LINE
  5
138F
  8
0
 10
119.7772758215086
 20
105.3036163217173
 30
0.0
 11
128.12372243091539
 21
105.3036163217173
 31
0.0
  0
LINE
  5
1390
  8
0
 10
135.31742380523309
 20
124.8036163217173
 30
0.0
 11
135.14304655559471
 21
124.8036163217173
 31
0.0
  0
LINE
  5
1391
  8
0
 10
135.14304655559471
 20
99.8036163217173
 30
0.0
 11
135.31742380523309
 21
99.8036163217173
 31
0.0
  0
ARC
  5
1392
  8
0
 10
135.38338449325499
 20
101.80252832269061
 30
0.0
 40
1.9999999999999889
 50
268.11002275318538
 51
330.4782807048137
  0
ARC
  5
1393
  8
0
 10
135.38338449325499
 20
122.8047043207437
 30
0.0
 40
1.999999999999992
 50
29.521719295186291
 51
91.889977246617505
  0
ARC
  5
1394
  8
2
 10
149.82372243091521
 20
112.3036163217172
 30
0.0
 40
15.99999999999994
 50
142.53734892745371
 51
217.46265107254629
  0
LINE
  5
1395
  8
0
 10
119.4237224309161
 20
117.38361632171549
 30
0.0
 11
118.5037224309162
 21
118.30361632171559
 31
0.0
  0
LINE
  5
1396
  8
0
 10
118.5037224309161
 20
118.30361632171559
 30
0.0
 11
92.343722430916159
 21
118.30361632171559
 31
0.0
  0
LINE
  5
1397
  8
0
 10
92.343722430916159
 20
106.30361632171559
 30
0.0
 11
118.5037224309161
 21
106.30361632171559
 31
0.0
  0
LINE
  5
1398
  8
0
 10
92.343722430916159
 20
118.30361632171559
 30
0.0
 11
91.423722430916143
 21
117.38361632171561
 31
0.0
  0
LINE
  5
1399
  8
0
 10
91.423722430916143
 20
107.2236163217155
 30
0.0
 11
92.343722430916159
 21
106.30361632171559
 31
0.0
  0
LINE
  5
139A
  8
0
 10
118.5037224309162
 20
106.30361632171559
 30
0.0
 11
119.4237224309161
 21
107.2236163217155
 31
0.0
  0
TEXT
  5
1444
  8
0
 62
     3
 10
0.0
 20
0.0
 30
0.0
 40
5.0
  1
SDXN12-SUS
  7
STANDARD1
  0
ENDSEC
  0
EOF
