  0
SECTION
  2
HEADER
  9
$ACADVER
  1
AC1009
  9
$INSBASE
 10
0.0
 20
0.0
 30
0.0
  9
$EXTMIN
 10
0.0
 20
-1.4802182810368341
 30
0.0
  9
$EXTMAX
 10
180.89561754868879
 20
127.8038366479152
 30
0.0
  9
$LIMMIN
 10
0.0
 20
0.0
  9
$LIMMAX
 10
187.5
 20
135.0
  9
$ORTHOMODE
 70
     1
  9
$REGENMODE
 70
     1
  9
$FILLMODE
 70
     1
  9
$QTEXTMODE
 70
     0
  9
$MIRRTEXT
 70
     0
  9
$DRAGMODE
 70
     2
  9
$LTSCALE
 40
5.0
  9
$OSMODE
 70
    55
  9
$ATTMODE
 70
     1
  9
$TEXTSIZE
 40
4.0
  9
$TRACEWID
 40
0.05
  9
$TEXTSTYLE
  7
STANDARD
  9
$CLAYER
  8
0
  9
$CELTYPE
  6
BYLAYER
  9
$CECOLOR
 62
   256
  9
$DIMSCALE
 40
0.5
  9
$DIMASZ
 40
3.0
  9
$DIMEXO
 40
2.0
  9
$DIMDLI
 40
0.38
  9
$DIMRND
 40
0.0
  9
$DIMDLE
 40
0.0
  9
$DIMEXE
 40
2.0
  9
$DIMTP
 40
0.0
  9
$DIMTM
 40
0.0
  9
$DIMTXT
 40
3.0
  9
$DIMCEN
 40
0.0
  9
$DIMTSZ
 40
0.0
  9
$DIMTOL
 70
     0
  9
$DIMLIM
 70
     0
  9
$DIMTIH
 70
     0
  9
$DIMTOH
 70
     0
  9
$DIMSE1
 70
     0
  9
$DIMSE2
 70
     0
  9
$DIMTAD
 70
     1
  9
$DIMZIN
 70
     0
  9
$DIMBLK
  1

  9
$DIMASO
 70
     0
  9
$DIMSHO
 70
     0
  9
$DIMPOST
  1

  9
$DIMAPOST
  1

  9
$DIMALT
 70
     0
  9
$DIMALTD
 70
     2
  9
$DIMALTF
 40
25.399999999999999
  9
$DIMLFAC
 40
1.0
  9
$DIMTOFL
 70
     0
  9
$DIMTVP
 40
1.6000000000000001
  9
$DIMTIX
 70
     1
  9
$DIMSOXD
 70
     0
  9
$DIMSAH
 70
     0
  9
$DIMBLK1
  1

  9
$DIMBLK2
  1

  9
$DIMSTYLE
  2
STANDARD
  9
$DIMCLRD
 70
     0
  9
$DIMCLRE
 70
     0
  9
$DIMCLRT
 70
     0
  9
$DIMTFAC
 40
1.0
  9
$DIMGAP
 40
0.09
  9
$LUNITS
 70
     2
  9
$LUPREC
 70
     4
  9
$SKETCHINC
 40
0.1
  9
$FILLETRAD
 40
1.0
  9
$AUNITS
 70
     0
  9
$AUPREC
 70
     0
  9
$MENU
  1
E:\r13\win\SUPPORT\ACAD
  9
$ELEVATION
 40
0.0
  9
$PELEVATION
 40
0.0
  9
$THICKNESS
 40
0.0
  9
$LIMCHECK
 70
     0
  9
$BLIPMODE
 70
     0
  9
$CHAMFERA
 40
0.0
  9
$CHAMFERB
 40
0.0
  9
$SKPOLY
 70
     0
  9
$TDCREATE
 40
2449840.6143865739
  9
$TDUPDATE
 40
2456598.490078819
  9
$TDINDWG
 40
0.2387413889
  9
$TDUSRTIMER
 40
0.2387413889
  9
$USRTIMER
 70
     1
  9
$ANGBASE
 50
0.0
  9
$ANGDIR
 70
     0
  9
$PDMODE
 70
     0
  9
$PDSIZE
 40
0.0
  9
$PLINEWID
 40
0.0
  9
$COORDS
 70
     1
  9
$SPLFRAME
 70
     0
  9
$SPLINETYPE
 70
     6
  9
$SPLINESEGS
 70
     8
  9
$ATTDIA
 70
     0
  9
$ATTREQ
 70
     1
  9
$HANDLING
 70
     1
  9
$HANDSEED
  5
1481
  9
$SURFTAB1
 70
     6
  9
$SURFTAB2
 70
     6
  9
$SURFTYPE
 70
     6
  9
$SURFU
 70
     6
  9
$SURFV
 70
     6
  9
$UCSNAME
  2

  9
$UCSORG
 10
0.0
 20
0.0
 30
0.0
  9
$UCSXDIR
 10
1.0
 20
0.0
 30
0.0
  9
$UCSYDIR
 10
0.0
 20
1.0
 30
0.0
  9
$PUCSNAME
  2

  9
$PUCSORG
 10
0.0
 20
0.0
 30
0.0
  9
$PUCSXDIR
 10
1.0
 20
0.0
 30
0.0
  9
$PUCSYDIR
 10
0.0
 20
1.0
 30
0.0
  9
$USERI1
 70
     0
  9
$USERI2
 70
     1
  9
$USERI3
 70
     1
  9
$USERI4
 70
     0
  9
$USERI5
 70
     0
  9
$USERR1
 40
0.0
  9
$USERR2
 40
0.0
  9
$USERR3
 40
0.0
  9
$USERR4
 40
0.0
  9
$USERR5
 40
0.0
  9
$WORLDVIEW
 70
     1
  9
$SHADEDGE
 70
     3
  9
$SHADEDIF
 70
    70
  9
$TILEMODE
 70
     1
  9
$MAXACTVP
 70
    16
  9
$PLIMCHECK
 70
     0
  9
$PEXTMIN
 10
1.0000000000000000E+020
 20
1.0000000000000000E+020
 30
1.0000000000000000E+020
  9
$PEXTMAX
 10
-1.0000000000000000E+020
 20
-1.0000000000000000E+020
 30
-1.0000000000000000E+020
  9
$PLIMMIN
 10
0.0
 20
0.0
  9
$PLIMMAX
 10
12.0
 20
9.0
  9
$UNITMODE
 70
     0
  9
$VISRETAIN
 70
     0
  9
$PLINEGEN
 70
     0
  9
$PSLTSCALE
 70
     0
  0
ENDSEC
  0
SECTION
  2
TABLES
  0
TABLE
  2
VPORT
 70
     1
  0
VPORT
  2
*ACTIVE
 70
     0
 10
0.0
 20
0.0
 11
1.0
 21
1.0
 12
93.74713919532617
 22
87.458386271734256
 13
0.0
 23
0.0
 14
5.0
 24
5.0
 15
5.0
 25
5.0
 16
0.0
 26
0.0
 36
1.0
 17
0.0
 27
0.0
 37
0.0
 40
179.46013949787169
 41
1.7807262569832401
 42
50.0
 43
0.0
 44
0.0
 50
0.0
 51
0.0
 71
     0
 72
   100
 73
     1
 74
     0
 75
     0
 76
     0
 77
     0
 78
     0
  0
ENDTAB
  0
TABLE
  2
LTYPE
 70
     4
  0
LTYPE
  2
CONTINUOUS
 70
     0
  3
Solid Line
 72
    65
 73
     0
 40
0.0
  0
LTYPE
  2
CENTER
 70
     0
  3
____ _ ____ _ ____ _ ____ _ ____ _ ____ _ ____
 72
    65
 73
     4
 40
2.0
 49
1.25
 49
-0.25
 49
0.25
 49
-0.25
  0
LTYPE
  2
HIDDEN
 70
     0
  3
_ _ _ _ _ _ _ _ _ _ _ _ _ _ _ _ _ _ _ _ _ _ _
 72
    65
 73
     2
 40
0.375
 49
0.25
 49
-0.125
  0
LTYPE
  2
PHANTOM2
 70
     0
  3
___ _ _ ___ _ _ ___ _ _ ___ _ _
 72
    65
 73
     6
 40
1.25
 49
0.625
 49
-0.125
 49
0.125
 49
-0.125
 49
0.125
 49
-0.125
  0
ENDTAB
  0
TABLE
  2
LAYER
 70
     4
  0
LAYER
  2
0
 70
     0
 62
     7
  6
CONTINUOUS
  0
LAYER
  2
1
 70
     0
 62
     1
  6
CENTER
  0
LAYER
  2
3
 70
     0
 62
     3
  6
CONTINUOUS
  0
LAYER
  2
2
 70
     0
 62
     2
  6
HIDDEN
  0
ENDTAB
  0
TABLE
  2
STYLE
 70
     2
  0
STYLE
  2
STANDARD
 70
     0
 40
0.0
 41
1.0
 50
0.0
 71
     0
 42
4.0
  3
TXT
  4
BIGFONT
  0
STYLE
  2
STANDARD1
 70
     0
 40
0.0
 41
1.0
 50
0.0
 71
     0
 42
3.0
  3
txt
  4

  0
ENDTAB
  0
TABLE
  2
VIEW
 70
     1
  0
VIEW
  2
ALL
 70
     0
 40
179.66152299999999
 10
141.903918
 20
89.830760999999995
 41
0.0
 11
0.0
 21
0.0
 31
1.0
 12
0.0
 22
0.0
 32
0.0
 42
0.0
 43
0.0
 44
0.0
 50
0.0
 71
     0
  0
ENDTAB
  0
TABLE
  2
UCS
 70
     0
  0
ENDTAB
  0
TABLE
  2
APPID
 70
     4
  0
APPID
  2
ACAD
 70
     0
  0
APPID
  2
DCO15
 70
     0
  0
APPID
  2
ACAD_MLEADERVER
 70
     0
  0
APPID
  2
ACAD_NAV_VCDISPLAY
 70
     0
  0
ENDTAB
  0
TABLE
  2
DIMSTYLE
 70
     1
  0
DIMSTYLE
  2
STANDARD
 70
     0
  3

  4

  5

  6

  7

 40
1.0
 41
0.18
 42
0.0625
 43
0.38
 44
0.18
 45
0.0
 46
0.0
 47
0.0
 48
0.0
140
0.18
141
0.09
142
0.0
143
25.399999999999999
144
1.0
145
0.0
146
1.0
147
0.09
 71
     0
 72
     0
 73
     1
 74
     1
 75
     0
 76
     0
 77
     0
 78
     0
170
     0
171
     2
172
     0
173
     0
174
     0
175
     0
176
     0
177
     0
178
     0
  0
ENDTAB
  0
ENDSEC
  0
SECTION
  2
BLOCKS
  0
BLOCK
  8
0
  2
$MODEL_SPACE
 70
     0
 10
0.0
 20
0.0
 30
0.0
  3
$MODEL_SPACE
  1

  0
ENDBLK
  5
1BD
  8
0
  0
BLOCK
 67
     1
  8
0
  2
$PAPER_SPACE
 70
     0
 10
0.0
 20
0.0
 30
0.0
  3
$PAPER_SPACE
  1

  0
ENDBLK
  5
1BB
 67
     1
  8
0
  0
ENDSEC
  0
SECTION
  2
ENTITIES
  0
CIRCLE
  5
12D1
  8
0
 10
165.39539722249091
 20
112.3036163217173
 30
0.0
 40
10.5
  0
CIRCLE
  5
12D2
  8
0
 10
40.894956570095133
 20
112.3036163217173
 30
0.0
 40
10.5
  0
CIRCLE
  5
12D3
  8
0
 10
165.39539722249091
 20
112.3036163217173
 30
0.0
 40
8.5317055739166161
  0
CIRCLE
  5
12D4
  8
0
 10
165.39539722249091
 20
112.3036163217173
 30
0.0
 40
9.5
  0
LINE
  5
12D5
  8
1
 10
165.39539722249091
 20
127.8038366479152
 30
0.0
 11
165.39539722249091
 21
96.803395995519395
 31
0.0
  0
LINE
  5
12D6
  8
1
 10
149.89517689629301
 20
112.3036163217173
 30
0.0
 11
180.89561754868879
 21
112.3036163217173
 31
0.0
  0
CIRCLE
  5
12D7
  8
0
 10
40.894956570095133
 20
112.3036163217173
 30
0.0
 40
5.0
  0
CIRCLE
  5
12D8
  8
0
 10
40.894956570095097
 20
112.3036163217173
 30
0.0
 40
1.987242216906679
  0
LINE
  5
12D9
  8
0
 10
109.78167689629301
 20
63.964671129707767
 30
0.0
 11
110.39517689629299
 21
64.578171129707755
 31
0.0
  0
LINE
  5
12DA
  8
0
 10
86.395176896292995
 20
64.578171129707812
 30
0.0
 11
87.008676896293025
 21
63.964671129707767
 31
0.0
  0
LINE
  5
12DB
  8
0
 10
87.008676896293025
 20
73.964671129707767
 30
0.0
 11
86.395176896292995
 21
73.351171129707723
 31
0.0
  0
LINE
  5
12DC
  8
0
 10
87.008676896293025
 20
63.964671129707767
 30
0.0
 11
109.78167689629301
 21
63.964671129707767
 31
0.0
  0
LINE
  5
12DD
  8
0
 10
109.78167689629301
 20
73.964671129707767
 30
0.0
 11
87.008676896293025
 21
73.964671129707767
 31
0.0
  0
LINE
  5
12DE
  8
0
 10
110.39517689629299
 20
73.351171129707765
 30
0.0
 11
109.78167689629301
 21
73.964671129707767
 31
0.0
  0
ARC
  5
12DF
  8
2
 10
135.995176896293
 20
68.964671129707824
 30
0.0
 40
14.00000000000014
 50
142.45332336004881
 51
217.5466766399511
  0
ARC
  5
12E0
  8
0
 10
123.48088545615261
 20
77.964891455905672
 30
0.0
 40
1.500000000000004
 50
19.462294533091789
 51
90.98204273418213
  0
ARC
  5
12E1
  8
0
 10
123.48088545615261
 20
59.964450803509862
 30
0.0
 40
1.5000000000000051
 50
269.01795726581781
 51
340.53770546690822
  0
LINE
  5
12E2
  8
0
 10
123.1007045781777
 20
58.464671129707767
 30
0.0
 11
123.4551768962929
 21
58.464671129707767
 31
0.0
  0
LINE
  5
12E3
  8
0
 10
123.4551768962929
 20
79.464671129707753
 30
0.0
 11
123.1007045781777
 21
79.464671129707753
 31
0.0
  0
LINE
  5
12E4
  8
0
 10
117.595176896293
 20
62.46467112970776
 30
0.0
 11
123.1007045781777
 21
58.464671129707767
 31
0.0
  0
LINE
  5
12E5
  8
0
 10
123.1007045781777
 20
79.464671129707753
 30
0.0
 11
117.595176896293
 21
75.464671129707767
 31
0.0
  0
LINE
  5
12E6
  8
0
 10
110.7487302868863
 20
62.46467112970776
 30
0.0
 11
117.595176896293
 21
62.46467112970776
 31
0.0
  0
LINE
  5
12E7
  8
0
 10
117.595176896293
 20
75.464671129707767
 30
0.0
 11
110.7487302868863
 21
75.464671129707767
 31
0.0
  0
LINE
  5
12E8
  8
0
 10
110.39517689629299
 20
62.818224520301037
 30
0.0
 11
110.7487302868863
 21
62.46467112970776
 31
0.0
  0
LINE
  5
12E9
  8
0
 10
110.7487302868863
 20
75.464671129707767
 30
0.0
 11
110.39517689629299
 21
75.111117739114491
 31
0.0
  0
LINE
  5
12EA
  8
0
 10
110.39517689629299
 20
68.164671129707756
 30
0.0
 11
110.39517689629299
 21
64.578171129707755
 31
0.0
  0
LINE
  5
12EB
  8
0
 10
86.395176896292995
 20
73.351171129707723
 30
0.0
 11
86.395176896292995
 21
64.578171129707812
 31
0.0
  0
LINE
  5
12EC
  8
0
 10
87.008676896293025
 20
73.964671129707767
 30
0.0
 11
87.008676896293025
 21
63.964671129707767
 31
0.0
  0
LINE
  5
12ED
  8
0
 10
109.78167689629301
 20
73.964671129707767
 30
0.0
 11
109.78167689629301
 21
63.964671129707767
 31
0.0
  0
LINE
  5
12EE
  8
0
 10
110.39517689629299
 20
73.351171129707765
 30
0.0
 11
110.39517689629299
 21
69.764671129707779
 31
0.0
  0
LINE
  5
12EF
  8
0
 10
124.89517689629299
 20
78.464671129707767
 30
0.0
 11
124.89517689629299
 21
59.46467112970776
 31
0.0
  0
LINE
  5
12F0
  8
0
 10
123.4551768962929
 20
79.464671129707753
 30
0.0
 11
123.4551768962929
 21
58.464671129707767
 31
0.0
  0
LINE
  5
12F1
  8
0
 10
123.1007045781777
 20
79.464671129707753
 30
0.0
 11
123.1007045781777
 21
58.464671129707767
 31
0.0
  0
LINE
  5
12F2
  8
0
 10
117.595176896293
 20
75.464671129707767
 30
0.0
 11
117.595176896293
 21
62.46467112970776
 31
0.0
  0
LINE
  5
12F3
  8
0
 10
110.7487302868863
 20
75.464671129707767
 30
0.0
 11
110.7487302868863
 21
62.46467112970776
 31
0.0
  0
LINE
  5
12F4
  8
0
 10
110.39517689629299
 20
75.111117739114491
 30
0.0
 11
110.39517689629299
 21
62.818224520301037
 31
0.0
  0
LINE
  5
12F5
  8
3
 10
86.395176896292995
 20
64.578171129707812
 30
0.0
 11
110.39517689629299
 21
64.578171129707755
 31
0.0
  0
LINE
  5
12F6
  8
3
 10
86.395176896292995
 20
73.351171129707765
 30
0.0
 11
110.39517689629299
 21
73.351171129707765
 31
0.0
  0
LINE
  5
12F7
  8
1
 10
129.89517689629301
 20
68.964671129707767
 30
0.0
 11
76.395176896292995
 21
68.964671129707767
 31
0.0
  0
LINE
  5
12F8
  8
0
 10
86.395176896292995
 20
66.464671129707767
 30
0.0
 11
82.695176896293006
 21
66.464671129707767
 31
0.0
  0
LINE
  5
12F9
  8
0
 10
82.695176896293006
 20
71.464671129707767
 30
0.0
 11
82.695176896293006
 21
66.464671129707767
 31
0.0
  0
LINE
  5
12FA
  8
0
 10
82.695176896293006
 20
66.464671129707767
 30
0.0
 11
81.80705436399964
 21
66.977428912800747
 31
0.0
  0
ARC
  5
12FB
  8
0
 10
86.395176896292995
 20
68.964671129707767
 30
0.0
 40
5.0
 50
156.58123504462961
 51
203.41876495537031
  0
LINE
  5
12FC
  8
0
 10
81.807054363999185
 20
66.977428912800974
 30
0.0
 11
81.807054363999612
 21
70.951913346614774
 31
0.0
  0
LINE
  5
12FD
  8
0
 10
86.395176896292995
 20
71.464671129707767
 30
0.0
 11
82.695176896293006
 21
71.464671129707767
 31
0.0
  0
LINE
  5
12FE
  8
0
 10
82.695176896293006
 20
71.464671129707767
 30
0.0
 11
81.80705436399964
 21
70.951913346614774
 31
0.0
  0
LINE
  5
12FF
  8
0
 10
82.695176896293006
 20
114.8036163217173
 30
0.0
 11
81.80705436399964
 21
114.29085853862431
 31
0.0
  0
LINE
  5
1300
  8
0
 10
86.395176896292995
 20
114.8036163217173
 30
0.0
 11
82.695176896293006
 21
114.8036163217173
 31
0.0
  0
LINE
  5
1301
  8
0
 10
81.807054363999185
 20
110.31637410481051
 30
0.0
 11
81.807054363999612
 21
114.29085853862431
 31
0.0
  0
ARC
  5
1302
  8
0
 10
86.395176896292995
 20
112.3036163217173
 30
0.0
 40
5.0
 50
156.58123504462961
 51
203.41876495537031
  0
LINE
  5
1303
  8
0
 10
82.695176896293006
 20
109.8036163217173
 30
0.0
 11
81.80705436399964
 21
110.31637410481019
 31
0.0
  0
LINE
  5
1304
  8
0
 10
82.695176896293006
 20
114.8036163217173
 30
0.0
 11
82.695176896293006
 21
109.8036163217173
 31
0.0
  0
LINE
  5
1305
  8
0
 10
86.395176896292995
 20
109.8036163217173
 30
0.0
 11
82.695176896293006
 21
109.8036163217173
 31
0.0
  0
CIRCLE
  5
1306
  8
3
 10
40.894956570095097
 20
112.3036163217173
 30
0.0
 40
4.3865000000000043
  0
LINE
  5
1307
  8
1
 10
25.394736243897231
 20
112.3036163217173
 30
0.0
 11
56.395176896293002
 21
112.3036163217173
 31
0.0
  0
LINE
  5
1308
  8
1
 10
40.894956570095133
 20
127.8038366479152
 30
0.0
 11
40.894956570095097
 21
96.803395995519395
 31
0.0
  0
CIRCLE
  5
1309
  8
0
 10
40.894956570095097
 20
112.3036163217173
 30
0.0
 40
2.5
  0
CIRCLE
  5
130A
  8
0
 10
40.894956570095097
 20
112.3036163217173
 30
0.0
 40
6.1464466094067181
  0
CIRCLE
  5
130B
  8
0
 10
40.894956570095097
 20
112.3036163217173
 30
0.0
 40
6.5
  0
LINE
  5
130C
  8
1
 10
129.89517689629301
 20
112.3036163217173
 30
0.0
 11
76.395176896292995
 21
112.3036163217173
 31
0.0
  0
LINE
  5
130D
  8
3
 10
86.395176896292995
 20
116.6901163217173
 30
0.0
 11
110.39517689629299
 21
116.6901163217173
 31
0.0
  0
LINE
  5
130E
  8
3
 10
86.395176896292995
 20
107.9171163217173
 30
0.0
 11
110.39517689629299
 21
107.9171163217173
 31
0.0
  0
LINE
  5
130F
  8
0
 10
110.39517689629299
 20
111.5036163217173
 30
0.0
 11
109.78167689629301
 21
111.5036163217173
 31
0.0
  0
LINE
  5
1310
  8
0
 10
109.78167689629301
 20
113.1036163217173
 30
0.0
 11
110.39517689629299
 21
113.1036163217173
 31
0.0
  0
LINE
  5
1311
  8
0
 10
110.39517689629299
 20
118.45006293112399
 30
0.0
 11
110.39517689629299
 21
106.15716971231051
 31
0.0
  0
LINE
  5
1312
  8
0
 10
110.7487302868863
 20
118.8036163217173
 30
0.0
 11
110.7487302868863
 21
105.8036163217173
 31
0.0
  0
LINE
  5
1313
  8
0
 10
117.595176896293
 20
118.8036163217173
 30
0.0
 11
117.595176896293
 21
105.8036163217173
 31
0.0
  0
LINE
  5
1314
  8
0
 10
123.1007045781777
 20
122.8036163217173
 30
0.0
 11
123.1007045781777
 21
101.8036163217173
 31
0.0
  0
LINE
  5
1315
  8
0
 10
123.4551768962929
 20
122.8036163217173
 30
0.0
 11
123.4551768962929
 21
101.8036163217173
 31
0.0
  0
LINE
  5
1316
  8
0
 10
124.89517689629299
 20
121.8036163217173
 30
0.0
 11
124.89517689629299
 21
102.8036163217173
 31
0.0
  0
LINE
  5
1317
  8
0
 10
107.39517689629299
 20
113.1036163217173
 30
0.0
 11
109.78167689629301
 21
113.1036163217173
 31
0.0
  0
POLYLINE
  5
1318
  8
0
 66
     1
 10
0.0
 20
0.0
 30
0.0
  0
VERTEX
  5
143D
  8
0
 10
109.78167689629301
 20
113.1036163217173
 30
0.0
  0
VERTEX
  5
143E
  8
0
 10
109.8897979755443
 20
113.1036163217173
 30
0.0
  0
VERTEX
  5
143F
  8
0
 10
110.0987641975756
 20
113.1036163217173
 30
0.0
  0
VERTEX
  5
1440
  8
0
 10
110.2985473382456
 20
113.1036163217173
 30
0.0
  0
VERTEX
  5
1441
  8
0
 10
110.39517689629299
 20
113.1036163217173
 30
0.0
  0
SEQEND
  5
1442
  8
0
  0
LINE
  5
1319
  8
0
 10
107.39517689629299
 20
111.5036163217173
 30
0.0
 11
107.39517689629299
 21
113.1036163217173
 31
0.0
  0
LINE
  5
131A
  8
0
 10
109.78167689629301
 20
111.5036163217173
 30
0.0
 11
107.39517689629299
 21
111.5036163217173
 31
0.0
  0
POLYLINE
  5
131B
  8
0
 66
     1
 10
0.0
 20
0.0
 30
0.0
  0
VERTEX
  5
1443
  8
0
 10
110.39517689629299
 20
111.5036163217173
 30
0.0
  0
VERTEX
  5
1444
  8
0
 10
110.2985473382456
 20
111.5036163217173
 30
0.0
  0
VERTEX
  5
1445
  8
0
 10
110.0987641975756
 20
111.5036163217173
 30
0.0
  0
VERTEX
  5
1446
  8
0
 10
109.8897979755443
 20
111.5036163217173
 30
0.0
  0
VERTEX
  5
1447
  8
0
 10
109.78167689629301
 20
111.5036163217173
 30
0.0
  0
SEQEND
  5
1448
  8
0
  0
LINE
  5
131C
  8
0
 10
110.39517689629299
 20
116.6901163217173
 30
0.0
 11
110.39517689629299
 21
113.1036163217173
 31
0.0
  0
LINE
  5
131D
  8
0
 10
109.78167689629301
 20
117.3036163217173
 30
0.0
 11
109.78167689629301
 21
113.1036163217173
 31
0.0
  0
LINE
  5
131E
  8
0
 10
109.78167689629301
 20
111.5036163217173
 30
0.0
 11
109.78167689629301
 21
107.3036163217173
 31
0.0
  0
LINE
  5
131F
  8
0
 10
87.008676896293025
 20
117.3036163217173
 30
0.0
 11
87.008676896293025
 21
107.3036163217173
 31
0.0
  0
LINE
  5
1320
  8
0
 10
86.395176896292995
 20
116.6901163217172
 30
0.0
 11
86.395176896292995
 21
107.9171163217173
 31
0.0
  0
LINE
  5
1321
  8
0
 10
110.39517689629299
 20
111.5036163217173
 30
0.0
 11
110.39517689629299
 21
107.9171163217173
 31
0.0
  0
LINE
  5
1322
  8
0
 10
110.7487302868863
 20
118.8036163217173
 30
0.0
 11
110.39517689629299
 21
118.45006293112399
 31
0.0
  0
LINE
  5
1323
  8
0
 10
110.39517689629299
 20
106.15716971231051
 30
0.0
 11
110.7487302868863
 21
105.8036163217173
 31
0.0
  0
LINE
  5
1324
  8
0
 10
117.595176896293
 20
118.8036163217173
 30
0.0
 11
110.7487302868863
 21
118.8036163217173
 31
0.0
  0
LINE
  5
1325
  8
0
 10
110.7487302868863
 20
105.8036163217173
 30
0.0
 11
117.595176896293
 21
105.8036163217173
 31
0.0
  0
LINE
  5
1326
  8
0
 10
123.1007045781777
 20
122.8036163217173
 30
0.0
 11
117.595176896293
 21
118.8036163217173
 31
0.0
  0
LINE
  5
1327
  8
0
 10
117.595176896293
 20
105.8036163217173
 30
0.0
 11
123.1007045781777
 21
101.8036163217173
 31
0.0
  0
LINE
  5
1328
  8
0
 10
123.4551768962929
 20
122.8036163217173
 30
0.0
 11
123.1007045781777
 21
122.8036163217173
 31
0.0
  0
LINE
  5
1329
  8
0
 10
123.1007045781777
 20
101.8036163217173
 30
0.0
 11
123.4551768962929
 21
101.8036163217173
 31
0.0
  0
ARC
  5
132A
  8
0
 10
123.48088545615261
 20
103.3033959955194
 30
0.0
 40
1.5000000000000051
 50
269.01795726581781
 51
340.53770546690822
  0
ARC
  5
132B
  8
0
 10
123.48088545615261
 20
121.3038366479152
 30
0.0
 40
1.500000000000004
 50
19.462294533091789
 51
90.98204273418213
  0
ARC
  5
132C
  8
2
 10
135.995176896293
 20
112.3036163217173
 30
0.0
 40
14.00000000000014
 50
142.45332336004881
 51
217.5466766399511
  0
LINE
  5
132D
  8
0
 10
110.39517689629299
 20
116.6901163217173
 30
0.0
 11
109.78167689629301
 21
117.3036163217173
 31
0.0
  0
LINE
  5
132E
  8
0
 10
109.78167689629301
 20
117.3036163217173
 30
0.0
 11
87.008676896293025
 21
117.3036163217173
 31
0.0
  0
LINE
  5
132F
  8
0
 10
87.008676896293025
 20
107.3036163217173
 30
0.0
 11
109.78167689629301
 21
107.3036163217173
 31
0.0
  0
LINE
  5
1330
  8
0
 10
87.008676896293025
 20
117.3036163217173
 30
0.0
 11
86.395176896292995
 21
116.6901163217172
 31
0.0
  0
LINE
  5
1331
  8
0
 10
86.395176896292995
 20
107.9171163217173
 30
0.0
 11
87.008676896293025
 21
107.3036163217173
 31
0.0
  0
LINE
  5
1332
  8
0
 10
109.78167689629301
 20
107.3036163217173
 30
0.0
 11
110.39517689629299
 21
107.9171163217173
 31
0.0
  0
TEXT
  5
13DC
  8
0
 62
     3
 10
0.0
 20
0.0
 30
0.0
 40
5.0
  1
SDXN10-SUS
  7
STANDARD1
  0
ENDSEC
  0
EOF
