  0
SECTION
  2
HEADER
  9
$ACADVER
  1
AC1009
  9
$INSBASE
 10
0.0
 20
0.0
 30
0.0
  9
$EXTMIN
 10
0.0
 20
-1.4802182810368341
 30
0.0
  9
$EXTMAX
 10
279.74141453887211
 20
206.7593435230979
 30
0.0
  9
$LIMMIN
 10
0.0
 20
0.0
  9
$LIMMAX
 10
385.0
 20
270.0
  9
$ORTHOMODE
 70
     1
  9
$REGENMODE
 70
     1
  9
$FILLMODE
 70
     1
  9
$QTEXTMODE
 70
     0
  9
$MIRRTEXT
 70
     0
  9
$DRAGMODE
 70
     2
  9
$LTSCALE
 40
10.0
  9
$OSMODE
 70
    55
  9
$ATTMODE
 70
     1
  9
$TEXTSIZE
 40
4.000000000000048
  9
$TRACEWID
 40
0.05
  9
$TEXTSTYLE
  7
STANDARD
  9
$CLAYER
  8
0
  9
$CELTYPE
  6
BYLAYER
  9
$CECOLOR
 62
   256
  9
$DIMSCALE
 40
1.0
  9
$DIMASZ
 40
3.0
  9
$DIMEXO
 40
2.0
  9
$DIMDLI
 40
0.38
  9
$DIMRND
 40
0.0
  9
$DIMDLE
 40
0.0
  9
$DIMEXE
 40
2.0
  9
$DIMTP
 40
0.0
  9
$DIMTM
 40
0.0
  9
$DIMTXT
 40
3.0
  9
$DIMCEN
 40
0.0
  9
$DIMTSZ
 40
0.0
  9
$DIMTOL
 70
     0
  9
$DIMLIM
 70
     0
  9
$DIMTIH
 70
     0
  9
$DIMTOH
 70
     0
  9
$DIMSE1
 70
     0
  9
$DIMSE2
 70
     0
  9
$DIMTAD
 70
     1
  9
$DIMZIN
 70
     0
  9
$DIMBLK
  1

  9
$DIMASO
 70
     1
  9
$DIMSHO
 70
     0
  9
$DIMPOST
  1

  9
$DIMAPOST
  1

  9
$DIMALT
 70
     0
  9
$DIMALTD
 70
     2
  9
$DIMALTF
 40
25.399999999999999
  9
$DIMLFAC
 40
1.0
  9
$DIMTOFL
 70
     1
  9
$DIMTVP
 40
1.6000000000000001
  9
$DIMTIX
 70
     1
  9
$DIMSOXD
 70
     0
  9
$DIMSAH
 70
     0
  9
$DIMBLK1
  1

  9
$DIMBLK2
  1

  9
$DIMSTYLE
  2
STANDARD
  9
$DIMCLRD
 70
     0
  9
$DIMCLRE
 70
     0
  9
$DIMCLRT
 70
     0
  9
$DIMTFAC
 40
1.0
  9
$DIMGAP
 40
1.0
  9
$LUNITS
 70
     2
  9
$LUPREC
 70
     4
  9
$SKETCHINC
 40
0.1
  9
$FILLETRAD
 40
0.0
  9
$AUNITS
 70
     0
  9
$AUPREC
 70
     4
  9
$MENU
  1
E:\r13\win\SUPPORT\ACAD
  9
$ELEVATION
 40
0.0
  9
$PELEVATION
 40
0.0
  9
$THICKNESS
 40
0.0
  9
$LIMCHECK
 70
     0
  9
$BLIPMODE
 70
     0
  9
$CHAMFERA
 40
0.0
  9
$CHAMFERB
 40
0.0
  9
$SKPOLY
 70
     0
  9
$TDCREATE
 40
2450280.598206134
  9
$TDUPDATE
 40
2456598.489262165
  9
$TDINDWG
 40
0.0821183912
  9
$TDUSRTIMER
 40
0.0821183912
  9
$USRTIMER
 70
     1
  9
$ANGBASE
 50
0.0
  9
$ANGDIR
 70
     0
  9
$PDMODE
 70
     0
  9
$PDSIZE
 40
0.0
  9
$PLINEWID
 40
0.0
  9
$COORDS
 70
     1
  9
$SPLFRAME
 70
     0
  9
$SPLINETYPE
 70
     6
  9
$SPLINESEGS
 70
     8
  9
$ATTDIA
 70
     0
  9
$ATTREQ
 70
     1
  9
$HANDLING
 70
     1
  9
$HANDSEED
  5
20F8
  9
$SURFTAB1
 70
     6
  9
$SURFTAB2
 70
     6
  9
$SURFTYPE
 70
     6
  9
$SURFU
 70
     6
  9
$SURFV
 70
     6
  9
$UCSNAME
  2

  9
$UCSORG
 10
0.0
 20
0.0
 30
0.0
  9
$UCSXDIR
 10
1.0
 20
0.0
 30
0.0
  9
$UCSYDIR
 10
0.0
 20
1.0
 30
0.0
  9
$PUCSNAME
  2

  9
$PUCSORG
 10
0.0
 20
0.0
 30
0.0
  9
$PUCSXDIR
 10
1.0
 20
0.0
 30
0.0
  9
$PUCSYDIR
 10
0.0
 20
1.0
 30
0.0
  9
$USERI1
 70
     3
  9
$USERI2
 70
     1
  9
$USERI3
 70
     1
  9
$USERI4
 70
     0
  9
$USERI5
 70
     0
  9
$USERR1
 40
1.0
  9
$USERR2
 40
3.0
  9
$USERR3
 40
3.0
  9
$USERR4
 40
3.0
  9
$USERR5
 40
10.0
  9
$WORLDVIEW
 70
     1
  9
$SHADEDGE
 70
     3
  9
$SHADEDIF
 70
    70
  9
$TILEMODE
 70
     1
  9
$MAXACTVP
 70
    16
  9
$PLIMCHECK
 70
     0
  9
$PEXTMIN
 10
1.0000000000000000E+020
 20
1.0000000000000000E+020
 30
1.0000000000000000E+020
  9
$PEXTMAX
 10
-1.0000000000000000E+020
 20
-1.0000000000000000E+020
 30
-1.0000000000000000E+020
  9
$PLIMMIN
 10
0.0
 20
0.0
  9
$PLIMMAX
 10
12.0
 20
9.0
  9
$UNITMODE
 70
     0
  9
$VISRETAIN
 70
     0
  9
$PLINEGEN
 70
     0
  9
$PSLTSCALE
 70
     0
  0
ENDSEC
  0
SECTION
  2
TABLES
  0
TABLE
  2
VPORT
 70
     1
  0
VPORT
  2
*ACTIVE
 70
     0
 10
0.0
 20
0.0
 11
1.0
 21
1.0
 12
192.49412581440311
 22
175.433388831352
 13
0.0
 23
0.0
 14
5.0
 24
5.0
 15
10.0
 25
10.0
 16
0.0
 26
0.0
 36
1.0
 17
0.0
 27
0.0
 37
0.0
 40
356.9701552237488
 41
1.7807262569832401
 42
50.0
 43
0.0
 44
0.0
 50
0.0
 51
0.0
 71
     0
 72
   500
 73
     1
 74
     0
 75
     0
 76
     0
 77
     0
 78
     2
  0
ENDTAB
  0
TABLE
  2
LTYPE
 70
     3
  0
LTYPE
  2
CONTINUOUS
 70
     0
  3
Solid Line
 72
    65
 73
     0
 40
0.0
  0
LTYPE
  2
CENTER
 70
     0
  3
____ _ ____ _ ____ _ ____ _ ____ _ ____ _ ____
 72
    65
 73
     4
 40
2.0
 49
1.25
 49
-0.25
 49
0.25
 49
-0.25
  0
LTYPE
  2
PHANTOM2
 70
     0
  3
___ _ _ ___ _ _ ___ _ _ ___ _ _
 72
    65
 73
     6
 40
1.25
 49
0.625
 49
-0.125
 49
0.125
 49
-0.125
 49
0.125
 49
-0.125
  0
ENDTAB
  0
TABLE
  2
LAYER
 70
     3
  0
LAYER
  2
0
 70
     0
 62
     7
  6
CONTINUOUS
  0
LAYER
  2
1
 70
     0
 62
     1
  6
CENTER
  0
LAYER
  2
3
 70
     0
 62
     3
  6
CONTINUOUS
  0
ENDTAB
  0
TABLE
  2
STYLE
 70
     2
  0
STYLE
  2
STANDARD
 70
     0
 40
0.0
 41
1.0
 50
0.0
 71
     0
 42
4.000000000000048
  3
SIMPLEX
  4
BIGFONT
  0
STYLE
  2
STANDARD1
 70
     0
 40
0.0
 41
1.0
 50
0.0
 71
     0
 42
3.0
  3
txt
  4

  0
ENDTAB
  0
TABLE
  2
VIEW
 70
     0
  0
ENDTAB
  0
TABLE
  2
UCS
 70
     0
  0
ENDTAB
  0
TABLE
  2
APPID
 70
     3
  0
APPID
  2
ACAD
 70
     0
  0
APPID
  2
ACAD_MLEADERVER
 70
     0
  0
APPID
  2
ACAD_NAV_VCDISPLAY
 70
     0
  0
ENDTAB
  0
TABLE
  2
DIMSTYLE
 70
     1
  0
DIMSTYLE
  2
STANDARD
 70
     0
  3

  4

  5

  6

  7

 40
1.0
 41
0.18
 42
0.0625
 43
0.38
 44
0.18
 45
0.0
 46
0.0
 47
0.0
 48
0.0
140
0.18
141
0.09
142
0.0
143
25.399999999999999
144
1.0
145
0.0
146
1.0
147
0.09
 71
     0
 72
     0
 73
     1
 74
     1
 75
     0
 76
     0
 77
     0
 78
     0
170
     0
171
     2
172
     0
173
     0
174
     0
175
     0
176
     0
177
     0
178
     0
  0
ENDTAB
  0
ENDSEC
  0
SECTION
  2
BLOCKS
  0
BLOCK
  8
0
  2
$MODEL_SPACE
 70
     0
 10
0.0
 20
0.0
 30
0.0
  3
$MODEL_SPACE
  1

  0
ENDBLK
  5
1F86
  8
0
  0
BLOCK
 67
     1
  8
0
  2
$PAPER_SPACE
 70
     0
 10
0.0
 20
0.0
 30
0.0
  3
$PAPER_SPACE
  1

  0
ENDBLK
  5
1F84
 67
     1
  8
0
  0
BLOCK
  8
0
  2
STDGX5
 70
     0
 10
0.0
 20
0.0
 30
0.0
  3
STDGX5
  1

  0
ENDBLK
  5
100F
  8
0
  0
ENDSEC
  0
SECTION
  2
ENTITIES
  0
INSERT
  5
1039
  8
0
  2
STDGX5
 10
0.0
 20
0.0
 30
0.0
 41
0.25
 42
0.25
 43
0.25
  0
INSERT
  5
103A
  8
0
  2
STDGX5
 10
0.0
 20
0.0
 30
0.0
 41
0.25
 42
0.25
 43
0.25
  0
INSERT
  5
103B
  8
0
  2
STDGX5
 10
68.75
 20
0.0
 30
0.0
 41
0.25
 42
0.25
 43
0.25
  0
INSERT
  5
103C
  8
0
  2
STDGX5
 10
68.75
 20
0.0
 30
0.0
 41
0.25
 42
0.25
 43
0.25
  0
INSERT
  5
103D
  8
0
  2
STDGX5
 10
0.0
 20
0.0
 30
0.0
 41
0.5
 42
0.5
 43
0.5
  0
INSERT
  5
103E
  8
0
  2
STDGX5
 10
0.0
 20
0.0
 30
0.0
 41
0.5
 42
0.5
 43
0.5
  0
INSERT
  5
103F
  8
0
  2
STDGX5
 10
137.5
 20
0.0
 30
0.0
 41
0.5
 42
0.5
 43
0.5
  0
INSERT
  5
1040
  8
0
  2
STDGX5
 10
137.5
 20
0.0
 30
0.0
 41
0.5
 42
0.5
 43
0.5
  0
INSERT
  5
1042
  8
0
  2
STDGX5
 10
-35.0
 20
-100.0
 30
0.0
 41
0.3333333333333333
 42
0.3333333333333333
 43
0.3333333333333333
  0
INSERT
  5
1043
  8
0
  2
STDGX5
 10
-35.0
 20
-100.0
 30
0.0
 41
0.3333333333333333
 42
0.3333333333333333
 43
0.3333333333333333
  0
INSERT
  5
1044
  8
0
  2
STDGX5
 10
56.666666666666643
 20
-100.0
 30
0.0
 41
0.3333333333333333
 42
0.3333333333333333
 43
0.3333333333333333
  0
INSERT
  5
1045
  8
0
  2
STDGX5
 10
56.666666666666643
 20
-100.0
 30
0.0
 41
0.3333333333333333
 42
0.3333333333333333
 43
0.3333333333333333
  0
INSERT
  5
1047
  8
0
  2
STDGX5
 10
-35.0
 20
-100.0
 30
0.0
 41
0.3333333333333333
 42
0.3333333333333333
 43
0.3333333333333333
  0
INSERT
  5
1048
  8
0
  2
STDGX5
 10
-35.0
 20
-100.0
 30
0.0
 41
0.3333333333333333
 42
0.3333333333333333
 43
0.3333333333333333
  0
INSERT
  5
1049
  8
0
  2
STDGX5
 10
56.666666666666657
 20
-100.0
 30
0.0
 41
0.3333333333333333
 42
0.3333333333333333
 43
0.3333333333333333
  0
INSERT
  5
104A
  8
0
  2
STDGX5
 10
56.666666666666657
 20
-100.0
 30
0.0
 41
0.3333333333333333
 42
0.3333333333333333
 43
0.3333333333333333
  0
INSERT
  5
104B
  8
0
  2
STDGX5
 10
0.0
 20
0.0
 30
0.0
  0
INSERT
  5
104C
  8
0
  2
STDGX5
 10
0.0
 20
0.0
 30
0.0
  0
INSERT
  5
104D
  8
0
  2
STDGX5
 10
275.0
 20
0.0
 30
0.0
  0
INSERT
  5
104E
  8
0
  2
STDGX5
 10
275.0
 20
0.0
 30
0.0
  0
INSERT
  5
1263
  8
0
  2
STDGX5
 10
0.0
 20
0.0
 30
0.0
 41
0.25
 42
0.25
 43
0.25
  0
INSERT
  5
1264
  8
0
  2
STDGX5
 10
0.0
 20
0.0
 30
0.0
 41
0.25
 42
0.25
 43
0.25
  0
INSERT
  5
1265
  8
0
  2
STDGX5
 10
68.75
 20
0.0
 30
0.0
 41
0.25
 42
0.25
 43
0.25
  0
INSERT
  5
1266
  8
0
  2
STDGX5
 10
68.75
 20
0.0
 30
0.0
 41
0.25
 42
0.25
 43
0.25
  0
INSERT
  5
1267
  8
0
  2
STDGX5
 10
0.0
 20
0.0
 30
0.0
 41
0.5
 42
0.5
 43
0.5
  0
INSERT
  5
1268
  8
0
  2
STDGX5
 10
0.0
 20
0.0
 30
0.0
 41
0.5
 42
0.5
 43
0.5
  0
INSERT
  5
1269
  8
0
  2
STDGX5
 10
137.5
 20
0.0
 30
0.0
 41
0.5
 42
0.5
 43
0.5
  0
INSERT
  5
126A
  8
0
  2
STDGX5
 10
137.5
 20
0.0
 30
0.0
 41
0.5
 42
0.5
 43
0.5
  0
INSERT
  5
126C
  8
0
  2
STDGX5
 10
-35.0
 20
-100.0
 30
0.0
 41
0.3333333333333333
 42
0.3333333333333333
 43
0.3333333333333333
  0
INSERT
  5
126D
  8
0
  2
STDGX5
 10
-35.0
 20
-100.0
 30
0.0
 41
0.3333333333333333
 42
0.3333333333333333
 43
0.3333333333333333
  0
INSERT
  5
126E
  8
0
  2
STDGX5
 10
56.666666666666643
 20
-100.0
 30
0.0
 41
0.3333333333333333
 42
0.3333333333333333
 43
0.3333333333333333
  0
INSERT
  5
126F
  8
0
  2
STDGX5
 10
56.666666666666643
 20
-100.0
 30
0.0
 41
0.3333333333333333
 42
0.3333333333333333
 43
0.3333333333333333
  0
INSERT
  5
1271
  8
0
  2
STDGX5
 10
-35.0
 20
-100.0
 30
0.0
 41
0.3333333333333333
 42
0.3333333333333333
 43
0.3333333333333333
  0
INSERT
  5
1272
  8
0
  2
STDGX5
 10
-35.0
 20
-100.0
 30
0.0
 41
0.3333333333333333
 42
0.3333333333333333
 43
0.3333333333333333
  0
INSERT
  5
1273
  8
0
  2
STDGX5
 10
56.666666666666657
 20
-100.0
 30
0.0
 41
0.3333333333333333
 42
0.3333333333333333
 43
0.3333333333333333
  0
INSERT
  5
1274
  8
0
  2
STDGX5
 10
56.666666666666657
 20
-100.0
 30
0.0
 41
0.3333333333333333
 42
0.3333333333333333
 43
0.3333333333333333
  0
INSERT
  5
1275
  8
0
  2
STDGX5
 10
0.0
 20
0.0
 30
0.0
  0
INSERT
  5
1276
  8
0
  2
STDGX5
 10
0.0
 20
0.0
 30
0.0
  0
INSERT
  5
1277
  8
0
  2
STDGX5
 10
275.0
 20
0.0
 30
0.0
  0
INSERT
  5
1278
  8
0
  2
STDGX5
 10
275.0
 20
0.0
 30
0.0
  0
INSERT
  5
1487
  8
0
  2
STDGX5
 10
0.0
 20
0.0
 30
0.0
 41
0.25
 42
0.25
 43
0.25
  0
INSERT
  5
1488
  8
0
  2
STDGX5
 10
0.0
 20
0.0
 30
0.0
 41
0.25
 42
0.25
 43
0.25
  0
INSERT
  5
1489
  8
0
  2
STDGX5
 10
68.75
 20
0.0
 30
0.0
 41
0.25
 42
0.25
 43
0.25
  0
INSERT
  5
148A
  8
0
  2
STDGX5
 10
68.75
 20
0.0
 30
0.0
 41
0.25
 42
0.25
 43
0.25
  0
INSERT
  5
148B
  8
0
  2
STDGX5
 10
0.0
 20
0.0
 30
0.0
 41
0.5
 42
0.5
 43
0.5
  0
INSERT
  5
148C
  8
0
  2
STDGX5
 10
0.0
 20
0.0
 30
0.0
 41
0.5
 42
0.5
 43
0.5
  0
INSERT
  5
148D
  8
0
  2
STDGX5
 10
137.5
 20
0.0
 30
0.0
 41
0.5
 42
0.5
 43
0.5
  0
INSERT
  5
148E
  8
0
  2
STDGX5
 10
137.5
 20
0.0
 30
0.0
 41
0.5
 42
0.5
 43
0.5
  0
INSERT
  5
1490
  8
0
  2
STDGX5
 10
-35.0
 20
-100.0
 30
0.0
 41
0.3333333333333333
 42
0.3333333333333333
 43
0.3333333333333333
  0
INSERT
  5
1491
  8
0
  2
STDGX5
 10
-35.0
 20
-100.0
 30
0.0
 41
0.3333333333333333
 42
0.3333333333333333
 43
0.3333333333333333
  0
INSERT
  5
1492
  8
0
  2
STDGX5
 10
56.666666666666643
 20
-100.0
 30
0.0
 41
0.3333333333333333
 42
0.3333333333333333
 43
0.3333333333333333
  0
INSERT
  5
1493
  8
0
  2
STDGX5
 10
56.666666666666643
 20
-100.0
 30
0.0
 41
0.3333333333333333
 42
0.3333333333333333
 43
0.3333333333333333
  0
INSERT
  5
1495
  8
0
  2
STDGX5
 10
-35.0
 20
-100.0
 30
0.0
 41
0.3333333333333333
 42
0.3333333333333333
 43
0.3333333333333333
  0
INSERT
  5
1496
  8
0
  2
STDGX5
 10
-35.0
 20
-100.0
 30
0.0
 41
0.3333333333333333
 42
0.3333333333333333
 43
0.3333333333333333
  0
INSERT
  5
1497
  8
0
  2
STDGX5
 10
56.666666666666657
 20
-100.0
 30
0.0
 41
0.3333333333333333
 42
0.3333333333333333
 43
0.3333333333333333
  0
INSERT
  5
1498
  8
0
  2
STDGX5
 10
56.666666666666657
 20
-100.0
 30
0.0
 41
0.3333333333333333
 42
0.3333333333333333
 43
0.3333333333333333
  0
INSERT
  5
1499
  8
0
  2
STDGX5
 10
0.0
 20
0.0
 30
0.0
  0
INSERT
  5
149A
  8
0
  2
STDGX5
 10
0.0
 20
0.0
 30
0.0
  0
INSERT
  5
149B
  8
0
  2
STDGX5
 10
275.0
 20
0.0
 30
0.0
  0
INSERT
  5
149C
  8
0
  2
STDGX5
 10
275.0
 20
0.0
 30
0.0
  0
INSERT
  5
169F
  8
0
  2
STDGX5
 10
0.0
 20
0.0
 30
0.0
 41
0.25
 42
0.25
 43
0.25
  0
INSERT
  5
16A0
  8
0
  2
STDGX5
 10
0.0
 20
0.0
 30
0.0
 41
0.25
 42
0.25
 43
0.25
  0
INSERT
  5
16A1
  8
0
  2
STDGX5
 10
68.75
 20
0.0
 30
0.0
 41
0.25
 42
0.25
 43
0.25
  0
INSERT
  5
16A2
  8
0
  2
STDGX5
 10
68.75
 20
0.0
 30
0.0
 41
0.25
 42
0.25
 43
0.25
  0
INSERT
  5
16A3
  8
0
  2
STDGX5
 10
0.0
 20
0.0
 30
0.0
 41
0.5
 42
0.5
 43
0.5
  0
INSERT
  5
16A4
  8
0
  2
STDGX5
 10
0.0
 20
0.0
 30
0.0
 41
0.5
 42
0.5
 43
0.5
  0
INSERT
  5
16A5
  8
0
  2
STDGX5
 10
137.5
 20
0.0
 30
0.0
 41
0.5
 42
0.5
 43
0.5
  0
INSERT
  5
16A6
  8
0
  2
STDGX5
 10
137.5
 20
0.0
 30
0.0
 41
0.5
 42
0.5
 43
0.5
  0
INSERT
  5
16A8
  8
0
  2
STDGX5
 10
-35.0
 20
-100.0
 30
0.0
 41
0.3333333333333333
 42
0.3333333333333333
 43
0.3333333333333333
  0
INSERT
  5
16A9
  8
0
  2
STDGX5
 10
-35.0
 20
-100.0
 30
0.0
 41
0.3333333333333333
 42
0.3333333333333333
 43
0.3333333333333333
  0
INSERT
  5
16AA
  8
0
  2
STDGX5
 10
56.666666666666643
 20
-100.0
 30
0.0
 41
0.3333333333333333
 42
0.3333333333333333
 43
0.3333333333333333
  0
INSERT
  5
16AB
  8
0
  2
STDGX5
 10
56.666666666666643
 20
-100.0
 30
0.0
 41
0.3333333333333333
 42
0.3333333333333333
 43
0.3333333333333333
  0
INSERT
  5
16AD
  8
0
  2
STDGX5
 10
-35.0
 20
-100.0
 30
0.0
 41
0.3333333333333333
 42
0.3333333333333333
 43
0.3333333333333333
  0
INSERT
  5
16AE
  8
0
  2
STDGX5
 10
-35.0
 20
-100.0
 30
0.0
 41
0.3333333333333333
 42
0.3333333333333333
 43
0.3333333333333333
  0
INSERT
  5
16AF
  8
0
  2
STDGX5
 10
56.666666666666657
 20
-100.0
 30
0.0
 41
0.3333333333333333
 42
0.3333333333333333
 43
0.3333333333333333
  0
INSERT
  5
16B0
  8
0
  2
STDGX5
 10
56.666666666666657
 20
-100.0
 30
0.0
 41
0.3333333333333333
 42
0.3333333333333333
 43
0.3333333333333333
  0
INSERT
  5
16B1
  8
0
  2
STDGX5
 10
0.0
 20
0.0
 30
0.0
  0
INSERT
  5
16B2
  8
0
  2
STDGX5
 10
0.0
 20
0.0
 30
0.0
  0
INSERT
  5
16B3
  8
0
  2
STDGX5
 10
275.0
 20
0.0
 30
0.0
  0
INSERT
  5
16B4
  8
0
  2
STDGX5
 10
275.0
 20
0.0
 30
0.0
  0
INSERT
  5
18C9
  8
0
  2
STDGX5
 10
0.0
 20
0.0
 30
0.0
 41
0.25
 42
0.25
 43
0.25
  0
INSERT
  5
18CA
  8
0
  2
STDGX5
 10
0.0
 20
0.0
 30
0.0
 41
0.25
 42
0.25
 43
0.25
  0
INSERT
  5
18CB
  8
0
  2
STDGX5
 10
68.75
 20
0.0
 30
0.0
 41
0.25
 42
0.25
 43
0.25
  0
INSERT
  5
18CC
  8
0
  2
STDGX5
 10
68.75
 20
0.0
 30
0.0
 41
0.25
 42
0.25
 43
0.25
  0
INSERT
  5
18CD
  8
0
  2
STDGX5
 10
0.0
 20
0.0
 30
0.0
 41
0.5
 42
0.5
 43
0.5
  0
INSERT
  5
18CE
  8
0
  2
STDGX5
 10
0.0
 20
0.0
 30
0.0
 41
0.5
 42
0.5
 43
0.5
  0
INSERT
  5
18CF
  8
0
  2
STDGX5
 10
137.5
 20
0.0
 30
0.0
 41
0.5
 42
0.5
 43
0.5
  0
INSERT
  5
18D0
  8
0
  2
STDGX5
 10
137.5
 20
0.0
 30
0.0
 41
0.5
 42
0.5
 43
0.5
  0
INSERT
  5
18D2
  8
0
  2
STDGX5
 10
-35.0
 20
-100.0
 30
0.0
 41
0.3333333333333333
 42
0.3333333333333333
 43
0.3333333333333333
  0
INSERT
  5
18D3
  8
0
  2
STDGX5
 10
-35.0
 20
-100.0
 30
0.0
 41
0.3333333333333333
 42
0.3333333333333333
 43
0.3333333333333333
  0
INSERT
  5
18D4
  8
0
  2
STDGX5
 10
56.666666666666643
 20
-100.0
 30
0.0
 41
0.3333333333333333
 42
0.3333333333333333
 43
0.3333333333333333
  0
INSERT
  5
18D5
  8
0
  2
STDGX5
 10
56.666666666666643
 20
-100.0
 30
0.0
 41
0.3333333333333333
 42
0.3333333333333333
 43
0.3333333333333333
  0
INSERT
  5
18D7
  8
0
  2
STDGX5
 10
-35.0
 20
-100.0
 30
0.0
 41
0.3333333333333333
 42
0.3333333333333333
 43
0.3333333333333333
  0
INSERT
  5
18D8
  8
0
  2
STDGX5
 10
-35.0
 20
-100.0
 30
0.0
 41
0.3333333333333333
 42
0.3333333333333333
 43
0.3333333333333333
  0
INSERT
  5
18D9
  8
0
  2
STDGX5
 10
56.666666666666657
 20
-100.0
 30
0.0
 41
0.3333333333333333
 42
0.3333333333333333
 43
0.3333333333333333
  0
INSERT
  5
18DA
  8
0
  2
STDGX5
 10
56.666666666666657
 20
-100.0
 30
0.0
 41
0.3333333333333333
 42
0.3333333333333333
 43
0.3333333333333333
  0
INSERT
  5
18DB
  8
0
  2
STDGX5
 10
0.0
 20
0.0
 30
0.0
  0
INSERT
  5
18DC
  8
0
  2
STDGX5
 10
0.0
 20
0.0
 30
0.0
  0
INSERT
  5
18DD
  8
0
  2
STDGX5
 10
275.0
 20
0.0
 30
0.0
  0
INSERT
  5
18DE
  8
0
  2
STDGX5
 10
275.0
 20
0.0
 30
0.0
  0
INSERT
  5
1B65
  8
0
  2
STDGX5
 10
0.0
 20
0.0
 30
0.0
 41
0.25
 42
0.25
 43
0.25
  0
INSERT
  5
1B66
  8
0
  2
STDGX5
 10
0.0
 20
0.0
 30
0.0
 41
0.25
 42
0.25
 43
0.25
  0
INSERT
  5
1B67
  8
0
  2
STDGX5
 10
68.75
 20
0.0
 30
0.0
 41
0.25
 42
0.25
 43
0.25
  0
INSERT
  5
1B68
  8
0
  2
STDGX5
 10
68.75
 20
0.0
 30
0.0
 41
0.25
 42
0.25
 43
0.25
  0
INSERT
  5
1B69
  8
0
  2
STDGX5
 10
0.0
 20
0.0
 30
0.0
 41
0.5
 42
0.5
 43
0.5
  0
INSERT
  5
1B6A
  8
0
  2
STDGX5
 10
0.0
 20
0.0
 30
0.0
 41
0.5
 42
0.5
 43
0.5
  0
INSERT
  5
1B6B
  8
0
  2
STDGX5
 10
137.5
 20
0.0
 30
0.0
 41
0.5
 42
0.5
 43
0.5
  0
INSERT
  5
1B6C
  8
0
  2
STDGX5
 10
137.5
 20
0.0
 30
0.0
 41
0.5
 42
0.5
 43
0.5
  0
INSERT
  5
1B6E
  8
0
  2
STDGX5
 10
-35.0
 20
-100.0
 30
0.0
 41
0.3333333333333333
 42
0.3333333333333333
 43
0.3333333333333333
  0
INSERT
  5
1B6F
  8
0
  2
STDGX5
 10
-35.0
 20
-100.0
 30
0.0
 41
0.3333333333333333
 42
0.3333333333333333
 43
0.3333333333333333
  0
INSERT
  5
1B70
  8
0
  2
STDGX5
 10
56.666666666666643
 20
-100.0
 30
0.0
 41
0.3333333333333333
 42
0.3333333333333333
 43
0.3333333333333333
  0
INSERT
  5
1B71
  8
0
  2
STDGX5
 10
56.666666666666643
 20
-100.0
 30
0.0
 41
0.3333333333333333
 42
0.3333333333333333
 43
0.3333333333333333
  0
INSERT
  5
1B73
  8
0
  2
STDGX5
 10
-35.0
 20
-100.0
 30
0.0
 41
0.3333333333333333
 42
0.3333333333333333
 43
0.3333333333333333
  0
INSERT
  5
1B74
  8
0
  2
STDGX5
 10
-35.0
 20
-100.0
 30
0.0
 41
0.3333333333333333
 42
0.3333333333333333
 43
0.3333333333333333
  0
INSERT
  5
1B75
  8
0
  2
STDGX5
 10
56.666666666666657
 20
-100.0
 30
0.0
 41
0.3333333333333333
 42
0.3333333333333333
 43
0.3333333333333333
  0
INSERT
  5
1B76
  8
0
  2
STDGX5
 10
56.666666666666657
 20
-100.0
 30
0.0
 41
0.3333333333333333
 42
0.3333333333333333
 43
0.3333333333333333
  0
INSERT
  5
1B77
  8
0
  2
STDGX5
 10
0.0
 20
0.0
 30
0.0
  0
INSERT
  5
1B78
  8
0
  2
STDGX5
 10
0.0
 20
0.0
 30
0.0
  0
INSERT
  5
1B79
  8
0
  2
STDGX5
 10
275.0
 20
0.0
 30
0.0
  0
INSERT
  5
1B7A
  8
0
  2
STDGX5
 10
275.0
 20
0.0
 30
0.0
  0
LINE
  5
1E0C
  8
0
 10
182.6793936420784
 20
140.44216393343621
 30
0.0
 11
182.67939364207851
 21
127.44216393343631
 31
0.0
  0
LINE
  5
1E0D
  8
1
 10
143.67939364207831
 20
133.94216393343629
 30
0.0
 11
209.67939364207851
 21
133.94216393343629
 31
0.0
  0
LINE
  5
1E0E
  8
0
 10
150.47939364207861
 20
136.94216393343629
 30
0.0
 11
154.6793936420784
 21
136.94216393343629
 31
0.0
  0
LINE
  5
1E0F
  8
0
 10
154.6793936420784
 20
138.89216393344799
 30
0.0
 11
155.6793936420784
 21
139.9421639334839
 31
0.0
  0
LINE
  5
1E10
  8
0
 10
183.17939364207851
 20
140.94216393343629
 30
0.0
 11
191.1793936420784
 21
140.94216393343629
 31
0.0
  0
LINE
  5
1E11
  8
0
 10
183.17939364207851
 20
126.94216393343631
 30
0.0
 11
191.1793936420784
 21
126.94216393343631
 31
0.0
  0
LINE
  5
1E12
  8
0
 10
154.6793936420784
 20
128.99216393342459
 30
0.0
 11
155.6793936420784
 21
127.9421639333887
 31
0.0
  0
LINE
  5
1E13
  8
0
 10
150.47939364207861
 20
130.94216393343629
 30
0.0
 11
154.6793936420784
 21
130.94216393343629
 31
0.0
  0
LINE
  5
1E14
  8
0
 10
154.6793936420784
 20
138.89216393344799
 30
0.0
 11
154.6793936420784
 21
128.99216393342459
 31
0.0
  0
LINE
  5
1E15
  8
0
 10
155.6793936420784
 20
139.9421639334839
 30
0.0
 11
155.6793936420784
 21
127.9421639333887
 31
0.0
  0
LINE
  5
1E16
  8
3
 10
154.90606030872121
 20
139.13016393343091
 30
0.0
 11
160.4471696509892
 21
139.13016393343091
 31
0.0
  0
LINE
  5
1E17
  8
0
 10
155.67939364207871
 20
139.9421639334843
 30
0.0
 11
160.4471696509892
 21
139.9421639334756
 31
0.0
  0
LINE
  5
1E18
  8
3
 10
154.90606030872121
 20
128.7541639334417
 30
0.0
 11
160.4471696509892
 21
128.7541639334417
 31
0.0
  0
LINE
  5
1E19
  8
0
 10
155.6793936420784
 20
127.9421639333887
 30
0.0
 11
160.4471696509892
 21
127.9421639333973
 31
0.0
  0
LINE
  5
1E1A
  8
0
 10
204.67939364207879
 20
144.94216393343649
 30
0.0
 11
204.67939364207879
 21
138.54216393343091
 31
0.0
  0
LINE
  5
1E1B
  8
0
 10
200.17939364207879
 20
145.44216393343629
 30
0.0
 11
200.17939364207891
 21
122.44216393343631
 31
0.0
  0
LINE
  5
1E1C
  8
0
 10
191.1793936420784
 20
140.94216393343629
 30
0.0
 11
191.1793936420784
 21
126.94216393343631
 31
0.0
  0
LINE
  5
1E1D
  8
0
 10
198.67939364207851
 20
146.44216393343629
 30
0.0
 11
198.67939364207851
 21
121.44216393343631
 31
0.0
  0
LINE
  5
1E1E
  8
0
 10
204.17939364207879
 20
122.44216393343611
 30
0.0
 11
200.17939364207879
 21
122.44216393343621
 31
0.0
  0
LINE
  5
1E1F
  8
0
 10
204.17939364207879
 20
145.44216393343649
 30
0.0
 11
200.17939364207879
 21
145.44216393343649
 31
0.0
  0
LINE
  5
1E20
  8
0
 10
183.17939364207851
 20
140.94216393343629
 30
0.0
 11
183.17939364207851
 21
126.94216393343631
 31
0.0
  0
LINE
  5
1E21
  8
0
 10
183.17939364207851
 20
126.94216393343631
 30
0.0
 11
182.67939364207851
 21
127.44216393343631
 31
0.0
  0
LINE
  5
1E22
  8
0
 10
183.17939364207851
 20
140.94216393343629
 30
0.0
 11
182.67939364207851
 21
140.44216393343621
 31
0.0
  0
ARC
  5
1E23
  8
0
 10
204.17939364207879
 20
144.94216393343649
 30
0.0
 40
0.5
 50
0.0
 51
90.000000000000298
  0
ARC
  5
1E24
  8
0
 10
204.17939364207879
 20
122.94216393343611
 30
0.0
 40
0.5
 50
269.99999999999972
 51
0.0
  0
ARC
  5
1E25
  8
0
 10
198.67939364207851
 20
123.067163933437
 30
0.0
 40
1.6250000000006251
 50
269.99999999985567
 51
337.38013505208647
  0
ARC
  5
1E26
  8
0
 10
198.67939364207851
 20
144.81716393343569
 30
0.0
 40
1.6250000000006251
 50
22.619864947913459
 51
90.000000000144311
  0
ARC
  5
1E27
  8
0
 10
204.6793936420728
 20
133.94216393343649
 30
0.0
 40
0.5999999999997954
 50
89.999999999424574
 51
270.00000000057543
  0
ARC
  5
1E28
  8
0
 10
204.6793936420728
 20
129.94216393343979
 30
0.0
 40
0.5999999999997954
 50
89.999999999424574
 51
270.00000000057543
  0
ARC
  5
1E29
  8
0
 10
204.67939364207879
 20
137.9421639334364
 30
0.0
 40
0.5999999999997954
 50
89.999999999424574
 51
270.00000000057543
  0
LINE
  5
1E2A
  8
0
 10
204.67939364207879
 20
137.34216393344201
 30
0.0
 11
204.67939364207891
 21
134.54216393344001
 31
0.0
  0
LINE
  5
1E2B
  8
0
 10
204.67939364207891
 20
133.34216393343289
 30
0.0
 11
204.67939364207879
 21
130.5421639334312
 31
0.0
  0
LINE
  5
1E2C
  8
0
 10
204.67939364207879
 20
129.34216393344829
 30
0.0
 11
204.67939364207879
 21
122.94216393343611
 31
0.0
  0
CIRCLE
  5
1E2D
  8
0
 10
262.2414145388725
 20
133.94216393343629
 30
0.0
 40
12.499999999999631
  0
LINE
  5
1E2E
  8
1
 10
262.2414145388725
 20
116.4421639334367
 30
0.0
 11
262.2414145388725
 21
151.44216393343589
 31
0.0
  0
LINE
  5
1E2F
  8
1
 10
279.74141453887211
 20
133.94216393343629
 30
0.0
 11
244.7414145388729
 21
133.94216393343629
 31
0.0
  0
CIRCLE
  5
1E30
  8
0
 10
262.2414145388725
 20
133.94216393343629
 30
0.0
 40
11.500000000000229
  0
LINE
  5
1E31
  8
0
 10
251.70149044047429
 20
138.54216393343691
 30
0.0
 11
272.78133863727078
 21
138.54216393343691
 31
0.0
  0
LINE
  5
1E32
  8
0
 10
251.2555144847116
 20
137.34216393343601
 30
0.0
 11
273.2273145930331
 21
137.34216393343601
 31
0.0
  0
LINE
  5
1E33
  8
0
 10
250.75707737907041
 20
134.54216393343401
 30
0.0
 11
273.7257516986744
 21
134.54216393343401
 31
0.0
  0
LINE
  5
1E34
  8
0
 10
250.75707737907041
 20
133.34216393343911
 30
0.0
 11
273.72575169867451
 21
133.342163933439
 31
0.0
  0
LINE
  5
1E35
  8
0
 10
251.25551448471171
 20
130.54216393343719
 30
0.0
 11
273.22731459303321
 21
130.54216393343719
 31
0.0
  0
LINE
  5
1E36
  8
0
 10
251.70149044047119
 20
129.34216393344229
 30
0.0
 11
272.78133863727379
 21
129.34216393344229
 31
0.0
  0
LINE
  5
1E37
  8
0
 10
181.67939364207851
 20
127.94216393343559
 30
0.0
 11
182.67939364207851
 21
128.9421639334374
 31
0.0
  0
LINE
  5
1E38
  8
0
 10
181.67939364207851
 20
139.942163933437
 30
0.0
 11
182.6793936420784
 21
138.94216393343521
 31
0.0
  0
LINE
  5
1E39
  8
0
 10
179.17939364207851
 20
134.74216393343619
 30
0.0
 11
179.17939364207851
 21
133.14216393343619
 31
0.0
  0
LINE
  5
1E3A
  8
0
 10
179.17939364207851
 20
134.7421639334363
 30
0.0
 11
182.67939364207851
 21
134.7421639334363
 31
0.0
  0
LINE
  5
1E3B
  8
0
 10
179.17939364207851
 20
133.14216393343619
 30
0.0
 11
182.67939364207851
 21
133.14216393343619
 31
0.0
  0
LINE
  5
1E3C
  8
0
 10
181.67939364207851
 20
127.94216393343559
 30
0.0
 11
181.67939364207851
 21
133.14216393343619
 31
0.0
  0
LINE
  5
1E3D
  8
0
 10
181.67939364207851
 20
134.7421639334363
 30
0.0
 11
181.67939364207851
 21
139.942163933437
 31
0.0
  0
LINE
  5
1E3E
  8
0
 10
150.47939364207861
 20
130.94216393343629
 30
0.0
 11
150.47939364207861
 21
136.94216393343629
 31
0.0
  0
LINE
  5
1E3F
  8
0
 10
150.47939364207861
 20
130.94216393343629
 30
0.0
 11
149.09831903688089
 21
131.73952772851811
 31
0.0
  0
LINE
  5
1E40
  8
0
 10
150.47939364207861
 20
136.94216393343629
 30
0.0
 11
149.09831903688129
 21
136.1448001383547
 31
0.0
  0
ARC
  5
1E41
  8
0
 10
154.67939364207859
 20
133.94216393343629
 30
0.0
 40
6.0
 50
158.46275075361859
 51
201.53724924637871
  0
LINE
  5
1E42
  8
0
 10
149.0983190368803
 20
131.73952772851851
 30
0.0
 11
149.0983190368803
 21
136.1448001383541
 31
0.0
  0
CIRCLE
  5
1E43
  8
0
 10
89.945824777606347
 20
133.94216393343629
 30
0.0
 40
12.499999999999631
  0
LINE
  5
1E44
  8
1
 10
107.44582477760601
 20
133.94216393343629
 30
0.0
 11
72.445824777606731
 21
133.94216393343629
 31
0.0
  0
LINE
  5
1E45
  8
1
 10
89.945824777606347
 20
151.44216393343589
 30
0.0
 11
89.945824777606347
 21
116.4421639334366
 31
0.0
  0
CIRCLE
  5
1E46
  8
0
 10
89.945824777606347
 20
133.94216393343629
 30
0.0
 40
6.0
  0
CIRCLE
  5
1E47
  8
3
 10
89.945824777606347
 20
133.94216393343629
 30
0.0
 40
5.052999999999999
  0
CIRCLE
  5
1E48
  8
0
 10
89.945824777606347
 20
133.94216393343629
 30
0.0
 40
3.0
  0
CIRCLE
  5
1E49
  8
0
 10
89.945824777606347
 20
133.94216393343629
 30
0.0
 40
2.2026362049170838
  0
LINE
  5
1E4A
  8
0
 10
161.58435056161511
 20
139.42699149073351
 30
0.0
 11
165.30998874036371
 21
139.42699149073761
 31
0.0
  0
LINE
  5
1E4B
  8
0
 10
161.58435056161511
 20
144.91181904803929
 30
0.0
 11
165.30998874036351
 21
144.91181904803929
 31
0.0
  0
LINE
  5
1E4C
  8
0
 10
161.58435056161511
 20
128.4573363761391
 30
0.0
 11
165.30998874036371
 21
128.457336376135
 31
0.0
  0
LINE
  5
1E4D
  8
0
 10
161.58435056161511
 20
122.9725088188333
 30
0.0
 11
165.30998874036351
 21
122.9725088188333
 31
0.0
  0
LINE
  5
1E4E
  8
0
 10
165.30998874036339
 20
122.9725088188333
 30
0.0
 11
166.4471696509892
 21
124.9421639334349
 31
0.0
  0
ARC
  5
1E4F
  8
0
 10
161.30243129438591
 20
125.71492259748391
 30
0.0
 40
4.8560632220084576
 50
334.38424746808357
 51
34.384247468007182
  0
ARC
  5
1E50
  8
0
 10
148.00700029240889
 20
133.94216393343629
 30
0.0
 40
18.15149422398537
 50
342.41204622602379
 51
17.58795377397621
  0
ARC
  5
1E51
  8
0
 10
161.30243129438591
 20
142.1694052693887
 30
0.0
 40
4.8560632220084576
 50
325.61575253199288
 51
25.615752531916399
  0
LINE
  5
1E52
  8
0
 10
165.30998874036339
 20
144.91181904803929
 30
0.0
 11
166.4471696509892
 21
142.9421639334376
 31
0.0
  0
LINE
  5
1E53
  8
0
 10
166.4471696509892
 20
124.9421639334349
 30
0.0
 11
166.4471696509892
 21
142.9421639334376
 31
0.0
  0
LINE
  5
1E54
  8
0
 10
160.4471696509892
 20
124.9421639334349
 30
0.0
 11
160.4471696509892
 21
142.9421639334376
 31
0.0
  0
LINE
  5
1E55
  8
0
 10
161.58435056161511
 20
144.91181904803929
 30
0.0
 11
160.4471696509892
 21
142.9421639334376
 31
0.0
  0
ARC
  5
1E56
  8
0
 10
165.59190800759251
 20
142.1694052693887
 30
0.0
 40
4.8560632220084576
 50
154.3842474680836
 51
214.3842474680072
  0
ARC
  5
1E57
  8
0
 10
178.8873390095695
 20
133.94216393343629
 30
0.0
 40
18.15149422398537
 50
162.41204622602379
 51
197.58795377397621
  0
ARC
  5
1E58
  8
0
 10
165.59190800759251
 20
125.71492259748391
 30
0.0
 40
4.8560632220084576
 50
145.6157525319928
 51
205.6157525319164
  0
LINE
  5
1E59
  8
0
 10
161.58435056161511
 20
122.9725088188333
 30
0.0
 11
160.4471696509892
 21
124.9421639334349
 31
0.0
  0
LINE
  5
1E5A
  8
3
 10
166.4471696509892
 20
139.13016393343091
 30
0.0
 11
182.54198427798451
 21
139.13016393343091
 31
0.0
  0
LINE
  5
1E5B
  8
0
 10
166.4471696509892
 20
139.94216393346471
 30
0.0
 11
181.67939364207851
 21
139.942163933437
 31
0.0
  0
LINE
  5
1E5C
  8
0
 10
166.4471696509892
 20
127.9421639334081
 30
0.0
 11
181.67939364207851
 21
127.94216393343559
 31
0.0
  0
LINE
  5
1E5D
  8
3
 10
166.4471696509892
 20
128.7541639334417
 30
0.0
 11
182.54198427798451
 21
128.7541639334417
 31
0.0
  0
LINE
  5
1E5E
  8
0
 10
80.445824777606362
 20
139.42699149073769
 30
0.0
 11
80.445824777606362
 21
128.457336376135
 31
0.0
  0
CIRCLE
  5
1E5F
  8
0
 10
89.945824777606347
 20
133.94216393343629
 30
0.0
 40
9.0
  0
LINE
  5
1E60
  8
0
 10
80.445824777606362
 20
128.457336376135
 30
0.0
 11
89.945824777606347
 21
122.9725088188335
 31
0.0
  0
LINE
  5
1E61
  8
0
 10
89.945824777606347
 20
122.9725088188335
 30
0.0
 11
99.445824777606362
 21
128.4573363761348
 31
0.0
  0
LINE
  5
1E62
  8
0
 10
99.445824777606362
 20
128.4573363761348
 30
0.0
 11
99.445824777606362
 21
139.42699149073761
 31
0.0
  0
LINE
  5
1E63
  8
0
 10
99.445824777606362
 20
139.42699149073761
 30
0.0
 11
89.945824777606347
 21
144.91181904803921
 31
0.0
  0
LINE
  5
1E64
  8
0
 10
89.945824777606347
 20
144.91181904803921
 30
0.0
 11
80.445824777606362
 21
139.42699149073769
 31
0.0
  0
POLYLINE
  5
1E65
  8
0
 66
     1
 10
0.0
 20
0.0
 30
0.0
  0
VERTEX
  5
1E66
  8
0
 10
204.07939364207269
 20
183.4797203218109
 30
0.0
  0
VERTEX
  5
1E67
  8
0
 10
204.0869957847477
 20
183.51705601345421
 30
0.0
  0
VERTEX
  5
1E68
  8
0
 10
204.1121491413337
 20
183.55682005915841
 30
0.0
  0
VERTEX
  5
1E69
  8
0
 10
204.16641611074209
 20
183.60337871612691
 30
0.0
 42
-0.048443127698431
  0
VERTEX
  5
1E6A
  8
0
 10
204.25512957336241
 20
183.649213182908
 30
0.0
 42
-0.0270168651307056
 70
     2
 50
21.776634895216869
  0
VERTEX
  5
1E6B
  8
0
 10
204.34449822198289
 20
183.67943061385631
 30
0.0
  0
VERTEX
  5
1E6C
  8
0
 10
204.43473310080199
 20
183.69931320494001
 30
0.0
 42
-0.0199340369257074
  0
VERTEX
  5
1E6D
  8
0
 10
204.55837590654789
 20
183.71445516937121
 30
0.0
 42
-0.0205018244111976
  0
VERTEX
  5
1E6E
  8
0
 10
204.67939364207851
 20
183.71941942469991
 30
0.0
 42
-0.0205018244113817
  0
SEQEND
  5
1E6F
  8
0
  0
POLYLINE
  5
1E70
  8
0
 66
     1
 10
0.0
 20
0.0
 30
0.0
  0
VERTEX
  5
1E71
  8
0
 10
204.67939364207851
 20
183.27344346893781
 30
0.0
  0
VERTEX
  5
1E72
  8
0
 10
204.5588750695436
 20
183.2777071865288
 30
0.0
 42
-0.0169526581580364
  0
VERTEX
  5
1E73
  8
0
 10
204.43377316350859
 20
183.2908444177196
 30
0.0
  0
VERTEX
  5
1E74
  8
0
 10
204.34477261302169
 20
183.30772232732721
 30
0.0
 42
-0.023714783381983
  0
VERTEX
  5
1E75
  8
0
 10
204.25512957336241
 20
183.33386056034249
 30
0.0
 42
-0.0452343338686246
 70
     2
 50
161.02729894572721
  0
VERTEX
  5
1E76
  8
0
 10
204.1617849301268
 20
183.37571860481191
 30
0.0
  0
VERTEX
  5
1E77
  8
0
 10
204.1094450220096
 20
183.4157238961111
 30
0.0
  0
VERTEX
  5
1E78
  8
0
 10
204.08623518684271
 20
183.4490548980358
 30
0.0
  0
VERTEX
  5
1E79
  8
0
 10
204.07939364207269
 20
183.4797203218109
 30
0.0
  0
SEQEND
  5
1E7A
  8
0
  0
POLYLINE
  5
1E7B
  8
0
 66
     1
 10
0.0
 20
0.0
 30
0.0
  0
VERTEX
  5
1E7C
  8
0
 10
204.67939364207851
 20
205.2452435772579
 30
0.0
  0
VERTEX
  5
1E7D
  8
0
 10
204.5588750695436
 20
205.24097985966699
 30
0.0
 42
0.0169526581580364
  0
VERTEX
  5
1E7E
  8
0
 10
204.43377316350859
 20
205.22784262847611
 30
0.0
  0
VERTEX
  5
1E7F
  8
0
 10
204.34477261302169
 20
205.2109647188685
 30
0.0
 42
0.023714783381983
  0
VERTEX
  5
1E80
  8
0
 10
204.25512957336241
 20
205.18482648585319
 30
0.0
 42
0.0452343338686246
 70
     2
 50
198.97270105427279
  0
VERTEX
  5
1E81
  8
0
 10
204.1617849301268
 20
205.1429684413838
 30
0.0
 50
198.9727010542727
  0
VERTEX
  5
1E82
  8
0
 10
204.1094450220096
 20
205.10296315008461
 30
0.0
 50
198.9727010542727
  0
VERTEX
  5
1E83
  8
0
 10
204.08623518684271
 20
205.06963214815991
 30
0.0
 50
198.9727010542727
  0
VERTEX
  5
1E84
  8
0
 10
204.07939364207269
 20
205.03896672438481
 30
0.0
  0
SEQEND
  5
1E85
  8
0
  0
POLYLINE
  5
1E86
  8
0
 66
     1
 10
0.0
 20
0.0
 30
0.0
  0
VERTEX
  5
1E87
  8
0
 10
204.07939364207269
 20
205.03896672438481
 30
0.0
  0
VERTEX
  5
1E88
  8
0
 10
204.0869957847477
 20
205.00163103274161
 30
0.0
  0
VERTEX
  5
1E89
  8
0
 10
204.1121491413337
 20
204.9618669870373
 30
0.0
  0
VERTEX
  5
1E8A
  8
0
 10
204.16641611074209
 20
204.9153083300688
 30
0.0
 42
0.048443127698431
  0
VERTEX
  5
1E8B
  8
0
 10
204.25512957336241
 20
204.86947386328771
 30
0.0
 42
0.0270168651307056
 70
     2
 50
338.22336510478311
  0
VERTEX
  5
1E8C
  8
0
 10
204.34449822198289
 20
204.8392564323394
 30
0.0
 50
338.22336510478311
  0
VERTEX
  5
1E8D
  8
0
 10
204.43473310080199
 20
204.8193738412557
 30
0.0
 42
0.0199340369257074
 50
338.22336510478311
  0
VERTEX
  5
1E8E
  8
0
 10
204.55837590654789
 20
204.8042318768245
 30
0.0
 42
0.0205018244111976
 50
338.22336510478311
  0
VERTEX
  5
1E8F
  8
0
 10
204.67939364207851
 20
204.7992676214958
 30
0.0
 42
0.0205018244113817
  0
SEQEND
  5
1E90
  8
0
  0
LINE
  5
1E91
  8
0
 10
182.6793936420784
 20
200.75934352309781
 30
0.0
 11
182.67939364207851
 21
187.7593435230979
 31
0.0
  0
LINE
  5
1E92
  8
1
 10
143.67939364207831
 20
194.2593435230979
 30
0.0
 11
209.67939364207851
 21
194.2593435230979
 31
0.0
  0
LINE
  5
1E93
  8
0
 10
150.47939364207861
 20
197.2593435230979
 30
0.0
 11
154.6793936420784
 21
197.2593435230979
 31
0.0
  0
LINE
  5
1E94
  8
0
 10
154.6793936420784
 20
199.2093435231096
 30
0.0
 11
155.6793936420784
 21
200.25934352314559
 31
0.0
  0
LINE
  5
1E95
  8
0
 10
183.17939364207851
 20
201.2593435230979
 30
0.0
 11
191.1793936420784
 21
201.2593435230979
 31
0.0
  0
LINE
  5
1E96
  8
0
 10
183.17939364207851
 20
187.2593435230979
 30
0.0
 11
191.1793936420784
 21
187.2593435230979
 31
0.0
  0
LINE
  5
1E97
  8
0
 10
154.6793936420784
 20
189.30934352308631
 30
0.0
 11
155.6793936420784
 21
188.25934352305029
 31
0.0
  0
LINE
  5
1E98
  8
0
 10
150.47939364207861
 20
191.2593435230979
 30
0.0
 11
154.6793936420784
 21
191.2593435230979
 31
0.0
  0
LINE
  5
1E99
  8
0
 10
154.6793936420784
 20
199.2093435231096
 30
0.0
 11
154.6793936420784
 21
189.30934352308631
 31
0.0
  0
LINE
  5
1E9A
  8
0
 10
155.6793936420784
 20
200.25934352314559
 30
0.0
 11
155.6793936420784
 21
188.25934352305029
 31
0.0
  0
LINE
  5
1E9B
  8
3
 10
154.90606030872121
 20
199.4473435230926
 30
0.0
 11
160.4471696509892
 21
199.4473435230926
 31
0.0
  0
LINE
  5
1E9C
  8
0
 10
155.67939364207871
 20
200.2593435231459
 30
0.0
 11
160.4471696509892
 21
200.25934352313729
 31
0.0
  0
LINE
  5
1E9D
  8
3
 10
154.90606030872121
 20
189.07134352310339
 30
0.0
 11
160.4471696509892
 21
189.07134352310339
 31
0.0
  0
LINE
  5
1E9E
  8
0
 10
155.6793936420784
 20
188.25934352305029
 30
0.0
 11
160.4471696509892
 21
188.2593435230589
 31
0.0
  0
LINE
  5
1E9F
  8
0
 10
200.17939364207851
 20
205.7593435230979
 30
0.0
 11
200.17939364207859
 21
182.7593435230979
 31
0.0
  0
LINE
  5
1EA0
  8
0
 10
191.1793936420784
 20
201.2593435230979
 30
0.0
 11
191.1793936420784
 21
187.2593435230979
 31
0.0
  0
LINE
  5
1EA1
  8
0
 10
198.6793936420782
 20
206.7593435230979
 30
0.0
 11
198.6793936420782
 21
181.7593435230979
 31
0.0
  0
LINE
  5
1EA2
  8
0
 10
204.17939364207851
 20
182.7593435230977
 30
0.0
 11
200.17939364207851
 21
182.75934352309781
 31
0.0
  0
LINE
  5
1EA3
  8
0
 10
204.17939364207851
 20
205.7593435230981
 30
0.0
 11
200.17939364207851
 21
205.7593435230981
 31
0.0
  0
LINE
  5
1EA4
  8
0
 10
183.17939364207851
 20
201.2593435230979
 30
0.0
 11
183.17939364207851
 21
187.2593435230979
 31
0.0
  0
LINE
  5
1EA5
  8
0
 10
183.17939364207851
 20
187.2593435230979
 30
0.0
 11
182.67939364207851
 21
187.7593435230979
 31
0.0
  0
LINE
  5
1EA6
  8
0
 10
183.17939364207851
 20
201.2593435230979
 30
0.0
 11
182.67939364207851
 21
200.7593435230979
 31
0.0
  0
ARC
  5
1EA7
  8
0
 10
204.17939364207851
 20
205.2593435230981
 30
0.0
 40
0.5
 50
0.0
 51
90.000000000000298
  0
ARC
  5
1EA8
  8
0
 10
204.17939364207851
 20
183.2593435230977
 30
0.0
 40
0.5
 50
269.99999999999972
 51
0.0
  0
ARC
  5
1EA9
  8
0
 10
198.6793936420782
 20
183.38434352309861
 30
0.0
 40
1.6250000000006251
 50
269.99999999985567
 51
337.38013505208647
  0
ARC
  5
1EAA
  8
0
 10
198.6793936420782
 20
205.1343435230973
 30
0.0
 40
1.6250000000006251
 50
22.619864947913459
 51
90.000000000144311
  0
LINE
  5
1EAB
  8
0
 10
181.67939364207851
 20
188.25934352309719
 30
0.0
 11
182.67939364207851
 21
189.25934352309901
 31
0.0
  0
LINE
  5
1EAC
  8
0
 10
181.67939364207851
 20
200.25934352309861
 30
0.0
 11
182.6793936420784
 21
199.25934352309679
 31
0.0
  0
LINE
  5
1EAD
  8
0
 10
181.67939364207851
 20
188.25934352309719
 30
0.0
 11
181.67939364207859
 21
200.25934352309861
 31
0.0
  0
LINE
  5
1EAE
  8
0
 10
150.47939364207861
 20
191.2593435230979
 30
0.0
 11
150.47939364207861
 21
197.2593435230979
 31
0.0
  0
LINE
  5
1EAF
  8
0
 10
150.47939364207861
 20
191.2593435230979
 30
0.0
 11
149.09831903688101
 21
192.05670731817969
 31
0.0
  0
LINE
  5
1EB0
  8
0
 10
150.47939364207861
 20
197.2593435230979
 30
0.0
 11
149.09831903688129
 21
196.4619797280163
 31
0.0
  0
ARC
  5
1EB1
  8
0
 10
154.67939364207859
 20
194.2593435230979
 30
0.0
 40
6.0
 50
158.46275075361859
 51
201.53724924637871
  0
LINE
  5
1EB2
  8
0
 10
149.0983190368803
 20
192.05670731818009
 30
0.0
 11
149.09831903688041
 21
196.46197972801579
 31
0.0
  0
LINE
  5
1EB3
  8
0
 10
204.67939364207851
 20
183.25934352309761
 30
0.0
 11
204.67939364207851
 21
183.2734434689377
 31
0.0
  0
LINE
  5
1EB4
  8
0
 10
204.67939364207851
 20
204.7992676214941
 30
0.0
 11
204.67939364207851
 21
183.71941942470039
 31
0.0
  0
LINE
  5
1EB5
  8
0
 10
204.67939364207851
 20
205.2593435230981
 30
0.0
 11
204.67939364207851
 21
205.24524357725801
 31
0.0
  0
LINE
  5
1EB6
  8
0
 10
204.67939364207851
 20
183.27344346893781
 30
0.0
 11
204.67939364207851
 21
183.2593435230977
 31
0.0
  0
LINE
  5
1EB7
  8
0
 10
160.73584478558411
 20
203.7593435230979
 30
0.0
 11
160.4471696509892
 21
203.2593435230979
 31
0.0
  0
ARC
  5
1EB8
  8
0
 10
174.4555286755772
 20
199.0093435230979
 30
0.0
 40
13.719683889993171
 50
159.743841999604
 51
200.2561580003962
  0
LINE
  5
1EB9
  8
0
 10
166.4471696509892
 20
203.2593435230979
 30
0.0
 11
166.0866977466691
 21
203.7593435230979
 31
0.0
  0
LINE
  5
1EBA
  8
0
 10
166.0866977466691
 20
203.7593435230979
 30
0.0
 11
160.73584478558411
 21
203.7593435230979
 31
0.0
  0
ARC
  5
1EBB
  8
0
 10
152.43881062640119
 20
199.0093435230979
 30
0.0
 40
13.719683889993171
 50
339.74384199960389
 51
20.256158000395988
  0
ARC
  5
1EBC
  8
0
 10
152.43881062640119
 20
189.5093435230979
 30
0.0
 40
13.719683889993171
 50
339.743841999604
 51
20.256158000396152
  0
LINE
  5
1EBD
  8
0
 10
166.0866977466691
 20
184.7593435230979
 30
0.0
 11
160.73584478558411
 21
184.7593435230979
 31
0.0
  0
LINE
  5
1EBE
  8
0
 10
166.4471696509892
 20
185.2593435230979
 30
0.0
 11
166.0866977466691
 21
184.7593435230979
 31
0.0
  0
ARC
  5
1EBF
  8
0
 10
174.4555286755772
 20
189.5093435230979
 30
0.0
 40
13.719683889993171
 50
159.7438419996038
 51
200.25615800039591
  0
LINE
  5
1EC0
  8
0
 10
160.73584478558411
 20
184.7593435230979
 30
0.0
 11
160.4471696509892
 21
185.2593435230979
 31
0.0
  0
LINE
  5
1EC1
  8
0
 10
160.4471696509892
 20
185.2593435230979
 30
0.0
 11
160.4471696509892
 21
203.2593435230979
 31
0.0
  0
LINE
  5
1EC2
  8
0
 10
166.4471696509892
 20
203.2593435230979
 30
0.0
 11
166.4471696509892
 21
185.2593435230979
 31
0.0
  0
LINE
  5
1EC3
  8
0
 10
161.58435056161511
 20
194.25934352309471
 30
0.0
 11
165.30998874036339
 21
194.2593435230979
 31
0.0
  0
LINE
  5
1EC4
  8
3
 10
166.4471696509892
 20
199.4473435230926
 30
0.0
 11
182.54198427798451
 21
199.4473435230926
 31
0.0
  0
LINE
  5
1EC5
  8
0
 10
166.44716965098931
 20
200.25934352312629
 30
0.0
 11
181.67939364207851
 21
200.25934352309861
 31
0.0
  0
LINE
  5
1EC6
  8
3
 10
166.4471696509892
 20
189.07134352310339
 30
0.0
 11
182.54198427798451
 21
189.07134352310331
 31
0.0
  0
LINE
  5
1EC7
  8
0
 10
166.4471696509892
 20
188.2593435230697
 30
0.0
 11
181.67939364207851
 21
188.25934352309719
 31
0.0
  0
LINE
  5
1EC8
  8
0
 10
166.4471696509892
 20
79.624984343802851
 30
0.0
 11
181.67939364207851
 21
79.624984343775367
 31
0.0
  0
LINE
  5
1EC9
  8
3
 10
166.4471696509892
 20
78.812984343769187
 30
0.0
 11
182.54198427798451
 21
78.812984343769244
 31
0.0
  0
LINE
  5
1ECA
  8
0
 10
166.44716965098931
 20
67.624984343746235
 30
0.0
 11
181.67939364207851
 21
67.624984343773946
 31
0.0
  0
LINE
  5
1ECB
  8
3
 10
166.4471696509892
 20
68.436984343779983
 30
0.0
 11
182.54198427798451
 21
68.436984343779983
 31
0.0
  0
LINE
  5
1ECC
  8
0
 10
161.58435056161511
 20
73.624984343777868
 30
0.0
 11
165.30998874036339
 21
73.624984343774685
 31
0.0
  0
LINE
  5
1ECD
  8
0
 10
166.4471696509892
 20
64.624984343774685
 30
0.0
 11
166.4471696509892
 21
82.624984343774685
 31
0.0
  0
LINE
  5
1ECE
  8
0
 10
160.4471696509892
 20
82.624984343774685
 30
0.0
 11
160.4471696509892
 21
64.624984343774685
 31
0.0
  0
LINE
  5
1ECF
  8
0
 10
160.73584478558411
 20
83.124984343774685
 30
0.0
 11
160.4471696509892
 21
82.624984343774685
 31
0.0
  0
ARC
  5
1ED0
  8
0
 10
174.4555286755772
 20
78.374984343774685
 30
0.0
 40
13.719683889993171
 50
159.743841999604
 51
200.2561580003962
  0
LINE
  5
1ED1
  8
0
 10
166.4471696509892
 20
82.624984343774685
 30
0.0
 11
166.0866977466691
 21
83.124984343774685
 31
0.0
  0
LINE
  5
1ED2
  8
0
 10
166.0866977466691
 20
83.124984343774685
 30
0.0
 11
160.73584478558411
 21
83.124984343774685
 31
0.0
  0
ARC
  5
1ED3
  8
0
 10
152.43881062640119
 20
78.374984343774685
 30
0.0
 40
13.719683889993171
 50
339.74384199960389
 51
20.256158000395999
  0
ARC
  5
1ED4
  8
0
 10
152.43881062640119
 20
68.874984343774685
 30
0.0
 40
13.719683889993171
 50
339.743841999604
 51
20.256158000396159
  0
LINE
  5
1ED5
  8
0
 10
166.0866977466691
 20
64.124984343774685
 30
0.0
 11
160.73584478558411
 21
64.124984343774685
 31
0.0
  0
LINE
  5
1ED6
  8
0
 10
166.4471696509892
 20
64.624984343774685
 30
0.0
 11
166.0866977466691
 21
64.124984343774685
 31
0.0
  0
ARC
  5
1ED7
  8
0
 10
174.4555286755772
 20
68.874984343774685
 30
0.0
 40
13.719683889993171
 50
159.7438419996038
 51
200.25615800039591
  0
LINE
  5
1ED8
  8
0
 10
160.73584478558411
 20
64.124984343774685
 30
0.0
 11
160.4471696509892
 21
64.624984343774685
 31
0.0
  0
LINE
  5
1ED9
  8
0
 10
204.67939364207899
 20
84.610884397934754
 30
0.0
 11
204.67939364207899
 21
84.624984343774855
 31
0.0
  0
LINE
  5
1EDA
  8
0
 10
204.67939364207899
 20
62.624984343774429
 30
0.0
 11
204.67939364207899
 21
62.639084289614573
 31
0.0
  0
LINE
  5
1EDB
  8
0
 10
204.67939364207899
 20
63.08506024537845
 30
0.0
 11
204.67939364207899
 21
84.164908442172134
 31
0.0
  0
LINE
  5
1EDC
  8
0
 10
204.67939364207899
 20
84.62498434377494
 30
0.0
 11
204.67939364207899
 21
84.610884397934797
 31
0.0
  0
LINE
  5
1EDD
  8
0
 10
149.0983190368803
 20
75.827620548692465
 30
0.0
 11
149.09831903688041
 21
71.42234813885679
 31
0.0
  0
ARC
  5
1EDE
  8
0
 10
154.67939364207859
 20
73.624984343774656
 30
0.0
 40
6.0
 50
158.46275075362129
 51
201.53724924638141
  0
LINE
  5
1EDF
  8
0
 10
150.47939364207861
 20
70.624984343774628
 30
0.0
 11
149.09831903688129
 21
71.422348138856279
 31
0.0
  0
LINE
  5
1EE0
  8
0
 10
150.47939364207861
 20
76.624984343774685
 30
0.0
 11
149.09831903688101
 21
75.827620548692863
 31
0.0
  0
LINE
  5
1EE1
  8
0
 10
150.47939364207861
 20
76.624984343774685
 30
0.0
 11
150.47939364207861
 21
70.624984343774628
 31
0.0
  0
LINE
  5
1EE2
  8
0
 10
181.67939364207851
 20
79.624984343775367
 30
0.0
 11
181.67939364207859
 21
67.624984343773946
 31
0.0
  0
LINE
  5
1EE3
  8
0
 10
181.67939364207851
 20
67.624984343773946
 30
0.0
 11
182.6793936420784
 21
68.624984343775765
 31
0.0
  0
LINE
  5
1EE4
  8
0
 10
181.67939364207851
 20
79.624984343775367
 30
0.0
 11
182.67939364207851
 21
78.624984343773534
 31
0.0
  0
ARC
  5
1EE5
  8
0
 10
198.67939364207879
 20
62.74998434377526
 30
0.0
 40
1.6250000000006251
 50
269.99999999985567
 51
337.38013505208647
  0
ARC
  5
1EE6
  8
0
 10
198.67939364207879
 20
84.499984343773974
 30
0.0
 40
1.6250000000006251
 50
22.61986494791347
 51
90.000000000144325
  0
ARC
  5
1EE7
  8
0
 10
204.17939364207899
 20
84.624984343774855
 30
0.0
 40
0.5
 50
0.0
 51
90.000000000000298
  0
ARC
  5
1EE8
  8
0
 10
204.17939364207899
 20
62.624984343774429
 30
0.0
 40
0.5
 50
269.99999999999972
 51
0.0
  0
LINE
  5
1EE9
  8
0
 10
183.17939364207851
 20
66.624984343774628
 30
0.0
 11
182.67939364207851
 21
67.124984343774685
 31
0.0
  0
LINE
  5
1EEA
  8
0
 10
183.17939364207851
 20
80.624984343774656
 30
0.0
 11
182.67939364207851
 21
80.124984343774656
 31
0.0
  0
LINE
  5
1EEB
  8
0
 10
183.17939364207851
 20
66.624984343774628
 30
0.0
 11
183.17939364207851
 21
80.624984343774656
 31
0.0
  0
LINE
  5
1EEC
  8
0
 10
204.17939364207899
 20
62.124984343774429
 30
0.0
 11
200.17939364207899
 21
62.124984343774457
 31
0.0
  0
LINE
  5
1EED
  8
0
 10
204.17939364207899
 20
85.124984343774855
 30
0.0
 11
200.17939364207899
 21
85.124984343774756
 31
0.0
  0
LINE
  5
1EEE
  8
0
 10
198.67939364207879
 20
61.124984343774628
 30
0.0
 11
198.67939364207879
 21
86.124984343774656
 31
0.0
  0
LINE
  5
1EEF
  8
0
 10
191.1793936420784
 20
66.624984343774628
 30
0.0
 11
191.1793936420784
 21
80.624984343774656
 31
0.0
  0
LINE
  5
1EF0
  8
0
 10
200.17939364207899
 20
62.124984343774621
 30
0.0
 11
200.17939364207911
 21
85.124984343774614
 31
0.0
  0
LINE
  5
1EF1
  8
0
 10
155.6793936420784
 20
79.624984343822234
 30
0.0
 11
160.4471696509892
 21
79.624984343813622
 31
0.0
  0
LINE
  5
1EF2
  8
3
 10
154.90606030872121
 20
78.812984343769187
 30
0.0
 11
160.4471696509892
 21
78.812984343769145
 31
0.0
  0
LINE
  5
1EF3
  8
0
 10
155.67939364207871
 20
67.624984343726652
 30
0.0
 11
160.4471696509892
 21
67.624984343735321
 31
0.0
  0
LINE
  5
1EF4
  8
3
 10
154.90606030872121
 20
68.436984343779983
 30
0.0
 11
160.4471696509892
 21
68.436984343779983
 31
0.0
  0
LINE
  5
1EF5
  8
0
 10
155.6793936420784
 20
67.624984343726993
 30
0.0
 11
155.6793936420784
 21
79.624984343822234
 31
0.0
  0
LINE
  5
1EF6
  8
0
 10
154.6793936420784
 20
68.674984343762929
 30
0.0
 11
154.6793936420784
 21
78.574984343786298
 31
0.0
  0
LINE
  5
1EF7
  8
0
 10
150.47939364207861
 20
76.624984343774656
 30
0.0
 11
154.6793936420784
 21
76.624984343774656
 31
0.0
  0
LINE
  5
1EF8
  8
0
 10
154.6793936420784
 20
78.574984343786298
 30
0.0
 11
155.6793936420784
 21
79.624984343822234
 31
0.0
  0
LINE
  5
1EF9
  8
0
 10
183.17939364207851
 20
80.624984343774656
 30
0.0
 11
191.1793936420784
 21
80.624984343774656
 31
0.0
  0
LINE
  5
1EFA
  8
0
 10
183.17939364207851
 20
66.624984343774628
 30
0.0
 11
191.1793936420784
 21
66.624984343774614
 31
0.0
  0
LINE
  5
1EFB
  8
0
 10
154.6793936420784
 20
68.674984343762929
 30
0.0
 11
155.6793936420784
 21
67.624984343726993
 31
0.0
  0
LINE
  5
1EFC
  8
0
 10
150.47939364207861
 20
70.624984343774628
 30
0.0
 11
154.6793936420784
 21
70.624984343774628
 31
0.0
  0
LINE
  5
1EFD
  8
1
 10
143.67939364207831
 20
73.624984343774656
 30
0.0
 11
209.67939364207851
 21
73.624984343774699
 31
0.0
  0
LINE
  5
1EFE
  8
0
 10
182.6793936420784
 20
67.12498434377477
 30
0.0
 11
182.67939364207851
 21
80.124984343774685
 31
0.0
  0
POLYLINE
  5
1EFF
  8
0
 66
     1
 10
0.0
 20
0.0
 30
0.0
  0
VERTEX
  5
1F00
  8
0
 10
204.0793936420732
 20
62.845361142487747
 30
0.0
  0
VERTEX
  5
1F01
  8
0
 10
204.08699578474821
 20
62.882696834130989
 30
0.0
  0
VERTEX
  5
1F02
  8
0
 10
204.1121491413343
 20
62.922460879835228
 30
0.0
  0
VERTEX
  5
1F03
  8
0
 10
204.1664161107426
 20
62.969019536803749
 30
0.0
 42
-0.048443127698431
  0
VERTEX
  5
1F04
  8
0
 10
204.25512957336301
 20
63.014854003584873
 30
0.0
 42
-0.0270168651307056
 70
     2
 50
21.776634895216869
  0
VERTEX
  5
1F05
  8
0
 10
204.3444982219834
 20
63.045071434533128
 30
0.0
  0
VERTEX
  5
1F06
  8
0
 10
204.4347331008025
 20
63.064954025616863
 30
0.0
 42
-0.0199340369257074
  0
VERTEX
  5
1F07
  8
0
 10
204.55837590654841
 20
63.080095990048079
 30
0.0
 42
-0.0205018244111976
  0
VERTEX
  5
1F08
  8
0
 10
204.67939364207899
 20
63.085060245376717
 30
0.0
 42
-0.0205018244113817
  0
SEQEND
  5
1F09
  8
0
  0
POLYLINE
  5
1F0A
  8
0
 66
     1
 10
0.0
 20
0.0
 30
0.0
  0
VERTEX
  5
1F0B
  8
0
 10
204.67939364207899
 20
62.639084289614601
 30
0.0
  0
VERTEX
  5
1F0C
  8
0
 10
204.55887506954409
 20
62.643348007205589
 30
0.0
 42
-0.0169526581580364
  0
VERTEX
  5
1F0D
  8
0
 10
204.43377316350919
 20
62.656485238396407
 30
0.0
  0
VERTEX
  5
1F0E
  8
0
 10
204.3447726130222
 20
62.673363148004
 30
0.0
 42
-0.023714783381983
  0
VERTEX
  5
1F0F
  8
0
 10
204.25512957336301
 20
62.699501381019331
 30
0.0
 42
-0.0452343338686246
 70
     2
 50
161.02729894572721
  0
VERTEX
  5
1F10
  8
0
 10
204.1617849301274
 20
62.741359425488753
 30
0.0
  0
VERTEX
  5
1F11
  8
0
 10
204.10944502201019
 20
62.781364716787948
 30
0.0
  0
VERTEX
  5
1F12
  8
0
 10
204.0862351868432
 20
62.81469571871267
 30
0.0
  0
VERTEX
  5
1F13
  8
0
 10
204.0793936420732
 20
62.845361142487747
 30
0.0
  0
SEQEND
  5
1F14
  8
0
  0
POLYLINE
  5
1F15
  8
0
 66
     1
 10
0.0
 20
0.0
 30
0.0
  0
VERTEX
  5
1F16
  8
0
 10
204.67939364207899
 20
84.610884397934754
 30
0.0
  0
VERTEX
  5
1F17
  8
0
 10
204.55887506954409
 20
84.606620680343795
 30
0.0
 42
0.0169526581580364
  0
VERTEX
  5
1F18
  8
0
 10
204.43377316350919
 20
84.593483449152956
 30
0.0
  0
VERTEX
  5
1F19
  8
0
 10
204.3447726130222
 20
84.576605539545369
 30
0.0
 42
0.023714783381983
  0
VERTEX
  5
1F1A
  8
0
 10
204.25512957336301
 20
84.550467306530038
 30
0.0
 42
0.0452343338686246
 70
     2
 50
198.97270105427279
  0
VERTEX
  5
1F1B
  8
0
 10
204.1617849301274
 20
84.508609262060617
 30
0.0
  0
VERTEX
  5
1F1C
  8
0
 10
204.10944502201019
 20
84.468603970761407
 30
0.0
  0
VERTEX
  5
1F1D
  8
0
 10
204.0862351868432
 20
84.435272968836699
 30
0.0
  0
VERTEX
  5
1F1E
  8
0
 10
204.0793936420732
 20
84.404607545061623
 30
0.0
  0
SEQEND
  5
1F1F
  8
0
  0
POLYLINE
  5
1F20
  8
0
 66
     1
 10
0.0
 20
0.0
 30
0.0
  0
VERTEX
  5
1F21
  8
0
 10
204.0793936420732
 20
84.404607545061623
 30
0.0
  0
VERTEX
  5
1F22
  8
0
 10
204.08699578474821
 20
84.367271853418373
 30
0.0
  0
VERTEX
  5
1F23
  8
0
 10
204.1121491413343
 20
84.327507807714142
 30
0.0
  0
VERTEX
  5
1F24
  8
0
 10
204.1664161107426
 20
84.280949150745613
 30
0.0
 42
0.048443127698431
  0
VERTEX
  5
1F25
  8
0
 10
204.25512957336301
 20
84.235114683964497
 30
0.0
 42
0.0270168651307056
 70
     2
 50
338.22336510478311
  0
VERTEX
  5
1F26
  8
0
 10
204.3444982219834
 20
84.204897253016242
 30
0.0
  0
VERTEX
  5
1F27
  8
0
 10
204.4347331008025
 20
84.185014661932513
 30
0.0
 42
0.0199340369257074
  0
VERTEX
  5
1F28
  8
0
 10
204.55837590654841
 20
84.169872697501276
 30
0.0
 42
0.0205018244111976
  0
VERTEX
  5
1F29
  8
0
 10
204.67939364207899
 20
84.164908442172646
 30
0.0
 42
0.0205018244113817
  0
SEQEND
  5
1F2A
  8
0
  0
LINE
  5
1F2B
  8
0
 10
191.17939364207851
 20
201.2593435230979
 30
0.0
 11
198.6793936420782
 21
206.7593435230979
 31
0.0
  0
LINE
  5
1F2C
  8
0
 10
191.1793936420784
 20
187.2593435230979
 30
0.0
 11
198.6793936420782
 21
181.7593435230979
 31
0.0
  0
LINE
  5
1F2D
  8
0
 10
191.1793936420784
 20
140.94216393343629
 30
0.0
 11
198.67939364207851
 21
146.44216393343629
 31
0.0
  0
LINE
  5
1F2E
  8
0
 10
191.1793936420784
 20
126.94216393343631
 30
0.0
 11
198.67939364207851
 21
121.44216393343631
 31
0.0
  0
LINE
  5
1F2F
  8
0
 10
191.1793936420784
 20
80.624984343774656
 30
0.0
 11
198.67939364207879
 21
86.124984343774656
 31
0.0
  0
LINE
  5
1F30
  8
0
 10
191.1793936420784
 20
66.624984343774614
 30
0.0
 11
198.67939364207879
 21
61.124984343774628
 31
0.0
  0
INSERT
  5
1F31
  8
0
  2
STDGX5
 10
0.0
 20
0.0
 30
0.0
 41
0.25
 42
0.25
 43
0.25
  0
INSERT
  5
1F32
  8
0
  2
STDGX5
 10
0.0
 20
0.0
 30
0.0
 41
0.25
 42
0.25
 43
0.25
  0
INSERT
  5
1F33
  8
0
  2
STDGX5
 10
68.75
 20
0.0
 30
0.0
 41
0.25
 42
0.25
 43
0.25
  0
INSERT
  5
1F34
  8
0
  2
STDGX5
 10
68.75
 20
0.0
 30
0.0
 41
0.25
 42
0.25
 43
0.25
  0
INSERT
  5
1F35
  8
0
  2
STDGX5
 10
0.0
 20
0.0
 30
0.0
 41
0.5
 42
0.5
 43
0.5
  0
INSERT
  5
1F36
  8
0
  2
STDGX5
 10
0.0
 20
0.0
 30
0.0
 41
0.5
 42
0.5
 43
0.5
  0
INSERT
  5
1F37
  8
0
  2
STDGX5
 10
137.5
 20
0.0
 30
0.0
 41
0.5
 42
0.5
 43
0.5
  0
INSERT
  5
1F38
  8
0
  2
STDGX5
 10
137.5
 20
0.0
 30
0.0
 41
0.5
 42
0.5
 43
0.5
  0
INSERT
  5
1F3A
  8
0
  2
STDGX5
 10
-35.0
 20
-100.0
 30
0.0
 41
0.3333333333333333
 42
0.3333333333333333
 43
0.3333333333333333
  0
INSERT
  5
1F3B
  8
0
  2
STDGX5
 10
-35.0
 20
-100.0
 30
0.0
 41
0.3333333333333333
 42
0.3333333333333333
 43
0.3333333333333333
  0
INSERT
  5
1F3C
  8
0
  2
STDGX5
 10
56.666666666666643
 20
-100.0
 30
0.0
 41
0.3333333333333333
 42
0.3333333333333333
 43
0.3333333333333333
  0
INSERT
  5
1F3D
  8
0
  2
STDGX5
 10
56.666666666666643
 20
-100.0
 30
0.0
 41
0.3333333333333333
 42
0.3333333333333333
 43
0.3333333333333333
  0
INSERT
  5
1F3F
  8
0
  2
STDGX5
 10
-35.0
 20
-100.0
 30
0.0
 41
0.3333333333333333
 42
0.3333333333333333
 43
0.3333333333333333
  0
INSERT
  5
1F40
  8
0
  2
STDGX5
 10
-35.0
 20
-100.0
 30
0.0
 41
0.3333333333333333
 42
0.3333333333333333
 43
0.3333333333333333
  0
INSERT
  5
1F41
  8
0
  2
STDGX5
 10
56.666666666666657
 20
-100.0
 30
0.0
 41
0.3333333333333333
 42
0.3333333333333333
 43
0.3333333333333333
  0
INSERT
  5
1F42
  8
0
  2
STDGX5
 10
56.666666666666657
 20
-100.0
 30
0.0
 41
0.3333333333333333
 42
0.3333333333333333
 43
0.3333333333333333
  0
INSERT
  5
1F43
  8
0
  2
STDGX5
 10
0.0
 20
0.0
 30
0.0
  0
INSERT
  5
1F44
  8
0
  2
STDGX5
 10
0.0
 20
0.0
 30
0.0
  0
INSERT
  5
1F45
  8
0
  2
STDGX5
 10
275.0
 20
0.0
 30
0.0
  0
INSERT
  5
1F46
  8
0
  2
STDGX5
 10
275.0
 20
0.0
 30
0.0
  0
TEXT
  5
2066
  8
0
 62
     3
 10
0.0
 20
0.0
 30
0.0
 40
5.0
  1
SDX12W-SUS
  7
STANDARD1
  0
ENDSEC
  0
EOF
