  0
SECTION
  2
HEADER
  9
$ACADVER
  1
AC1009
  9
$INSBASE
 10
0.0
 20
0.0
 30
0.0
  9
$EXTMIN
 10
0.0
 20
-1.4802182810368341
 30
0.0
  9
$EXTMAX
 10
269.30148283402877
 20
209.02832833524829
 30
0.0
  9
$LIMMIN
 10
0.0
 20
0.0
  9
$LIMMAX
 10
385.0
 20
270.0
  9
$ORTHOMODE
 70
     1
  9
$REGENMODE
 70
     1
  9
$FILLMODE
 70
     1
  9
$QTEXTMODE
 70
     0
  9
$MIRRTEXT
 70
     0
  9
$DRAGMODE
 70
     2
  9
$LTSCALE
 40
10.0
  9
$OSMODE
 70
    55
  9
$ATTMODE
 70
     1
  9
$TEXTSIZE
 40
4.000000000000048
  9
$TRACEWID
 40
0.05
  9
$TEXTSTYLE
  7
STANDARD
  9
$CLAYER
  8
0
  9
$CELTYPE
  6
BYLAYER
  9
$CECOLOR
 62
   256
  9
$DIMSCALE
 40
1.0
  9
$DIMASZ
 40
3.0
  9
$DIMEXO
 40
2.0
  9
$DIMDLI
 40
0.38
  9
$DIMRND
 40
0.0
  9
$DIMDLE
 40
0.0
  9
$DIMEXE
 40
2.0
  9
$DIMTP
 40
0.0
  9
$DIMTM
 40
0.0
  9
$DIMTXT
 40
3.0
  9
$DIMCEN
 40
0.0
  9
$DIMTSZ
 40
0.0
  9
$DIMTOL
 70
     0
  9
$DIMLIM
 70
     0
  9
$DIMTIH
 70
     0
  9
$DIMTOH
 70
     0
  9
$DIMSE1
 70
     0
  9
$DIMSE2
 70
     0
  9
$DIMTAD
 70
     1
  9
$DIMZIN
 70
     0
  9
$DIMBLK
  1

  9
$DIMASO
 70
     1
  9
$DIMSHO
 70
     0
  9
$DIMPOST
  1

  9
$DIMAPOST
  1

  9
$DIMALT
 70
     0
  9
$DIMALTD
 70
     2
  9
$DIMALTF
 40
25.399999999999999
  9
$DIMLFAC
 40
1.0
  9
$DIMTOFL
 70
     1
  9
$DIMTVP
 40
1.6000000000000001
  9
$DIMTIX
 70
     1
  9
$DIMSOXD
 70
     0
  9
$DIMSAH
 70
     0
  9
$DIMBLK1
  1

  9
$DIMBLK2
  1

  9
$DIMSTYLE
  2
STANDARD
  9
$DIMCLRD
 70
     0
  9
$DIMCLRE
 70
     0
  9
$DIMCLRT
 70
     0
  9
$DIMTFAC
 40
1.0
  9
$DIMGAP
 40
1.0
  9
$LUNITS
 70
     2
  9
$LUPREC
 70
     4
  9
$SKETCHINC
 40
0.1
  9
$FILLETRAD
 40
0.0
  9
$AUNITS
 70
     0
  9
$AUPREC
 70
     4
  9
$MENU
  1
E:\r13\win\SUPPORT\ACAD
  9
$ELEVATION
 40
0.0
  9
$PELEVATION
 40
0.0
  9
$THICKNESS
 40
0.0
  9
$LIMCHECK
 70
     0
  9
$BLIPMODE
 70
     0
  9
$CHAMFERA
 40
0.0
  9
$CHAMFERB
 40
0.0
  9
$SKPOLY
 70
     0
  9
$TDCREATE
 40
2450280.598206134
  9
$TDUPDATE
 40
2456598.489054352
  9
$TDINDWG
 40
0.0806055324
  9
$TDUSRTIMER
 40
0.0806055324
  9
$USRTIMER
 70
     1
  9
$ANGBASE
 50
0.0
  9
$ANGDIR
 70
     0
  9
$PDMODE
 70
     0
  9
$PDSIZE
 40
0.0
  9
$PLINEWID
 40
0.0
  9
$COORDS
 70
     1
  9
$SPLFRAME
 70
     0
  9
$SPLINETYPE
 70
     6
  9
$SPLINESEGS
 70
     8
  9
$ATTDIA
 70
     0
  9
$ATTREQ
 70
     1
  9
$HANDLING
 70
     1
  9
$HANDSEED
  5
164E
  9
$SURFTAB1
 70
     6
  9
$SURFTAB2
 70
     6
  9
$SURFTYPE
 70
     6
  9
$SURFU
 70
     6
  9
$SURFV
 70
     6
  9
$UCSNAME
  2

  9
$UCSORG
 10
0.0
 20
0.0
 30
0.0
  9
$UCSXDIR
 10
1.0
 20
0.0
 30
0.0
  9
$UCSYDIR
 10
0.0
 20
1.0
 30
0.0
  9
$PUCSNAME
  2

  9
$PUCSORG
 10
0.0
 20
0.0
 30
0.0
  9
$PUCSXDIR
 10
1.0
 20
0.0
 30
0.0
  9
$PUCSYDIR
 10
0.0
 20
1.0
 30
0.0
  9
$USERI1
 70
     3
  9
$USERI2
 70
     1
  9
$USERI3
 70
     1
  9
$USERI4
 70
     0
  9
$USERI5
 70
     0
  9
$USERR1
 40
1.0
  9
$USERR2
 40
3.0
  9
$USERR3
 40
3.0
  9
$USERR4
 40
3.0
  9
$USERR5
 40
10.0
  9
$WORLDVIEW
 70
     1
  9
$SHADEDGE
 70
     3
  9
$SHADEDIF
 70
    70
  9
$TILEMODE
 70
     1
  9
$MAXACTVP
 70
    16
  9
$PLIMCHECK
 70
     0
  9
$PEXTMIN
 10
1.0000000000000000E+020
 20
1.0000000000000000E+020
 30
1.0000000000000000E+020
  9
$PEXTMAX
 10
-1.0000000000000000E+020
 20
-1.0000000000000000E+020
 30
-1.0000000000000000E+020
  9
$PLIMMIN
 10
0.0
 20
0.0
  9
$PLIMMAX
 10
12.0
 20
9.0
  9
$UNITMODE
 70
     0
  9
$VISRETAIN
 70
     0
  9
$PLINEGEN
 70
     0
  9
$PSLTSCALE
 70
     0
  0
ENDSEC
  0
SECTION
  2
TABLES
  0
TABLE
  2
VPORT
 70
     1
  0
VPORT
  2
*ACTIVE
 70
     0
 10
0.0
 20
0.0
 11
1.0
 21
1.0
 12
192.49412581440311
 22
175.433388831352
 13
0.0
 23
0.0
 14
5.0
 24
5.0
 15
10.0
 25
10.0
 16
0.0
 26
0.0
 36
1.0
 17
0.0
 27
0.0
 37
0.0
 40
356.9701552237488
 41
1.7807262569832401
 42
50.0
 43
0.0
 44
0.0
 50
0.0
 51
0.0
 71
     0
 72
   500
 73
     1
 74
     0
 75
     0
 76
     0
 77
     0
 78
     2
  0
ENDTAB
  0
TABLE
  2
LTYPE
 70
     3
  0
LTYPE
  2
CONTINUOUS
 70
     0
  3
Solid Line
 72
    65
 73
     0
 40
0.0
  0
LTYPE
  2
CENTER
 70
     0
  3
____ _ ____ _ ____ _ ____ _ ____ _ ____ _ ____
 72
    65
 73
     4
 40
2.0
 49
1.25
 49
-0.25
 49
0.25
 49
-0.25
  0
LTYPE
  2
PHANTOM2
 70
     0
  3
___ _ _ ___ _ _ ___ _ _ ___ _ _
 72
    65
 73
     6
 40
1.25
 49
0.625
 49
-0.125
 49
0.125
 49
-0.125
 49
0.125
 49
-0.125
  0
ENDTAB
  0
TABLE
  2
LAYER
 70
     3
  0
LAYER
  2
0
 70
     0
 62
     7
  6
CONTINUOUS
  0
LAYER
  2
1
 70
     0
 62
     1
  6
CENTER
  0
LAYER
  2
3
 70
     0
 62
     3
  6
CONTINUOUS
  0
ENDTAB
  0
TABLE
  2
STYLE
 70
     2
  0
STYLE
  2
STANDARD
 70
     0
 40
0.0
 41
1.0
 50
0.0
 71
     0
 42
4.000000000000048
  3
SIMPLEX
  4
BIGFONT
  0
STYLE
  2
STANDARD1
 70
     0
 40
0.0
 41
1.0
 50
0.0
 71
     0
 42
3.0
  3
txt
  4

  0
ENDTAB
  0
TABLE
  2
VIEW
 70
     0
  0
ENDTAB
  0
TABLE
  2
UCS
 70
     0
  0
ENDTAB
  0
TABLE
  2
APPID
 70
     3
  0
APPID
  2
ACAD
 70
     0
  0
APPID
  2
ACAD_MLEADERVER
 70
     0
  0
APPID
  2
ACAD_NAV_VCDISPLAY
 70
     0
  0
ENDTAB
  0
TABLE
  2
DIMSTYLE
 70
     1
  0
DIMSTYLE
  2
STANDARD
 70
     0
  3

  4

  5

  6

  7

 40
1.0
 41
0.18
 42
0.0625
 43
0.38
 44
0.18
 45
0.0
 46
0.0
 47
0.0
 48
0.0
140
0.18
141
0.09
142
0.0
143
25.399999999999999
144
1.0
145
0.0
146
1.0
147
0.09
 71
     0
 72
     0
 73
     1
 74
     1
 75
     0
 76
     0
 77
     0
 78
     0
170
     0
171
     2
172
     0
173
     0
174
     0
175
     0
176
     0
177
     0
178
     0
  0
ENDTAB
  0
ENDSEC
  0
SECTION
  2
BLOCKS
  0
BLOCK
  8
0
  2
$MODEL_SPACE
 70
     0
 10
0.0
 20
0.0
 30
0.0
  3
$MODEL_SPACE
  1

  0
ENDBLK
  5
14DC
  8
0
  0
BLOCK
 67
     1
  8
0
  2
$PAPER_SPACE
 70
     0
 10
0.0
 20
0.0
 30
0.0
  3
$PAPER_SPACE
  1

  0
ENDBLK
  5
14DA
 67
     1
  8
0
  0
BLOCK
  8
0
  2
STDGX5
 70
     0
 10
0.0
 20
0.0
 30
0.0
  3
STDGX5
  1

  0
ENDBLK
  5
100F
  8
0
  0
ENDSEC
  0
SECTION
  2
ENTITIES
  0
INSERT
  5
1039
  8
0
  2
STDGX5
 10
0.0
 20
0.0
 30
0.0
 41
0.25
 42
0.25
 43
0.25
  0
INSERT
  5
103A
  8
0
  2
STDGX5
 10
0.0
 20
0.0
 30
0.0
 41
0.25
 42
0.25
 43
0.25
  0
INSERT
  5
103B
  8
0
  2
STDGX5
 10
68.75
 20
0.0
 30
0.0
 41
0.25
 42
0.25
 43
0.25
  0
INSERT
  5
103C
  8
0
  2
STDGX5
 10
68.75
 20
0.0
 30
0.0
 41
0.25
 42
0.25
 43
0.25
  0
INSERT
  5
103D
  8
0
  2
STDGX5
 10
0.0
 20
0.0
 30
0.0
 41
0.5
 42
0.5
 43
0.5
  0
INSERT
  5
103E
  8
0
  2
STDGX5
 10
0.0
 20
0.0
 30
0.0
 41
0.5
 42
0.5
 43
0.5
  0
INSERT
  5
103F
  8
0
  2
STDGX5
 10
137.5
 20
0.0
 30
0.0
 41
0.5
 42
0.5
 43
0.5
  0
INSERT
  5
1040
  8
0
  2
STDGX5
 10
137.5
 20
0.0
 30
0.0
 41
0.5
 42
0.5
 43
0.5
  0
INSERT
  5
1042
  8
0
  2
STDGX5
 10
-35.0
 20
-100.0
 30
0.0
 41
0.3333333333333333
 42
0.3333333333333333
 43
0.3333333333333333
  0
INSERT
  5
1043
  8
0
  2
STDGX5
 10
-35.0
 20
-100.0
 30
0.0
 41
0.3333333333333333
 42
0.3333333333333333
 43
0.3333333333333333
  0
INSERT
  5
1044
  8
0
  2
STDGX5
 10
56.666666666666643
 20
-100.0
 30
0.0
 41
0.3333333333333333
 42
0.3333333333333333
 43
0.3333333333333333
  0
INSERT
  5
1045
  8
0
  2
STDGX5
 10
56.666666666666643
 20
-100.0
 30
0.0
 41
0.3333333333333333
 42
0.3333333333333333
 43
0.3333333333333333
  0
INSERT
  5
1047
  8
0
  2
STDGX5
 10
-35.0
 20
-100.0
 30
0.0
 41
0.3333333333333333
 42
0.3333333333333333
 43
0.3333333333333333
  0
INSERT
  5
1048
  8
0
  2
STDGX5
 10
-35.0
 20
-100.0
 30
0.0
 41
0.3333333333333333
 42
0.3333333333333333
 43
0.3333333333333333
  0
INSERT
  5
1049
  8
0
  2
STDGX5
 10
56.666666666666657
 20
-100.0
 30
0.0
 41
0.3333333333333333
 42
0.3333333333333333
 43
0.3333333333333333
  0
INSERT
  5
104A
  8
0
  2
STDGX5
 10
56.666666666666657
 20
-100.0
 30
0.0
 41
0.3333333333333333
 42
0.3333333333333333
 43
0.3333333333333333
  0
INSERT
  5
104B
  8
0
  2
STDGX5
 10
0.0
 20
0.0
 30
0.0
  0
INSERT
  5
104C
  8
0
  2
STDGX5
 10
0.0
 20
0.0
 30
0.0
  0
INSERT
  5
104D
  8
0
  2
STDGX5
 10
275.0
 20
0.0
 30
0.0
  0
INSERT
  5
104E
  8
0
  2
STDGX5
 10
275.0
 20
0.0
 30
0.0
  0
INSERT
  5
1263
  8
0
  2
STDGX5
 10
0.0
 20
0.0
 30
0.0
 41
0.25
 42
0.25
 43
0.25
  0
INSERT
  5
1264
  8
0
  2
STDGX5
 10
0.0
 20
0.0
 30
0.0
 41
0.25
 42
0.25
 43
0.25
  0
INSERT
  5
1265
  8
0
  2
STDGX5
 10
68.75
 20
0.0
 30
0.0
 41
0.25
 42
0.25
 43
0.25
  0
INSERT
  5
1266
  8
0
  2
STDGX5
 10
68.75
 20
0.0
 30
0.0
 41
0.25
 42
0.25
 43
0.25
  0
INSERT
  5
1267
  8
0
  2
STDGX5
 10
0.0
 20
0.0
 30
0.0
 41
0.5
 42
0.5
 43
0.5
  0
INSERT
  5
1268
  8
0
  2
STDGX5
 10
0.0
 20
0.0
 30
0.0
 41
0.5
 42
0.5
 43
0.5
  0
INSERT
  5
1269
  8
0
  2
STDGX5
 10
137.5
 20
0.0
 30
0.0
 41
0.5
 42
0.5
 43
0.5
  0
INSERT
  5
126A
  8
0
  2
STDGX5
 10
137.5
 20
0.0
 30
0.0
 41
0.5
 42
0.5
 43
0.5
  0
INSERT
  5
126C
  8
0
  2
STDGX5
 10
-35.0
 20
-100.0
 30
0.0
 41
0.3333333333333333
 42
0.3333333333333333
 43
0.3333333333333333
  0
INSERT
  5
126D
  8
0
  2
STDGX5
 10
-35.0
 20
-100.0
 30
0.0
 41
0.3333333333333333
 42
0.3333333333333333
 43
0.3333333333333333
  0
INSERT
  5
126E
  8
0
  2
STDGX5
 10
56.666666666666643
 20
-100.0
 30
0.0
 41
0.3333333333333333
 42
0.3333333333333333
 43
0.3333333333333333
  0
INSERT
  5
126F
  8
0
  2
STDGX5
 10
56.666666666666643
 20
-100.0
 30
0.0
 41
0.3333333333333333
 42
0.3333333333333333
 43
0.3333333333333333
  0
INSERT
  5
1271
  8
0
  2
STDGX5
 10
-35.0
 20
-100.0
 30
0.0
 41
0.3333333333333333
 42
0.3333333333333333
 43
0.3333333333333333
  0
INSERT
  5
1272
  8
0
  2
STDGX5
 10
-35.0
 20
-100.0
 30
0.0
 41
0.3333333333333333
 42
0.3333333333333333
 43
0.3333333333333333
  0
INSERT
  5
1273
  8
0
  2
STDGX5
 10
56.666666666666657
 20
-100.0
 30
0.0
 41
0.3333333333333333
 42
0.3333333333333333
 43
0.3333333333333333
  0
INSERT
  5
1274
  8
0
  2
STDGX5
 10
56.666666666666657
 20
-100.0
 30
0.0
 41
0.3333333333333333
 42
0.3333333333333333
 43
0.3333333333333333
  0
INSERT
  5
1275
  8
0
  2
STDGX5
 10
0.0
 20
0.0
 30
0.0
  0
INSERT
  5
1276
  8
0
  2
STDGX5
 10
0.0
 20
0.0
 30
0.0
  0
INSERT
  5
1277
  8
0
  2
STDGX5
 10
275.0
 20
0.0
 30
0.0
  0
INSERT
  5
1278
  8
0
  2
STDGX5
 10
275.0
 20
0.0
 30
0.0
  0
LINE
  5
139E
  8
0
 10
176.33169907380369
 20
142.71114874558651
 30
0.0
 11
176.3316990738038
 21
129.7111487455866
 31
0.0
  0
LINE
  5
139F
  8
1
 10
137.33169907380361
 20
136.2111487455866
 30
0.0
 11
203.3316990738038
 21
136.21114874558651
 31
0.0
  0
LINE
  5
13A0
  8
0
 10
144.1316990738039
 20
139.2111487455866
 30
0.0
 11
148.33169907380369
 21
139.2111487455866
 31
0.0
  0
LINE
  5
13A1
  8
0
 10
148.33169907380369
 20
141.1611487455983
 30
0.0
 11
149.33169907380369
 21
142.2111487456342
 31
0.0
  0
LINE
  5
13A2
  8
0
 10
176.8316990738038
 20
143.2111487455866
 30
0.0
 11
184.8316990738038
 21
143.2111487455866
 31
0.0
  0
LINE
  5
13A3
  8
0
 10
176.8316990738038
 20
129.2111487455866
 30
0.0
 11
184.8316990738038
 21
129.2111487455866
 31
0.0
  0
LINE
  5
13A4
  8
0
 10
148.33169907380369
 20
131.2611487455749
 30
0.0
 11
149.33169907380369
 21
130.21114874553899
 31
0.0
  0
LINE
  5
13A5
  8
0
 10
144.1316990738039
 20
133.2111487455866
 30
0.0
 11
148.33169907380369
 21
133.2111487455866
 31
0.0
  0
LINE
  5
13A6
  8
0
 10
148.33169907380369
 20
141.1611487455983
 30
0.0
 11
148.33169907380369
 21
131.2611487455749
 31
0.0
  0
LINE
  5
13A7
  8
0
 10
149.33169907380369
 20
142.2111487456342
 30
0.0
 11
149.33169907380369
 21
130.21114874553899
 31
0.0
  0
LINE
  5
13A8
  8
3
 10
148.5583657404465
 20
141.3991487455813
 30
0.0
 11
176.19428970970981
 21
141.3991487455813
 31
0.0
  0
LINE
  5
13A9
  8
0
 10
149.331699073804
 20
142.2111487456346
 30
0.0
 11
175.33169907380369
 21
142.21114874558731
 31
0.0
  0
LINE
  5
13AA
  8
3
 10
148.5583657404465
 20
131.02314874559201
 30
0.0
 11
176.19428970970981
 21
131.02314874559201
 31
0.0
  0
LINE
  5
13AB
  8
0
 10
149.33169907380369
 20
130.21114874553899
 30
0.0
 11
175.3316990738038
 21
130.21114874558589
 31
0.0
  0
LINE
  5
13AC
  8
0
 10
198.33169907380409
 20
147.2111487455868
 30
0.0
 11
198.33169907380409
 21
140.81114874558119
 31
0.0
  0
LINE
  5
13AD
  8
0
 10
193.83169907380409
 20
147.7111487455866
 30
0.0
 11
193.8316990738042
 21
124.7111487455866
 31
0.0
  0
LINE
  5
13AE
  8
0
 10
184.8316990738038
 20
143.2111487455866
 30
0.0
 11
184.8316990738038
 21
129.2111487455866
 31
0.0
  0
LINE
  5
13AF
  8
0
 10
192.33169907380389
 20
148.7111487455866
 30
0.0
 11
192.33169907380389
 21
123.7111487455866
 31
0.0
  0
LINE
  5
13B0
  8
0
 10
197.83169907380409
 20
124.7111487455864
 30
0.0
 11
193.83169907380409
 21
124.7111487455865
 31
0.0
  0
LINE
  5
13B1
  8
0
 10
197.83169907380409
 20
147.7111487455868
 30
0.0
 11
193.83169907380409
 21
147.7111487455868
 31
0.0
  0
LINE
  5
13B2
  8
0
 10
176.8316990738038
 20
143.2111487455866
 30
0.0
 11
176.8316990738038
 21
129.2111487455866
 31
0.0
  0
LINE
  5
13B3
  8
0
 10
176.8316990738038
 20
129.2111487455866
 30
0.0
 11
176.3316990738038
 21
129.7111487455866
 31
0.0
  0
LINE
  5
13B4
  8
0
 10
176.8316990738038
 20
143.2111487455866
 30
0.0
 11
176.3316990738038
 21
142.71114874558651
 31
0.0
  0
ARC
  5
13B5
  8
0
 10
197.83169907380409
 20
147.2111487455868
 30
0.0
 40
0.5
 50
0.0
 51
90.000000000000298
  0
ARC
  5
13B6
  8
0
 10
197.83169907380409
 20
125.2111487455864
 30
0.0
 40
0.5
 50
269.99999999999972
 51
0.0
  0
ARC
  5
13B7
  8
0
 10
192.33169907380389
 20
125.3361487455872
 30
0.0
 40
1.6250000000006251
 50
269.99999999985567
 51
337.38013505208647
  0
ARC
  5
13B8
  8
0
 10
192.33169907380389
 20
147.086148745586
 30
0.0
 40
1.6250000000006251
 50
22.619864947913459
 51
90.000000000144311
  0
ARC
  5
13B9
  8
0
 10
198.33169907379809
 20
136.2111487455868
 30
0.0
 40
0.5999999999997954
 50
89.999999999424574
 51
270.00000000057543
  0
ARC
  5
13BA
  8
0
 10
198.33169907379809
 20
132.21114874559009
 30
0.0
 40
0.5999999999997954
 50
89.999999999424574
 51
270.00000000057543
  0
ARC
  5
13BB
  8
0
 10
198.33169907380409
 20
140.2111487455868
 30
0.0
 40
0.5999999999997954
 50
89.999999999424574
 51
270.00000000057543
  0
LINE
  5
13BC
  8
0
 10
198.33169907380409
 20
139.61114874559229
 30
0.0
 11
198.3316990738042
 21
136.81114874559029
 31
0.0
  0
LINE
  5
13BD
  8
0
 10
198.3316990738042
 20
135.61114874558319
 30
0.0
 11
198.33169907380409
 21
132.81114874558151
 31
0.0
  0
LINE
  5
13BE
  8
0
 10
198.33169907380409
 20
131.6111487455986
 30
0.0
 11
198.33169907380409
 21
125.2111487455864
 31
0.0
  0
CIRCLE
  5
13BF
  8
0
 10
251.8014828340292
 20
136.21114874558651
 30
0.0
 40
12.499999999999631
  0
LINE
  5
13C0
  8
1
 10
251.8014828340292
 20
118.711148745587
 30
0.0
 11
251.8014828340292
 21
153.7111487455862
 31
0.0
  0
LINE
  5
13C1
  8
1
 10
269.30148283402877
 20
136.21114874558651
 30
0.0
 11
234.3014828340296
 21
136.21114874558651
 31
0.0
  0
CIRCLE
  5
13C2
  8
0
 10
251.8014828340292
 20
136.21114874558651
 30
0.0
 40
11.500000000000229
  0
LINE
  5
13C3
  8
0
 10
241.26155873563101
 20
140.81114874558719
 30
0.0
 11
262.3414069324275
 21
140.81114874558719
 31
0.0
  0
LINE
  5
13C4
  8
0
 10
240.81558277986829
 20
139.61114874558621
 30
0.0
 11
262.78738288818982
 21
139.61114874558629
 31
0.0
  0
LINE
  5
13C5
  8
0
 10
240.31714567422711
 20
136.81114874558421
 30
0.0
 11
263.28581999383113
 21
136.81114874558421
 31
0.0
  0
LINE
  5
13C6
  8
0
 10
240.31714567422711
 20
135.61114874558939
 30
0.0
 11
263.28581999383118
 21
135.6111487455893
 31
0.0
  0
LINE
  5
13C7
  8
0
 10
240.81558277986841
 20
132.8111487455875
 30
0.0
 11
262.78738288818988
 21
132.8111487455875
 31
0.0
  0
LINE
  5
13C8
  8
0
 10
241.26155873562789
 20
131.6111487455926
 30
0.0
 11
262.3414069324304
 21
131.6111487455926
 31
0.0
  0
LINE
  5
13C9
  8
0
 10
175.3316990738038
 20
130.21114874558589
 30
0.0
 11
176.3316990738038
 21
131.21114874558771
 31
0.0
  0
LINE
  5
13CA
  8
0
 10
175.33169907380369
 20
142.21114874558731
 30
0.0
 11
176.33169907380369
 21
141.21114874558549
 31
0.0
  0
LINE
  5
13CB
  8
0
 10
172.83169907380369
 20
137.0111487455865
 30
0.0
 11
172.8316990738038
 21
135.4111487455865
 31
0.0
  0
LINE
  5
13CC
  8
0
 10
172.83169907380369
 20
137.0111487455865
 30
0.0
 11
176.3316990738038
 21
137.0111487455865
 31
0.0
  0
LINE
  5
13CD
  8
0
 10
172.83169907380369
 20
135.41114874558659
 30
0.0
 11
176.3316990738038
 21
135.4111487455865
 31
0.0
  0
LINE
  5
13CE
  8
0
 10
175.3316990738038
 20
130.21114874558589
 30
0.0
 11
175.3316990738038
 21
135.4111487455865
 31
0.0
  0
LINE
  5
13CF
  8
0
 10
175.3316990738038
 20
137.0111487455865
 30
0.0
 11
175.3316990738038
 21
142.21114874558731
 31
0.0
  0
LINE
  5
13D0
  8
0
 10
144.1316990738039
 20
133.21114874558651
 30
0.0
 11
144.1316990738039
 21
139.2111487455866
 31
0.0
  0
LINE
  5
13D1
  8
0
 10
144.1316990738039
 20
133.21114874558651
 30
0.0
 11
142.7506244686063
 21
134.00851254066839
 31
0.0
  0
LINE
  5
13D2
  8
0
 10
144.1316990738039
 20
139.2111487455866
 30
0.0
 11
142.75062446860659
 21
138.413784950505
 31
0.0
  0
ARC
  5
13D3
  8
0
 10
148.33169907380389
 20
136.2111487455866
 30
0.0
 40
6.0
 50
158.46275075361859
 51
201.53724924637871
  0
LINE
  5
13D4
  8
0
 10
142.75062446860559
 20
134.00851254066879
 30
0.0
 11
142.75062446860571
 21
138.41378495050441
 31
0.0
  0
CIRCLE
  5
13D5
  8
0
 10
84.075343881835991
 20
136.21114874558651
 30
0.0
 40
12.499999999999631
  0
LINE
  5
13D6
  8
1
 10
101.57534388183559
 20
136.21114874558651
 30
0.0
 11
66.575343881836361
 21
136.21114874558651
 31
0.0
  0
LINE
  5
13D7
  8
1
 10
84.075343881835991
 20
153.7111487455862
 30
0.0
 11
84.075343881835991
 21
118.7111487455869
 31
0.0
  0
CIRCLE
  5
13D8
  8
0
 10
84.075343881836005
 20
136.21114874558651
 30
0.0
 40
7.0000000000000284
  0
CIRCLE
  5
13D9
  8
0
 10
84.075343881836005
 20
136.21114874558651
 30
0.0
 40
6.0
  0
CIRCLE
  5
13DA
  8
3
 10
84.075343881836005
 20
136.21114874558651
 30
0.0
 40
5.052999999999999
  0
CIRCLE
  5
13DB
  8
0
 10
84.075343881836005
 20
136.21114874558651
 30
0.0
 40
3.0
  0
CIRCLE
  5
13DC
  8
0
 10
84.075343881836005
 20
136.21114874558651
 30
0.0
 40
2.2026362049170838
  0
LINE
  5
13DD
  8
0
 10
142.75062446860559
 20
194.3256921303304
 30
0.0
 11
142.75062446860571
 21
198.7309645401661
 31
0.0
  0
ARC
  5
13DE
  8
0
 10
148.33169907380389
 20
196.5283283352482
 30
0.0
 40
6.0
 50
158.46275075361859
 51
201.53724924637871
  0
LINE
  5
13DF
  8
0
 10
144.1316990738039
 20
199.52832833524829
 30
0.0
 11
142.75062446860659
 21
198.73096454016661
 31
0.0
  0
LINE
  5
13E0
  8
0
 10
144.1316990738039
 20
193.5283283352482
 30
0.0
 11
142.7506244686063
 21
194.32569213033
 31
0.0
  0
LINE
  5
13E1
  8
0
 10
144.1316990738039
 20
193.5283283352482
 30
0.0
 11
144.1316990738039
 21
199.52832833524829
 31
0.0
  0
LINE
  5
13E2
  8
0
 10
175.3316990738038
 20
190.52832833524749
 30
0.0
 11
175.33169907380389
 21
202.52832833524889
 31
0.0
  0
LINE
  5
13E3
  8
0
 10
175.33169907380369
 20
202.52832833524889
 30
0.0
 11
176.33169907380369
 21
201.5283283352471
 31
0.0
  0
LINE
  5
13E4
  8
0
 10
175.3316990738038
 20
190.52832833524749
 30
0.0
 11
176.3316990738038
 21
191.52832833524931
 31
0.0
  0
LINE
  5
13E5
  8
0
 10
198.3316990738038
 20
185.54242828108809
 30
0.0
 11
198.3316990738038
 21
185.52832833524801
 31
0.0
  0
ARC
  5
13E6
  8
0
 10
192.33169907380361
 20
207.40332833524769
 30
0.0
 40
1.6250000000006251
 50
22.619864947913459
 51
90.000000000144311
  0
ARC
  5
13E7
  8
0
 10
192.33169907380361
 20
185.65332833524889
 30
0.0
 40
1.6250000000006251
 50
269.99999999985567
 51
337.38013505208647
  0
ARC
  5
13E8
  8
0
 10
197.8316990738038
 20
185.52832833524801
 30
0.0
 40
0.5
 50
269.99999999999972
 51
0.0
  0
ARC
  5
13E9
  8
0
 10
197.8316990738038
 20
207.52832833524849
 30
0.0
 40
0.5
 50
0.0
 51
90.000000000000298
  0
LINE
  5
13EA
  8
0
 10
176.8316990738038
 20
203.5283283352482
 30
0.0
 11
176.3316990738038
 21
203.0283283352482
 31
0.0
  0
LINE
  5
13EB
  8
0
 10
176.8316990738038
 20
189.5283283352482
 30
0.0
 11
176.3316990738038
 21
190.0283283352482
 31
0.0
  0
LINE
  5
13EC
  8
0
 10
176.8316990738038
 20
203.5283283352482
 30
0.0
 11
176.8316990738038
 21
189.5283283352482
 31
0.0
  0
LINE
  5
13ED
  8
0
 10
197.8316990738038
 20
208.02832833524849
 30
0.0
 11
193.8316990738038
 21
208.0283283352484
 31
0.0
  0
LINE
  5
13EE
  8
0
 10
197.8316990738038
 20
185.02832833524801
 30
0.0
 11
193.8316990738038
 21
185.02832833524809
 31
0.0
  0
LINE
  5
13EF
  8
0
 10
192.33169907380361
 20
209.02832833524829
 30
0.0
 11
192.33169907380361
 21
184.0283283352482
 31
0.0
  0
LINE
  5
13F0
  8
0
 10
184.8316990738038
 20
203.5283283352482
 30
0.0
 11
184.8316990738038
 21
189.5283283352482
 31
0.0
  0
LINE
  5
13F1
  8
0
 10
193.8316990738038
 20
208.0283283352482
 30
0.0
 11
193.83169907380389
 21
185.02832833524829
 31
0.0
  0
LINE
  5
13F2
  8
0
 10
198.3316990738038
 20
207.52832833524849
 30
0.0
 11
198.3316990738038
 21
207.51422838940829
 31
0.0
  0
LINE
  5
13F3
  8
0
 10
149.33169907380369
 20
190.5283283352006
 30
0.0
 11
175.3316990738038
 21
190.52832833524749
 31
0.0
  0
LINE
  5
13F4
  8
3
 10
148.5583657404465
 20
191.3403283352537
 30
0.0
 11
176.19428970970981
 21
191.34032833525359
 31
0.0
  0
LINE
  5
13F5
  8
0
 10
149.331699073804
 20
202.52832833529621
 30
0.0
 11
175.33169907380369
 21
202.52832833524889
 31
0.0
  0
LINE
  5
13F6
  8
3
 10
148.5583657404465
 20
201.71632833524291
 30
0.0
 11
176.19428970970981
 21
201.71632833524291
 31
0.0
  0
LINE
  5
13F7
  8
0
 10
149.33169907380369
 20
202.5283283352959
 30
0.0
 11
149.33169907380369
 21
190.5283283352006
 31
0.0
  0
LINE
  5
13F8
  8
0
 10
148.33169907380369
 20
201.47832833525999
 30
0.0
 11
148.33169907380369
 21
191.57832833523659
 31
0.0
  0
LINE
  5
13F9
  8
0
 10
144.1316990738039
 20
193.5283283352482
 30
0.0
 11
148.33169907380369
 21
193.5283283352482
 31
0.0
  0
LINE
  5
13FA
  8
0
 10
148.33169907380369
 20
191.57832833523659
 30
0.0
 11
149.33169907380369
 21
190.5283283352006
 31
0.0
  0
LINE
  5
13FB
  8
0
 10
176.8316990738038
 20
189.5283283352482
 30
0.0
 11
184.8316990738038
 21
189.5283283352482
 31
0.0
  0
LINE
  5
13FC
  8
0
 10
176.8316990738038
 20
203.5283283352482
 30
0.0
 11
184.8316990738038
 21
203.5283283352482
 31
0.0
  0
LINE
  5
13FD
  8
0
 10
148.33169907380369
 20
201.47832833525999
 30
0.0
 11
149.33169907380369
 21
202.5283283352959
 31
0.0
  0
LINE
  5
13FE
  8
0
 10
144.1316990738039
 20
199.52832833524829
 30
0.0
 11
148.33169907380369
 21
199.52832833524829
 31
0.0
  0
LINE
  5
13FF
  8
1
 10
137.33169907380361
 20
196.5283283352482
 30
0.0
 11
203.3316990738038
 21
196.5283283352482
 31
0.0
  0
LINE
  5
1400
  8
0
 10
176.33169907380369
 20
203.02832833524809
 30
0.0
 11
176.3316990738038
 21
190.0283283352482
 31
0.0
  0
POLYLINE
  5
1401
  8
0
 66
     1
 10
0.0
 20
0.0
 30
0.0
  0
VERTEX
  5
1402
  8
0
 10
197.73169907379801
 20
207.3079515365352
 30
0.0
  0
VERTEX
  5
1403
  8
0
 10
197.739301216473
 20
207.27061584489189
 30
0.0
  0
VERTEX
  5
1404
  8
0
 10
197.764454573059
 20
207.2308517991876
 30
0.0
  0
VERTEX
  5
1405
  8
0
 10
197.81872154246739
 20
207.18429314221919
 30
0.0
 42
0.048443127698431
  0
VERTEX
  5
1406
  8
0
 10
197.90743500508771
 20
207.13845867543799
 30
0.0
 42
0.0270168651307056
 70
     2
 50
338.22336510478311
  0
VERTEX
  5
1407
  8
0
 10
197.99680365370821
 20
207.1082412444897
 30
0.0
 50
338.22336510478311
  0
VERTEX
  5
1408
  8
0
 10
198.08703853252729
 20
207.088358653406
 30
0.0
 42
0.0199340369257074
 50
338.22336510478311
  0
VERTEX
  5
1409
  8
0
 10
198.2106813382731
 20
207.07321668897481
 30
0.0
 42
0.0205018244111976
 50
338.22336510478311
  0
VERTEX
  5
140A
  8
0
 10
198.3316990738038
 20
207.06825243364611
 30
0.0
 42
0.0205018244113817
  0
SEQEND
  5
140B
  8
0
  0
POLYLINE
  5
140C
  8
0
 66
     1
 10
0.0
 20
0.0
 30
0.0
  0
VERTEX
  5
140D
  8
0
 10
198.3316990738038
 20
207.51422838940829
 30
0.0
  0
VERTEX
  5
140E
  8
0
 10
198.2111805012689
 20
207.5099646718173
 30
0.0
 42
0.0169526581580364
  0
VERTEX
  5
140F
  8
0
 10
198.08607859523389
 20
207.4968274406265
 30
0.0
  0
VERTEX
  5
1410
  8
0
 10
197.99707804474701
 20
207.47994953101889
 30
0.0
 42
0.023714783381983
  0
VERTEX
  5
1411
  8
0
 10
197.90743500508771
 20
207.4538112980035
 30
0.0
 42
0.0452343338686246
 70
     2
 50
198.97270105427279
  0
VERTEX
  5
1412
  8
0
 10
197.8140903618521
 20
207.41195325353411
 30
0.0
 50
198.9727010542727
  0
VERTEX
  5
1413
  8
0
 10
197.761750453735
 20
207.37194796223491
 30
0.0
 50
198.9727010542727
  0
VERTEX
  5
1414
  8
0
 10
197.73854061856801
 20
207.33861696031019
 30
0.0
 50
198.9727010542727
  0
VERTEX
  5
1415
  8
0
 10
197.73169907379801
 20
207.3079515365352
 30
0.0
  0
SEQEND
  5
1416
  8
0
  0
LINE
  5
1417
  8
0
 10
198.3316990738038
 20
207.0682524336444
 30
0.0
 11
198.3316990738038
 21
185.9884042368507
 31
0.0
  0
POLYLINE
  5
1418
  8
0
 66
     1
 10
0.0
 20
0.0
 30
0.0
  0
VERTEX
  5
1419
  8
0
 10
198.3316990738038
 20
185.54242828108809
 30
0.0
  0
VERTEX
  5
141A
  8
0
 10
198.2111805012689
 20
185.54669199867911
 30
0.0
 42
-0.0169526581580364
  0
VERTEX
  5
141B
  8
0
 10
198.08607859523389
 20
185.55982922986991
 30
0.0
  0
VERTEX
  5
141C
  8
0
 10
197.99707804474701
 20
185.57670713947749
 30
0.0
 42
-0.023714783381983
  0
VERTEX
  5
141D
  8
0
 10
197.90743500508771
 20
185.60284537249279
 30
0.0
 42
-0.0452343338686246
 70
     2
 50
161.02729894572721
  0
VERTEX
  5
141E
  8
0
 10
197.8140903618521
 20
185.6447034169623
 30
0.0
  0
VERTEX
  5
141F
  8
0
 10
197.761750453735
 20
185.6847087082615
 30
0.0
  0
VERTEX
  5
1420
  8
0
 10
197.73854061856801
 20
185.71803971018619
 30
0.0
  0
VERTEX
  5
1421
  8
0
 10
197.73169907379801
 20
185.74870513396121
 30
0.0
  0
SEQEND
  5
1422
  8
0
  0
POLYLINE
  5
1423
  8
0
 66
     1
 10
0.0
 20
0.0
 30
0.0
  0
VERTEX
  5
1424
  8
0
 10
197.73169907379801
 20
185.74870513396121
 30
0.0
  0
VERTEX
  5
1425
  8
0
 10
197.739301216473
 20
185.78604082560449
 30
0.0
  0
VERTEX
  5
1426
  8
0
 10
197.764454573059
 20
185.82580487130869
 30
0.0
  0
VERTEX
  5
1427
  8
0
 10
197.81872154246739
 20
185.8723635282773
 30
0.0
 42
-0.048443127698431
  0
VERTEX
  5
1428
  8
0
 10
197.90743500508771
 20
185.91819799505839
 30
0.0
 42
-0.0270168651307056
 70
     2
 50
21.776634895216869
  0
VERTEX
  5
1429
  8
0
 10
197.99680365370821
 20
185.94841542600659
 30
0.0
  0
VERTEX
  5
142A
  8
0
 10
198.08703853252729
 20
185.9682980170904
 30
0.0
 42
-0.0199340369257074
  0
VERTEX
  5
142B
  8
0
 10
198.2106813382731
 20
185.9834399815216
 30
0.0
 42
-0.0205018244111976
  0
VERTEX
  5
142C
  8
0
 10
198.3316990738038
 20
185.98840423685019
 30
0.0
 42
-0.0205018244113817
  0
SEQEND
  5
142D
  8
0
  0
LINE
  5
142E
  8
0
 10
198.3316990738038
 20
185.52832833524789
 30
0.0
 11
198.3316990738038
 21
185.54242828108809
 31
0.0
  0
LINE
  5
142F
  8
0
 10
198.33169907380409
 20
86.893969155925191
 30
0.0
 11
198.33169907380409
 21
86.879869210085047
 31
0.0
  0
POLYLINE
  5
1430
  8
0
 66
     1
 10
0.0
 20
0.0
 30
0.0
  0
VERTEX
  5
1431
  8
0
 10
197.7316990737983
 20
86.673592357211874
 30
0.0
  0
VERTEX
  5
1432
  8
0
 10
197.73930121647331
 20
86.636256665568624
 30
0.0
  0
VERTEX
  5
1433
  8
0
 10
197.76445457305931
 20
86.596492619864392
 30
0.0
  0
VERTEX
  5
1434
  8
0
 10
197.8187215424677
 20
86.549933962895864
 30
0.0
 42
0.048443127698431
  0
VERTEX
  5
1435
  8
0
 10
197.9074350050881
 20
86.504099496114748
 30
0.0
 42
0.0270168651307056
 70
     2
 50
338.22336510478311
  0
VERTEX
  5
1436
  8
0
 10
197.9968036537085
 20
86.473882065166507
 30
0.0
  0
VERTEX
  5
1437
  8
0
 10
198.0870385325276
 20
86.453999474082764
 30
0.0
 42
0.0199340369257074
  0
VERTEX
  5
1438
  8
0
 10
198.2106813382735
 20
86.438857509651541
 30
0.0
 42
0.0205018244111976
  0
VERTEX
  5
1439
  8
0
 10
198.33169907380409
 20
86.433893254322896
 30
0.0
 42
0.0205018244113817
  0
SEQEND
  5
143A
  8
0
  0
POLYLINE
  5
143B
  8
0
 66
     1
 10
0.0
 20
0.0
 30
0.0
  0
VERTEX
  5
143C
  8
0
 10
198.33169907380409
 20
86.879869210085005
 30
0.0
  0
VERTEX
  5
143D
  8
0
 10
198.21118050126921
 20
86.875605492494017
 30
0.0
 42
0.0169526581580364
  0
VERTEX
  5
143E
  8
0
 10
198.08607859523431
 20
86.862468261303206
 30
0.0
  0
VERTEX
  5
143F
  8
0
 10
197.9970780447473
 20
86.845590351695606
 30
0.0
 42
0.023714783381983
  0
VERTEX
  5
1440
  8
0
 10
197.9074350050881
 20
86.819452118680289
 30
0.0
 42
0.0452343338686246
 70
     2
 50
198.97270105427279
  0
VERTEX
  5
1441
  8
0
 10
197.81409036185241
 20
86.777594074210867
 30
0.0
  0
VERTEX
  5
1442
  8
0
 10
197.76175045373529
 20
86.737588782911672
 30
0.0
  0
VERTEX
  5
1443
  8
0
 10
197.73854061856829
 20
86.704257780986936
 30
0.0
  0
VERTEX
  5
1444
  8
0
 10
197.7316990737983
 20
86.673592357211874
 30
0.0
  0
SEQEND
  5
1445
  8
0
  0
LINE
  5
1446
  8
0
 10
198.33169907380409
 20
65.354045057528708
 30
0.0
 11
198.33169907380409
 21
86.433893254322385
 31
0.0
  0
POLYLINE
  5
1447
  8
0
 66
     1
 10
0.0
 20
0.0
 30
0.0
  0
VERTEX
  5
1448
  8
0
 10
198.33169907380409
 20
64.908069101764852
 30
0.0
  0
VERTEX
  5
1449
  8
0
 10
198.21118050126921
 20
64.912332819355839
 30
0.0
 42
-0.0169526581580364
  0
VERTEX
  5
144A
  8
0
 10
198.08607859523431
 20
64.925470050546664
 30
0.0
  0
VERTEX
  5
144B
  8
0
 10
197.9970780447473
 20
64.942347960154251
 30
0.0
 42
-0.023714783381983
  0
VERTEX
  5
144C
  8
0
 10
197.9074350050881
 20
64.968486193169582
 30
0.0
 42
-0.0452343338686246
 70
     2
 50
161.02729894572721
  0
VERTEX
  5
144D
  8
0
 10
197.81409036185241
 20
65.010344237639003
 30
0.0
  0
VERTEX
  5
144E
  8
0
 10
197.76175045373529
 20
65.050349528938199
 30
0.0
  0
VERTEX
  5
144F
  8
0
 10
197.73854061856829
 20
65.083680530862921
 30
0.0
  0
VERTEX
  5
1450
  8
0
 10
197.7316990737983
 20
65.114345954637997
 30
0.0
  0
SEQEND
  5
1451
  8
0
  0
POLYLINE
  5
1452
  8
0
 66
     1
 10
0.0
 20
0.0
 30
0.0
  0
VERTEX
  5
1453
  8
0
 10
197.7316990737983
 20
65.114345954637997
 30
0.0
  0
VERTEX
  5
1454
  8
0
 10
197.73930121647331
 20
65.151681646281247
 30
0.0
  0
VERTEX
  5
1455
  8
0
 10
197.76445457305931
 20
65.191445691985479
 30
0.0
  0
VERTEX
  5
1456
  8
0
 10
197.8187215424677
 20
65.238004348954007
 30
0.0
 42
-0.048443127698431
  0
VERTEX
  5
1457
  8
0
 10
197.9074350050881
 20
65.283838815735123
 30
0.0
 42
-0.0270168651307056
 70
     2
 50
21.776634895216869
  0
VERTEX
  5
1458
  8
0
 10
197.9968036537085
 20
65.314056246683364
 30
0.0
  0
VERTEX
  5
1459
  8
0
 10
198.0870385325276
 20
65.333938837767107
 30
0.0
 42
-0.0199340369257074
  0
VERTEX
  5
145A
  8
0
 10
198.2106813382735
 20
65.34908080219833
 30
0.0
 42
-0.0205018244111976
  0
VERTEX
  5
145B
  8
0
 10
198.33169907380409
 20
65.354045057526974
 30
0.0
 42
-0.0205018244113817
  0
SEQEND
  5
145C
  8
0
  0
LINE
  5
145D
  8
0
 10
176.33169907380369
 20
69.393969155925021
 30
0.0
 11
176.3316990738038
 21
82.393969155924935
 31
0.0
  0
LINE
  5
145E
  8
1
 10
137.33169907380361
 20
75.893969155924907
 30
0.0
 11
203.3316990738038
 21
75.893969155924935
 31
0.0
  0
LINE
  5
145F
  8
0
 10
144.1316990738039
 20
72.893969155924879
 30
0.0
 11
148.33169907380369
 21
72.893969155924879
 31
0.0
  0
LINE
  5
1460
  8
0
 10
148.33169907380369
 20
70.94396915591318
 30
0.0
 11
149.33169907380369
 21
69.893969155877244
 31
0.0
  0
LINE
  5
1461
  8
0
 10
176.8316990738038
 20
68.893969155924879
 30
0.0
 11
184.8316990738038
 21
68.893969155924879
 31
0.0
  0
LINE
  5
1462
  8
0
 10
176.8316990738038
 20
82.893969155924907
 30
0.0
 11
184.8316990738038
 21
82.893969155924907
 31
0.0
  0
LINE
  5
1463
  8
0
 10
148.33169907380369
 20
80.843969155936549
 30
0.0
 11
149.33169907380369
 21
81.893969155972485
 31
0.0
  0
LINE
  5
1464
  8
0
 10
144.1316990738039
 20
78.893969155924907
 30
0.0
 11
148.33169907380369
 21
78.893969155924907
 31
0.0
  0
LINE
  5
1465
  8
0
 10
148.33169907380369
 20
70.94396915591318
 30
0.0
 11
148.33169907380369
 21
80.843969155936549
 31
0.0
  0
LINE
  5
1466
  8
0
 10
149.33169907380369
 20
69.893969155877244
 30
0.0
 11
149.33169907380369
 21
81.893969155972485
 31
0.0
  0
LINE
  5
1467
  8
3
 10
148.5583657404465
 20
70.705969155930234
 30
0.0
 11
176.19428970970981
 21
70.705969155930234
 31
0.0
  0
LINE
  5
1468
  8
0
 10
149.331699073804
 20
69.893969155876903
 30
0.0
 11
175.33169907380369
 21
69.893969155924196
 31
0.0
  0
LINE
  5
1469
  8
3
 10
148.5583657404465
 20
81.081969155919438
 30
0.0
 11
176.19428970970981
 21
81.081969155919495
 31
0.0
  0
LINE
  5
146A
  8
0
 10
149.33169907380369
 20
81.893969155972485
 30
0.0
 11
175.3316990738038
 21
81.893969155925618
 31
0.0
  0
LINE
  5
146B
  8
0
 10
198.33169907380409
 20
64.89396915592468
 30
0.0
 11
198.33169907380409
 21
64.908069101764823
 31
0.0
  0
LINE
  5
146C
  8
0
 10
193.83169907380409
 20
64.393969155924879
 30
0.0
 11
193.8316990738042
 21
87.393969155924836
 31
0.0
  0
LINE
  5
146D
  8
0
 10
184.8316990738038
 20
68.893969155924879
 30
0.0
 11
184.8316990738038
 21
82.893969155924907
 31
0.0
  0
LINE
  5
146E
  8
0
 10
192.33169907380389
 20
63.393969155924871
 30
0.0
 11
192.33169907380389
 21
88.393969155924907
 31
0.0
  0
LINE
  5
146F
  8
0
 10
197.83169907380409
 20
87.393969155925106
 30
0.0
 11
193.83169907380409
 21
87.393969155925021
 31
0.0
  0
LINE
  5
1470
  8
0
 10
197.83169907380409
 20
64.393969155924665
 30
0.0
 11
193.83169907380409
 21
64.393969155924708
 31
0.0
  0
LINE
  5
1471
  8
0
 10
176.8316990738038
 20
68.893969155924879
 30
0.0
 11
176.8316990738038
 21
82.893969155924907
 31
0.0
  0
LINE
  5
1472
  8
0
 10
176.8316990738038
 20
82.893969155924907
 30
0.0
 11
176.3316990738038
 21
82.393969155924907
 31
0.0
  0
LINE
  5
1473
  8
0
 10
176.8316990738038
 20
68.893969155924879
 30
0.0
 11
176.3316990738038
 21
69.393969155924935
 31
0.0
  0
ARC
  5
1474
  8
0
 10
197.83169907380409
 20
64.89396915592468
 30
0.0
 40
0.5
 50
269.99999999999972
 51
0.0
  0
ARC
  5
1475
  8
0
 10
197.83169907380409
 20
86.893969155925106
 30
0.0
 40
0.5
 50
0.0
 51
90.000000000000298
  0
ARC
  5
1476
  8
0
 10
192.33169907380389
 20
86.768969155924225
 30
0.0
 40
1.6250000000006251
 50
22.61986494791347
 51
90.000000000144325
  0
ARC
  5
1477
  8
0
 10
192.33169907380389
 20
65.018969155925504
 30
0.0
 40
1.6250000000006251
 50
269.99999999985567
 51
337.38013505208647
  0
LINE
  5
1478
  8
0
 10
198.33169907380409
 20
86.879869210085005
 30
0.0
 11
198.33169907380409
 21
86.893969155925106
 31
0.0
  0
LINE
  5
1479
  8
0
 10
175.3316990738038
 20
81.893969155925618
 30
0.0
 11
176.3316990738038
 21
80.893969155923784
 31
0.0
  0
LINE
  5
147A
  8
0
 10
175.33169907380369
 20
69.893969155924196
 30
0.0
 11
176.33169907380369
 21
70.893969155926015
 31
0.0
  0
LINE
  5
147B
  8
0
 10
175.3316990738038
 20
81.893969155925618
 30
0.0
 11
175.33169907380389
 21
69.893969155924196
 31
0.0
  0
LINE
  5
147C
  8
0
 10
144.1316990738039
 20
78.893969155924935
 30
0.0
 11
144.1316990738039
 21
72.893969155924879
 31
0.0
  0
LINE
  5
147D
  8
0
 10
144.1316990738039
 20
78.893969155924935
 30
0.0
 11
142.7506244686063
 21
78.096605360843114
 31
0.0
  0
LINE
  5
147E
  8
0
 10
144.1316990738039
 20
72.893969155924879
 30
0.0
 11
142.75062446860659
 21
73.691332951006515
 31
0.0
  0
ARC
  5
147F
  8
0
 10
148.33169907380389
 20
75.893969155924907
 30
0.0
 40
6.0
 50
158.46275075362129
 51
201.53724924638141
  0
LINE
  5
1480
  8
0
 10
142.75062446860559
 20
78.096605360842716
 30
0.0
 11
142.75062446860571
 21
73.691332951007041
 31
0.0
  0
LINE
  5
1481
  8
0
 10
184.8316990738038
 20
203.5283283352482
 30
0.0
 11
192.33169907380361
 21
209.02832833524829
 31
0.0
  0
LINE
  5
1482
  8
0
 10
184.8316990738038
 20
189.5283283352482
 30
0.0
 11
192.33169907380361
 21
184.0283283352482
 31
0.0
  0
LINE
  5
1483
  8
0
 10
192.33169907380389
 20
123.7111487455866
 30
0.0
 11
184.8316990738038
 21
129.2111487455866
 31
0.0
  0
LINE
  5
1484
  8
0
 10
192.33169907380389
 20
148.7111487455866
 30
0.0
 11
184.8316990738038
 21
143.2111487455866
 31
0.0
  0
LINE
  5
1485
  8
0
 10
184.8316990738038
 20
68.893969155924879
 30
0.0
 11
192.33169907380389
 21
63.393969155924871
 31
0.0
  0
LINE
  5
1486
  8
0
 10
184.8316990738038
 20
82.893969155924907
 30
0.0
 11
192.33169907380389
 21
88.393969155924907
 31
0.0
  0
INSERT
  5
1487
  8
0
  2
STDGX5
 10
0.0
 20
0.0
 30
0.0
 41
0.25
 42
0.25
 43
0.25
  0
INSERT
  5
1488
  8
0
  2
STDGX5
 10
0.0
 20
0.0
 30
0.0
 41
0.25
 42
0.25
 43
0.25
  0
INSERT
  5
1489
  8
0
  2
STDGX5
 10
68.75
 20
0.0
 30
0.0
 41
0.25
 42
0.25
 43
0.25
  0
INSERT
  5
148A
  8
0
  2
STDGX5
 10
68.75
 20
0.0
 30
0.0
 41
0.25
 42
0.25
 43
0.25
  0
INSERT
  5
148B
  8
0
  2
STDGX5
 10
0.0
 20
0.0
 30
0.0
 41
0.5
 42
0.5
 43
0.5
  0
INSERT
  5
148C
  8
0
  2
STDGX5
 10
0.0
 20
0.0
 30
0.0
 41
0.5
 42
0.5
 43
0.5
  0
INSERT
  5
148D
  8
0
  2
STDGX5
 10
137.5
 20
0.0
 30
0.0
 41
0.5
 42
0.5
 43
0.5
  0
INSERT
  5
148E
  8
0
  2
STDGX5
 10
137.5
 20
0.0
 30
0.0
 41
0.5
 42
0.5
 43
0.5
  0
INSERT
  5
1490
  8
0
  2
STDGX5
 10
-35.0
 20
-100.0
 30
0.0
 41
0.3333333333333333
 42
0.3333333333333333
 43
0.3333333333333333
  0
INSERT
  5
1491
  8
0
  2
STDGX5
 10
-35.0
 20
-100.0
 30
0.0
 41
0.3333333333333333
 42
0.3333333333333333
 43
0.3333333333333333
  0
INSERT
  5
1492
  8
0
  2
STDGX5
 10
56.666666666666643
 20
-100.0
 30
0.0
 41
0.3333333333333333
 42
0.3333333333333333
 43
0.3333333333333333
  0
INSERT
  5
1493
  8
0
  2
STDGX5
 10
56.666666666666643
 20
-100.0
 30
0.0
 41
0.3333333333333333
 42
0.3333333333333333
 43
0.3333333333333333
  0
INSERT
  5
1495
  8
0
  2
STDGX5
 10
-35.0
 20
-100.0
 30
0.0
 41
0.3333333333333333
 42
0.3333333333333333
 43
0.3333333333333333
  0
INSERT
  5
1496
  8
0
  2
STDGX5
 10
-35.0
 20
-100.0
 30
0.0
 41
0.3333333333333333
 42
0.3333333333333333
 43
0.3333333333333333
  0
INSERT
  5
1497
  8
0
  2
STDGX5
 10
56.666666666666657
 20
-100.0
 30
0.0
 41
0.3333333333333333
 42
0.3333333333333333
 43
0.3333333333333333
  0
INSERT
  5
1498
  8
0
  2
STDGX5
 10
56.666666666666657
 20
-100.0
 30
0.0
 41
0.3333333333333333
 42
0.3333333333333333
 43
0.3333333333333333
  0
INSERT
  5
1499
  8
0
  2
STDGX5
 10
0.0
 20
0.0
 30
0.0
  0
INSERT
  5
149A
  8
0
  2
STDGX5
 10
0.0
 20
0.0
 30
0.0
  0
INSERT
  5
149B
  8
0
  2
STDGX5
 10
275.0
 20
0.0
 30
0.0
  0
INSERT
  5
149C
  8
0
  2
STDGX5
 10
275.0
 20
0.0
 30
0.0
  0
TEXT
  5
15BC
  8
0
 62
     3
 10
0.0
 20
0.0
 30
0.0
 40
5.0
  1
SDX12
  7
STANDARD1
  0
ENDSEC
  0
EOF
