  0
SECTION
  2
HEADER
  9
$ACADVER
  1
AC1009
  9
$INSBASE
 10
0.0
 20
0.0
 30
0.0
  9
$EXTMIN
 10
0.0
 20
-1.4802182810368341
 30
0.0
  9
$EXTMAX
 10
268.57192495299472
 20
203.2609805382715
 30
0.0
  9
$LIMMIN
 10
0.0
 20
0.0
  9
$LIMMAX
 10
385.0
 20
270.0
  9
$ORTHOMODE
 70
     1
  9
$REGENMODE
 70
     1
  9
$FILLMODE
 70
     1
  9
$QTEXTMODE
 70
     0
  9
$MIRRTEXT
 70
     0
  9
$DRAGMODE
 70
     2
  9
$LTSCALE
 40
10.0
  9
$OSMODE
 70
    55
  9
$ATTMODE
 70
     1
  9
$TEXTSIZE
 40
4.000000000000048
  9
$TRACEWID
 40
0.05
  9
$TEXTSTYLE
  7
STANDARD
  9
$CLAYER
  8
0
  9
$CELTYPE
  6
BYLAYER
  9
$CECOLOR
 62
   256
  9
$DIMSCALE
 40
1.0
  9
$DIMASZ
 40
3.0
  9
$DIMEXO
 40
2.0
  9
$DIMDLI
 40
0.38
  9
$DIMRND
 40
0.0
  9
$DIMDLE
 40
0.0
  9
$DIMEXE
 40
2.0
  9
$DIMTP
 40
0.0
  9
$DIMTM
 40
0.0
  9
$DIMTXT
 40
3.0
  9
$DIMCEN
 40
0.0
  9
$DIMTSZ
 40
0.0
  9
$DIMTOL
 70
     0
  9
$DIMLIM
 70
     0
  9
$DIMTIH
 70
     0
  9
$DIMTOH
 70
     0
  9
$DIMSE1
 70
     0
  9
$DIMSE2
 70
     0
  9
$DIMTAD
 70
     1
  9
$DIMZIN
 70
     0
  9
$DIMBLK
  1

  9
$DIMASO
 70
     1
  9
$DIMSHO
 70
     0
  9
$DIMPOST
  1

  9
$DIMAPOST
  1

  9
$DIMALT
 70
     0
  9
$DIMALTD
 70
     2
  9
$DIMALTF
 40
25.399999999999999
  9
$DIMLFAC
 40
1.0
  9
$DIMTOFL
 70
     1
  9
$DIMTVP
 40
1.6000000000000001
  9
$DIMTIX
 70
     1
  9
$DIMSOXD
 70
     0
  9
$DIMSAH
 70
     0
  9
$DIMBLK1
  1

  9
$DIMBLK2
  1

  9
$DIMSTYLE
  2
STANDARD
  9
$DIMCLRD
 70
     0
  9
$DIMCLRE
 70
     0
  9
$DIMCLRT
 70
     0
  9
$DIMTFAC
 40
1.0
  9
$DIMGAP
 40
1.0
  9
$LUNITS
 70
     2
  9
$LUPREC
 70
     4
  9
$SKETCHINC
 40
0.1
  9
$FILLETRAD
 40
0.0
  9
$AUNITS
 70
     0
  9
$AUPREC
 70
     4
  9
$MENU
  1
E:\r13\win\SUPPORT\ACAD
  9
$ELEVATION
 40
0.0
  9
$PELEVATION
 40
0.0
  9
$THICKNESS
 40
0.0
  9
$LIMCHECK
 70
     0
  9
$BLIPMODE
 70
     0
  9
$CHAMFERA
 40
0.0
  9
$CHAMFERB
 40
0.0
  9
$SKPOLY
 70
     0
  9
$TDCREATE
 40
2450280.598206134
  9
$TDUPDATE
 40
2456598.4887682181
  9
$TDINDWG
 40
0.0802844792
  9
$TDUSRTIMER
 40
0.0802844792
  9
$USRTIMER
 70
     1
  9
$ANGBASE
 50
0.0
  9
$ANGDIR
 70
     0
  9
$PDMODE
 70
     0
  9
$PDSIZE
 40
0.0
  9
$PLINEWID
 40
0.0
  9
$COORDS
 70
     1
  9
$SPLFRAME
 70
     0
  9
$SPLINETYPE
 70
     6
  9
$SPLINESEGS
 70
     8
  9
$ATTDIA
 70
     0
  9
$ATTREQ
 70
     1
  9
$HANDLING
 70
     1
  9
$HANDSEED
  5
142A
  9
$SURFTAB1
 70
     6
  9
$SURFTAB2
 70
     6
  9
$SURFTYPE
 70
     6
  9
$SURFU
 70
     6
  9
$SURFV
 70
     6
  9
$UCSNAME
  2

  9
$UCSORG
 10
0.0
 20
0.0
 30
0.0
  9
$UCSXDIR
 10
1.0
 20
0.0
 30
0.0
  9
$UCSYDIR
 10
0.0
 20
1.0
 30
0.0
  9
$PUCSNAME
  2

  9
$PUCSORG
 10
0.0
 20
0.0
 30
0.0
  9
$PUCSXDIR
 10
1.0
 20
0.0
 30
0.0
  9
$PUCSYDIR
 10
0.0
 20
1.0
 30
0.0
  9
$USERI1
 70
     3
  9
$USERI2
 70
     1
  9
$USERI3
 70
     1
  9
$USERI4
 70
     0
  9
$USERI5
 70
     0
  9
$USERR1
 40
1.0
  9
$USERR2
 40
3.0
  9
$USERR3
 40
3.0
  9
$USERR4
 40
3.0
  9
$USERR5
 40
10.0
  9
$WORLDVIEW
 70
     1
  9
$SHADEDGE
 70
     3
  9
$SHADEDIF
 70
    70
  9
$TILEMODE
 70
     1
  9
$MAXACTVP
 70
    16
  9
$PLIMCHECK
 70
     0
  9
$PEXTMIN
 10
1.0000000000000000E+020
 20
1.0000000000000000E+020
 30
1.0000000000000000E+020
  9
$PEXTMAX
 10
-1.0000000000000000E+020
 20
-1.0000000000000000E+020
 30
-1.0000000000000000E+020
  9
$PLIMMIN
 10
0.0
 20
0.0
  9
$PLIMMAX
 10
12.0
 20
9.0
  9
$UNITMODE
 70
     0
  9
$VISRETAIN
 70
     0
  9
$PLINEGEN
 70
     0
  9
$PSLTSCALE
 70
     0
  0
ENDSEC
  0
SECTION
  2
TABLES
  0
TABLE
  2
VPORT
 70
     1
  0
VPORT
  2
*ACTIVE
 70
     0
 10
0.0
 20
0.0
 11
1.0
 21
1.0
 12
192.49412581440311
 22
175.433388831352
 13
0.0
 23
0.0
 14
5.0
 24
5.0
 15
10.0
 25
10.0
 16
0.0
 26
0.0
 36
1.0
 17
0.0
 27
0.0
 37
0.0
 40
356.9701552237488
 41
1.7807262569832401
 42
50.0
 43
0.0
 44
0.0
 50
0.0
 51
0.0
 71
     0
 72
   500
 73
     1
 74
     0
 75
     0
 76
     0
 77
     0
 78
     2
  0
ENDTAB
  0
TABLE
  2
LTYPE
 70
     3
  0
LTYPE
  2
CONTINUOUS
 70
     0
  3
Solid Line
 72
    65
 73
     0
 40
0.0
  0
LTYPE
  2
CENTER
 70
     0
  3
____ _ ____ _ ____ _ ____ _ ____ _ ____ _ ____
 72
    65
 73
     4
 40
2.0
 49
1.25
 49
-0.25
 49
0.25
 49
-0.25
  0
LTYPE
  2
PHANTOM2
 70
     0
  3
___ _ _ ___ _ _ ___ _ _ ___ _ _
 72
    65
 73
     6
 40
1.25
 49
0.625
 49
-0.125
 49
0.125
 49
-0.125
 49
0.125
 49
-0.125
  0
ENDTAB
  0
TABLE
  2
LAYER
 70
     3
  0
LAYER
  2
0
 70
     0
 62
     7
  6
CONTINUOUS
  0
LAYER
  2
1
 70
     0
 62
     1
  6
CENTER
  0
LAYER
  2
3
 70
     0
 62
     3
  6
CONTINUOUS
  0
ENDTAB
  0
TABLE
  2
STYLE
 70
     2
  0
STYLE
  2
STANDARD
 70
     0
 40
0.0
 41
1.0
 50
0.0
 71
     0
 42
4.000000000000048
  3
SIMPLEX
  4
BIGFONT
  0
STYLE
  2
STANDARD1
 70
     0
 40
0.0
 41
1.0
 50
0.0
 71
     0
 42
3.0
  3
txt
  4

  0
ENDTAB
  0
TABLE
  2
VIEW
 70
     0
  0
ENDTAB
  0
TABLE
  2
UCS
 70
     0
  0
ENDTAB
  0
TABLE
  2
APPID
 70
     3
  0
APPID
  2
ACAD
 70
     0
  0
APPID
  2
ACAD_MLEADERVER
 70
     0
  0
APPID
  2
ACAD_NAV_VCDISPLAY
 70
     0
  0
ENDTAB
  0
TABLE
  2
DIMSTYLE
 70
     1
  0
DIMSTYLE
  2
STANDARD
 70
     0
  3

  4

  5

  6

  7

 40
1.0
 41
0.18
 42
0.0625
 43
0.38
 44
0.18
 45
0.0
 46
0.0
 47
0.0
 48
0.0
140
0.18
141
0.09
142
0.0
143
25.399999999999999
144
1.0
145
0.0
146
1.0
147
0.09
 71
     0
 72
     0
 73
     1
 74
     1
 75
     0
 76
     0
 77
     0
 78
     0
170
     0
171
     2
172
     0
173
     0
174
     0
175
     0
176
     0
177
     0
178
     0
  0
ENDTAB
  0
ENDSEC
  0
SECTION
  2
BLOCKS
  0
BLOCK
  8
0
  2
$MODEL_SPACE
 70
     0
 10
0.0
 20
0.0
 30
0.0
  3
$MODEL_SPACE
  1

  0
ENDBLK
  5
12B8
  8
0
  0
BLOCK
 67
     1
  8
0
  2
$PAPER_SPACE
 70
     0
 10
0.0
 20
0.0
 30
0.0
  3
$PAPER_SPACE
  1

  0
ENDBLK
  5
12B6
 67
     1
  8
0
  0
BLOCK
  8
0
  2
STDGX5
 70
     0
 10
0.0
 20
0.0
 30
0.0
  3
STDGX5
  1

  0
ENDBLK
  5
100F
  8
0
  0
ENDSEC
  0
SECTION
  2
ENTITIES
  0
INSERT
  5
1039
  8
0
  2
STDGX5
 10
0.0
 20
0.0
 30
0.0
 41
0.25
 42
0.25
 43
0.25
  0
INSERT
  5
103A
  8
0
  2
STDGX5
 10
0.0
 20
0.0
 30
0.0
 41
0.25
 42
0.25
 43
0.25
  0
INSERT
  5
103B
  8
0
  2
STDGX5
 10
68.75
 20
0.0
 30
0.0
 41
0.25
 42
0.25
 43
0.25
  0
INSERT
  5
103C
  8
0
  2
STDGX5
 10
68.75
 20
0.0
 30
0.0
 41
0.25
 42
0.25
 43
0.25
  0
INSERT
  5
103D
  8
0
  2
STDGX5
 10
0.0
 20
0.0
 30
0.0
 41
0.5
 42
0.5
 43
0.5
  0
INSERT
  5
103E
  8
0
  2
STDGX5
 10
0.0
 20
0.0
 30
0.0
 41
0.5
 42
0.5
 43
0.5
  0
INSERT
  5
103F
  8
0
  2
STDGX5
 10
137.5
 20
0.0
 30
0.0
 41
0.5
 42
0.5
 43
0.5
  0
INSERT
  5
1040
  8
0
  2
STDGX5
 10
137.5
 20
0.0
 30
0.0
 41
0.5
 42
0.5
 43
0.5
  0
INSERT
  5
1042
  8
0
  2
STDGX5
 10
-35.0
 20
-100.0
 30
0.0
 41
0.3333333333333333
 42
0.3333333333333333
 43
0.3333333333333333
  0
INSERT
  5
1043
  8
0
  2
STDGX5
 10
-35.0
 20
-100.0
 30
0.0
 41
0.3333333333333333
 42
0.3333333333333333
 43
0.3333333333333333
  0
INSERT
  5
1044
  8
0
  2
STDGX5
 10
56.666666666666643
 20
-100.0
 30
0.0
 41
0.3333333333333333
 42
0.3333333333333333
 43
0.3333333333333333
  0
INSERT
  5
1045
  8
0
  2
STDGX5
 10
56.666666666666643
 20
-100.0
 30
0.0
 41
0.3333333333333333
 42
0.3333333333333333
 43
0.3333333333333333
  0
INSERT
  5
1047
  8
0
  2
STDGX5
 10
-35.0
 20
-100.0
 30
0.0
 41
0.3333333333333333
 42
0.3333333333333333
 43
0.3333333333333333
  0
INSERT
  5
1048
  8
0
  2
STDGX5
 10
-35.0
 20
-100.0
 30
0.0
 41
0.3333333333333333
 42
0.3333333333333333
 43
0.3333333333333333
  0
INSERT
  5
1049
  8
0
  2
STDGX5
 10
56.666666666666657
 20
-100.0
 30
0.0
 41
0.3333333333333333
 42
0.3333333333333333
 43
0.3333333333333333
  0
INSERT
  5
104A
  8
0
  2
STDGX5
 10
56.666666666666657
 20
-100.0
 30
0.0
 41
0.3333333333333333
 42
0.3333333333333333
 43
0.3333333333333333
  0
INSERT
  5
104B
  8
0
  2
STDGX5
 10
0.0
 20
0.0
 30
0.0
  0
INSERT
  5
104C
  8
0
  2
STDGX5
 10
0.0
 20
0.0
 30
0.0
  0
INSERT
  5
104D
  8
0
  2
STDGX5
 10
275.0
 20
0.0
 30
0.0
  0
INSERT
  5
104E
  8
0
  2
STDGX5
 10
275.0
 20
0.0
 30
0.0
  0
LINE
  5
117A
  8
1
 10
139.23974260060979
 20
134.10502197179139
 30
0.0
 11
196.23974260060879
 21
134.10502197179139
 31
0.0
  0
LINE
  5
117B
  8
0
 10
191.23974260060871
 20
137.50502197179719
 30
0.0
 11
191.23974260060871
 21
134.70502197176791
 31
0.0
  0
LINE
  5
117C
  8
0
 10
191.23974260060871
 20
133.50502197181541
 30
0.0
 11
191.23974260060871
 21
130.7050219717712
 31
0.0
  0
LINE
  5
117D
  8
0
 10
191.23974260060871
 20
129.50502197181871
 30
0.0
 11
191.23974260060871
 21
125.1050219717914
 31
0.0
  0
ARC
  5
117E
  8
0
 10
191.23974260060271
 20
134.10502197179159
 30
0.0
 40
0.5999999999997954
 50
89.999999999424574
 51
270.00000000057543
  0
ARC
  5
117F
  8
0
 10
191.2397426006026
 20
130.10502197179491
 30
0.0
 40
0.5999999999997954
 50
89.999999999424574
 51
270.00000000057543
  0
ARC
  5
1180
  8
0
 10
191.23974260060859
 20
138.10502197179159
 30
0.0
 40
0.5999999999997954
 50
89.999999999424574
 51
270.00000000057543
  0
ARC
  5
1181
  8
0
 10
190.73974260060871
 20
143.1050219717913
 30
0.0
 40
0.5
 50
359.99999999999977
 51
89.999999999999574
  0
ARC
  5
1182
  8
0
 10
190.73974260060871
 20
125.1050219717914
 30
0.0
 40
0.5
 50
270.00000000000028
 51
359.99999999999977
  0
LINE
  5
1183
  8
0
 10
180.23974260060911
 20
127.6050219717914
 30
0.0
 11
186.23974260060919
 21
123.6050219717951
 31
0.0
  0
LINE
  5
1184
  8
0
 10
180.23974260060919
 20
140.60502197179139
 30
0.0
 11
186.23974260060919
 21
144.605021971784
 31
0.0
  0
LINE
  5
1185
  8
0
 10
173.73974260060919
 20
140.60502197179139
 30
0.0
 11
173.73974260060911
 21
127.6050219717913
 31
0.0
  0
LINE
  5
1186
  8
0
 10
173.23974260060911
 20
140.10502197179139
 30
0.0
 11
173.73974260060911
 21
140.60502197179139
 31
0.0
  0
LINE
  5
1187
  8
0
 10
173.23974260060911
 20
128.1050219717913
 30
0.0
 11
173.73974260060911
 21
127.6050219717913
 31
0.0
  0
LINE
  5
1188
  8
0
 10
190.73974260060871
 20
124.6050219717914
 30
0.0
 11
187.23974260060919
 21
124.6050219717914
 31
0.0
  0
ARC
  5
1189
  8
0
 10
186.23974260060919
 20
124.6050219717915
 30
0.0
 40
1.0
 50
270.00000000000091
 51
0.0
  0
ARC
  5
118A
  8
0
 10
186.23974260060919
 20
143.6050219717913
 30
0.0
 40
1.0
 50
0.0
 51
89.999999999999076
  0
LINE
  5
118B
  8
0
 10
187.23974260060919
 20
143.60502197179139
 30
0.0
 11
187.23974260060919
 21
124.6050219717914
 31
0.0
  0
LINE
  5
118C
  8
0
 10
186.23974260060919
 20
144.6050219717913
 30
0.0
 11
186.23974260060919
 21
123.6050219717915
 31
0.0
  0
LINE
  5
118D
  8
0
 10
180.23974260060919
 20
140.60502197179139
 30
0.0
 11
180.23974260060911
 21
127.6050219717914
 31
0.0
  0
LINE
  5
118E
  8
0
 10
190.73974260060871
 20
143.6050219717913
 30
0.0
 11
187.23974260060919
 21
143.60502197179139
 31
0.0
  0
LINE
  5
118F
  8
0
 10
191.23974260060871
 20
143.1050219717913
 30
0.0
 11
191.23974260060871
 21
138.70502197178601
 31
0.0
  0
LINE
  5
1190
  8
3
 10
149.69824260056859
 20
129.6465219717835
 30
0.0
 11
172.7812426006015
 21
129.6465219717835
 31
0.0
  0
LINE
  5
1191
  8
3
 10
149.69824260056879
 20
138.56352197179939
 30
0.0
 11
172.7812426006013
 21
138.56352197179939
 31
0.0
  0
LINE
  5
1192
  8
0
 10
173.23974260060911
 20
140.10502197179139
 30
0.0
 11
173.23974260060919
 21
128.1050219717913
 31
0.0
  0
LINE
  5
1193
  8
0
 10
150.23974260060919
 20
139.10502197183979
 30
0.0
 11
150.23974260060919
 21
129.10502197174301
 31
0.0
  0
LINE
  5
1194
  8
0
 10
149.23974260060919
 20
138.1050219718415
 30
0.0
 11
149.23974260060911
 21
130.10502197174111
 31
0.0
  0
LINE
  5
1195
  8
0
 10
180.23974260060911
 20
127.6050219717913
 30
0.0
 11
173.73974260060911
 21
127.6050219717913
 31
0.0
  0
LINE
  5
1196
  8
0
 10
172.23974260060919
 20
129.10502197178999
 30
0.0
 11
150.23974260060911
 21
129.10502197174321
 31
0.0
  0
LINE
  5
1197
  8
0
 10
149.23974260060919
 20
131.60502197179139
 30
0.0
 11
145.5397426006092
 21
131.60502197179139
 31
0.0
  0
LINE
  5
1198
  8
0
 10
149.23974260060919
 20
136.60502197179139
 30
0.0
 11
145.5397426006092
 21
136.60502197179139
 31
0.0
  0
LINE
  5
1199
  8
0
 10
172.23974260060911
 20
139.1050219717927
 30
0.0
 11
150.23974260060919
 21
139.10502197183939
 31
0.0
  0
LINE
  5
119A
  8
0
 10
180.23974260060919
 20
140.60502197179139
 30
0.0
 11
173.73974260060911
 21
140.60502197179139
 31
0.0
  0
LINE
  5
119B
  8
0
 10
170.23974260060911
 20
134.9050219717914
 30
0.0
 11
173.23974260060911
 21
134.9050219717914
 31
0.0
  0
LINE
  5
119C
  8
0
 10
170.23974260060911
 20
133.3050219717914
 30
0.0
 11
173.23974260060911
 21
133.3050219717914
 31
0.0
  0
LINE
  5
119D
  8
0
 10
170.23974260060911
 20
134.9050219717914
 30
0.0
 11
170.23974260060911
 21
133.3050219717914
 31
0.0
  0
CIRCLE
  5
119E
  8
0
 10
253.0719249529939
 20
134.10502197179139
 30
0.0
 40
10.50000000000078
  0
LINE
  5
119F
  8
1
 10
253.0719249529939
 20
118.60502197179061
 30
0.0
 11
253.0719249529939
 21
149.6050219717921
 31
0.0
  0
LINE
  5
11A0
  8
1
 10
268.57192495299472
 20
134.10502197179139
 30
0.0
 11
237.5719249529931
 21
134.10502197179139
 31
0.0
  0
CIRCLE
  5
11A1
  8
0
 10
253.0719249529939
 20
134.10502197179139
 30
0.0
 40
9.4999999999999147
  0
LINE
  5
11A2
  8
0
 10
244.7598854920677
 20
138.70502197179209
 30
0.0
 11
261.38396441392018
 21
138.70502197179209
 31
0.0
  0
LINE
  5
11A3
  8
0
 10
244.20118653953571
 20
137.50502197179111
 30
0.0
 11
261.942663366452
 21
137.50502197179111
 31
0.0
  0
LINE
  5
11A4
  8
0
 10
243.59089125407729
 20
134.70502197179511
 30
0.0
 11
262.5529586519105
 21
134.70502197179511
 31
0.0
  0
LINE
  5
11A5
  8
0
 10
243.59089125407669
 20
133.50502197179111
 30
0.0
 11
262.55295865191073
 21
133.50502197179111
 31
0.0
  0
LINE
  5
11A6
  8
0
 10
244.20118653953551
 20
130.70502197179229
 30
0.0
 11
261.94266336645222
 21
130.70502197179229
 31
0.0
  0
LINE
  5
11A7
  8
0
 10
244.75988549206599
 20
129.50502197179441
 30
0.0
 11
261.38396441392189
 21
129.50502197179441
 31
0.0
  0
LINE
  5
11A8
  8
0
 10
145.5397426006092
 20
136.60502197179139
 30
0.0
 11
145.5397426006092
 21
131.60502197179139
 31
0.0
  0
LINE
  5
11A9
  8
0
 10
145.5397426006092
 20
131.60502197179139
 30
0.0
 11
144.65162006831579
 21
132.1177797548844
 31
0.0
  0
LINE
  5
11AA
  8
0
 10
145.5397426006092
 20
136.60502197179139
 30
0.0
 11
144.65162006831579
 21
136.09226418869841
 31
0.0
  0
ARC
  5
11AB
  8
0
 10
149.23974260060919
 20
134.10502197179139
 30
0.0
 40
5.0
 50
156.58123504463009
 51
203.4187649553696
  0
LINE
  5
11AC
  8
0
 10
144.6516200683154
 20
132.11777975488459
 30
0.0
 11
144.65162006831579
 21
136.09226418869841
 31
0.0
  0
LINE
  5
11AD
  8
0
 10
172.23974260060919
 20
129.10502197178999
 30
0.0
 11
173.23974260060919
 21
130.1050219717921
 31
0.0
  0
LINE
  5
11AE
  8
0
 10
172.23974260060911
 20
139.1050219717927
 30
0.0
 11
173.23974260060911
 21
138.10502197179059
 31
0.0
  0
LINE
  5
11AF
  8
0
 10
150.23974260060919
 20
139.10502197183939
 30
0.0
 11
149.23974260060919
 21
138.1050219718415
 31
0.0
  0
LINE
  5
11B0
  8
0
 10
149.23974260060911
 20
130.10502197174111
 30
0.0
 11
150.23974260060911
 21
129.10502197174321
 31
0.0
  0
LINE
  5
11B1
  8
0
 10
172.23974260060911
 20
139.1050219717927
 30
0.0
 11
172.23974260060911
 21
134.9050219717914
 31
0.0
  0
LINE
  5
11B2
  8
0
 10
172.23974260060911
 20
133.3050219717914
 30
0.0
 11
172.23974260060911
 21
129.10502197178999
 31
0.0
  0
CIRCLE
  5
11B3
  8
0
 10
79.608613851833553
 20
134.10502197179139
 30
0.0
 40
10.50000000000078
  0
LINE
  5
11B4
  8
1
 10
95.108613851834349
 20
134.10502197179139
 30
0.0
 11
64.108613851832786
 21
134.10502197179139
 31
0.0
  0
LINE
  5
11B5
  8
1
 10
79.608613851833553
 20
149.6050219717921
 30
0.0
 11
79.608613851833553
 21
118.60502197179061
 31
0.0
  0
CIRCLE
  5
11B6
  8
0
 10
79.608613851833553
 20
134.10502197179139
 30
0.0
 40
6.500000000000056
  0
CIRCLE
  5
11B7
  8
0
 10
79.608613851833553
 20
134.10502197179139
 30
0.0
 40
5.0
  0
CIRCLE
  5
11B8
  8
3
 10
79.608613851833553
 20
134.10502197179139
 30
0.0
 40
4.1879999999999988
  0
CIRCLE
  5
11B9
  8
0
 10
79.608613851833553
 20
134.10502197179139
 30
0.0
 40
2.5
  0
CIRCLE
  5
11BA
  8
0
 10
79.608613851833553
 20
134.10502197179139
 30
0.0
 40
1.9872422169070201
  0
LINE
  5
11BB
  8
0
 10
172.23974260060911
 20
197.76098053827289
 30
0.0
 11
172.23974260060911
 21
187.76098053827019
 31
0.0
  0
LINE
  5
11BC
  8
0
 10
149.23974260060911
 20
188.76098053822119
 30
0.0
 11
150.23974260060911
 21
187.76098053822341
 31
0.0
  0
LINE
  5
11BD
  8
0
 10
150.23974260060919
 20
197.76098053831959
 30
0.0
 11
149.23974260060919
 21
196.76098053832169
 31
0.0
  0
LINE
  5
11BE
  8
0
 10
172.23974260060911
 20
197.76098053827289
 30
0.0
 11
173.23974260060911
 21
196.7609805382707
 31
0.0
  0
LINE
  5
11BF
  8
0
 10
172.23974260060919
 20
187.76098053827019
 30
0.0
 11
173.23974260060919
 21
188.76098053827229
 31
0.0
  0
LINE
  5
11C0
  8
0
 10
144.6516200683154
 20
190.77373832136479
 30
0.0
 11
144.65162006831579
 21
194.7482227551786
 31
0.0
  0
ARC
  5
11C1
  8
0
 10
149.23974260060919
 20
192.7609805382715
 30
0.0
 40
5.0
 50
156.58123504463009
 51
203.4187649553696
  0
LINE
  5
11C2
  8
0
 10
145.5397426006092
 20
195.26098053827161
 30
0.0
 11
144.65162006831579
 21
194.7482227551786
 31
0.0
  0
LINE
  5
11C3
  8
0
 10
145.5397426006092
 20
190.26098053827161
 30
0.0
 11
144.65162006831579
 21
190.7737383213645
 31
0.0
  0
LINE
  5
11C4
  8
0
 10
145.5397426006092
 20
195.26098053827161
 30
0.0
 11
145.5397426006092
 21
190.26098053827161
 31
0.0
  0
LINE
  5
11C5
  8
0
 10
180.23974260060919
 20
199.26098053827161
 30
0.0
 11
173.73974260060911
 21
199.26098053827161
 31
0.0
  0
LINE
  5
11C6
  8
0
 10
172.23974260060911
 20
197.76098053827289
 30
0.0
 11
150.23974260060919
 21
197.76098053831959
 31
0.0
  0
LINE
  5
11C7
  8
0
 10
149.23974260060919
 20
195.26098053827161
 30
0.0
 11
145.5397426006092
 21
195.26098053827161
 31
0.0
  0
LINE
  5
11C8
  8
0
 10
149.23974260060919
 20
190.26098053827161
 30
0.0
 11
145.5397426006092
 21
190.26098053827161
 31
0.0
  0
LINE
  5
11C9
  8
0
 10
172.23974260060919
 20
187.76098053827019
 30
0.0
 11
150.23974260060911
 21
187.76098053822341
 31
0.0
  0
LINE
  5
11CA
  8
0
 10
180.23974260060919
 20
186.26098053827161
 30
0.0
 11
173.73974260060911
 21
186.2609805382715
 31
0.0
  0
LINE
  5
11CB
  8
0
 10
149.23974260060919
 20
196.76098053832169
 30
0.0
 11
149.23974260060911
 21
188.76098053822119
 31
0.0
  0
LINE
  5
11CC
  8
0
 10
150.23974260060919
 20
197.7609805383199
 30
0.0
 11
150.23974260060919
 21
187.76098053822309
 31
0.0
  0
LINE
  5
11CD
  8
0
 10
173.23974260060911
 20
198.76098053827161
 30
0.0
 11
173.23974260060919
 21
186.7609805382715
 31
0.0
  0
LINE
  5
11CE
  8
3
 10
149.69824260056879
 20
197.2194805382795
 30
0.0
 11
172.7812426006013
 21
197.2194805382795
 31
0.0
  0
LINE
  5
11CF
  8
3
 10
149.69824260056859
 20
188.30248053826369
 30
0.0
 11
172.7812426006015
 21
188.30248053826361
 31
0.0
  0
LINE
  5
11D0
  8
0
 10
190.73974260060871
 20
202.2609805382715
 30
0.0
 11
187.23974260060919
 21
202.2609805382717
 31
0.0
  0
LINE
  5
11D1
  8
0
 10
180.23974260060919
 20
199.26098053827161
 30
0.0
 11
180.23974260060911
 21
186.26098053827161
 31
0.0
  0
LINE
  5
11D2
  8
0
 10
186.23974260060919
 20
203.2609805382715
 30
0.0
 11
186.23974260060919
 21
182.2609805382717
 31
0.0
  0
LINE
  5
11D3
  8
0
 10
187.23974260060919
 20
202.2609805382717
 30
0.0
 11
187.23974260060919
 21
183.2609805382715
 31
0.0
  0
ARC
  5
11D4
  8
0
 10
186.23974260060919
 20
202.2609805382715
 30
0.0
 40
1.0
 50
0.0
 51
89.999999999999076
  0
ARC
  5
11D5
  8
0
 10
186.23974260060919
 20
183.2609805382717
 30
0.0
 40
1.0
 50
270.00000000000091
 51
0.0
  0
LINE
  5
11D6
  8
0
 10
190.73974260060871
 20
183.26098053827161
 30
0.0
 11
187.23974260060919
 21
183.2609805382715
 31
0.0
  0
LINE
  5
11D7
  8
0
 10
173.23974260060911
 20
186.7609805382715
 30
0.0
 11
173.73974260060911
 21
186.2609805382715
 31
0.0
  0
LINE
  5
11D8
  8
0
 10
173.23974260060911
 20
198.76098053827161
 30
0.0
 11
173.73974260060911
 21
199.26098053827161
 31
0.0
  0
LINE
  5
11D9
  8
0
 10
173.73974260060919
 20
199.26098053827161
 30
0.0
 11
173.73974260060911
 21
186.2609805382715
 31
0.0
  0
LINE
  5
11DA
  8
0
 10
180.23974260060919
 20
199.26098053827161
 30
0.0
 11
186.23974260060919
 21
203.26098053826419
 31
0.0
  0
LINE
  5
11DB
  8
0
 10
180.23974260060911
 20
186.26098053827161
 30
0.0
 11
186.23974260060919
 21
182.26098053827531
 31
0.0
  0
ARC
  5
11DC
  8
0
 10
190.73974260060871
 20
183.76098053827161
 30
0.0
 40
0.5
 50
270.00000000000028
 51
359.99999999999977
  0
ARC
  5
11DD
  8
0
 10
190.73974260060871
 20
201.7609805382715
 30
0.0
 40
0.5
 50
359.99999999999977
 51
89.999999999999574
  0
LINE
  5
11DE
  8
0
 10
191.23974260060871
 20
201.7609848032327
 30
0.0
 11
191.23974260060871
 21
201.63171895173051
 31
0.0
  0
LINE
  5
11DF
  8
1
 10
139.23974260060979
 20
192.7609805382715
 30
0.0
 11
196.23974260060879
 21
192.7609805382715
 31
0.0
  0
POLYLINE
  5
11E0
  8
0
 66
     1
 10
0.0
 20
0.0
 30
0.0
  0
VERTEX
  5
11E1
  8
0
 10
190.6397426006088
 20
201.37329520217611
 30
0.0
  0
VERTEX
  5
11E2
  8
0
 10
190.64848930287181
 20
201.3231962370032
 30
0.0
  0
VERTEX
  5
11E3
  8
0
 10
190.6763851277102
 20
201.27155417997909
 30
0.0
  0
VERTEX
  5
11E4
  8
0
 10
190.7325146288151
 20
201.2138961002648
 30
0.0
 42
0.0519712727389719
  0
VERTEX
  5
11E5
  8
0
 10
190.8154785318969
 20
201.1609685699282
 30
0.0
 42
0.0324629890733826
 70
     2
 50
333.41392872151761
  0
VERTEX
  5
11E6
  8
0
 10
190.90449852251049
 20
201.12342474089189
 30
0.0
 42
0.0326545347734864
 50
333.41392872151761
  0
VERTEX
  5
11E7
  8
0
 10
190.9970939769116
 20
201.09790560332331
 30
0.0
 42
0.0253643116560398
 50
333.41392872151761
  0
VERTEX
  5
11E8
  8
0
 10
191.11824108689751
 20
201.0792341892278
 30
0.0
 42
0.0255557785499755
 50
333.41392872151761
  0
VERTEX
  5
11E9
  8
0
 10
191.23974260060871
 20
201.07301999920179
 30
0.0
 42
0.0255557785496849
  0
SEQEND
  5
11EA
  8
0
  0
POLYLINE
  5
11EB
  8
0
 66
     1
 10
0.0
 20
0.0
 30
0.0
  0
VERTEX
  5
11EC
  8
0
 10
191.23974260060871
 20
201.63171895172911
 30
0.0
 42
0.0220719526212191
  0
VERTEX
  5
11ED
  8
0
 10
191.11851482844321
 20
201.626364876091
 30
0.0
 42
0.0216137450917996
  0
VERTEX
  5
11EE
  8
0
 10
190.99566860471799
 20
201.61011755463761
 30
0.0
  0
VERTEX
  5
11EF
  8
0
 10
190.9047165474006
 20
201.5885176012734
 30
0.0
 42
0.028776312997596
  0
VERTEX
  5
11F0
  8
0
 10
190.8154785318969
 20
201.55602838790469
 30
0.0
 42
0.0498188495447864
 70
     2
 50
203.3018467024938
  0
VERTEX
  5
11F1
  8
0
 10
190.7288530981057
 20
201.5079993645235
 30
0.0
 50
203.30184670249369
  0
VERTEX
  5
11F2
  8
0
 10
190.67382648526359
 20
201.45790708146501
 30
0.0
 50
203.30184670249369
  0
VERTEX
  5
11F3
  8
0
 10
190.64772919817599
 20
201.41449618052209
 30
0.0
 50
203.30184670249369
  0
VERTEX
  5
11F4
  8
0
 10
190.6397426006088
 20
201.37329520217611
 30
0.0
  0
SEQEND
  5
11F5
  8
0
  0
LINE
  5
11F6
  8
0
 10
191.23974260060871
 20
201.07301999919929
 30
0.0
 11
191.23974260060871
 21
184.44894107734069
 31
0.0
  0
POLYLINE
  5
11F7
  8
0
 66
     1
 10
0.0
 20
0.0
 30
0.0
  0
VERTEX
  5
11F8
  8
0
 10
191.23974260060871
 20
183.89024212481399
 30
0.0
 42
-0.0220719526212191
  0
VERTEX
  5
11F9
  8
0
 10
191.11851482844321
 20
183.8955962004521
 30
0.0
 42
-0.0216137450917996
  0
VERTEX
  5
11FA
  8
0
 10
190.99566860471799
 20
183.91184352190541
 30
0.0
  0
VERTEX
  5
11FB
  8
0
 10
190.9047165474006
 20
183.93344347526971
 30
0.0
 42
-0.028776312997596
  0
VERTEX
  5
11FC
  8
0
 10
190.8154785318969
 20
183.96593268863839
 30
0.0
 42
-0.0498188495447864
 70
     2
 50
156.69815329750631
  0
VERTEX
  5
11FD
  8
0
 10
190.7288530981057
 20
184.01396171201961
 30
0.0
  0
VERTEX
  5
11FE
  8
0
 10
190.67382648526359
 20
184.06405399507801
 30
0.0
  0
VERTEX
  5
11FF
  8
0
 10
190.64772919817599
 20
184.10746489602101
 30
0.0
  0
VERTEX
  5
1200
  8
0
 10
190.6397426006088
 20
184.14866587436691
 30
0.0
  0
SEQEND
  5
1201
  8
0
  0
POLYLINE
  5
1202
  8
0
 66
     1
 10
0.0
 20
0.0
 30
0.0
  0
VERTEX
  5
1203
  8
0
 10
190.6397426006088
 20
184.14866587436691
 30
0.0
  0
VERTEX
  5
1204
  8
0
 10
190.64848930287181
 20
184.1987648395399
 30
0.0
  0
VERTEX
  5
1205
  8
0
 10
190.6763851277102
 20
184.25040689656399
 30
0.0
  0
VERTEX
  5
1206
  8
0
 10
190.7325146288151
 20
184.3080649762783
 30
0.0
 42
-0.0519712727389719
  0
VERTEX
  5
1207
  8
0
 10
190.8154785318969
 20
184.36099250661491
 30
0.0
 42
-0.0324629890733826
 70
     2
 50
26.586071278482329
  0
VERTEX
  5
1208
  8
0
 10
190.90449852251049
 20
184.39853633565119
 30
0.0
 42
-0.0326545347734864
  0
VERTEX
  5
1209
  8
0
 10
190.9970939769116
 20
184.42405547321979
 30
0.0
 42
-0.0253643116560398
  0
VERTEX
  5
120A
  8
0
 10
191.11824108689751
 20
184.4427268873153
 30
0.0
 42
-0.0255557785499755
  0
VERTEX
  5
120B
  8
0
 10
191.23974260060871
 20
184.44894107734129
 30
0.0
 42
-0.0255557785496849
  0
SEQEND
  5
120C
  8
0
  0
LINE
  5
120D
  8
0
 10
191.23974260060871
 20
183.7609762733104
 30
0.0
 11
191.23974260060871
 21
183.8902421248126
 31
0.0
  0
LINE
  5
120E
  8
0
 10
191.23974260060871
 20
183.8902421248153
 30
0.0
 11
191.23974260060871
 21
183.76098053827161
 31
0.0
  0
LINE
  5
120F
  8
0
 10
191.23974260060871
 20
84.31980181876753
 30
0.0
 11
191.23974260060871
 21
84.449063405311193
 31
0.0
  0
LINE
  5
1210
  8
0
 10
191.23974260060871
 20
84.449067670272456
 30
0.0
 11
191.23974260060871
 21
84.319801818770216
 31
0.0
  0
POLYLINE
  5
1211
  8
0
 66
     1
 10
0.0
 20
0.0
 30
0.0
  0
VERTEX
  5
1212
  8
0
 10
190.6397426006088
 20
84.061378069215905
 30
0.0
  0
VERTEX
  5
1213
  8
0
 10
190.64848930287181
 20
84.011279104042927
 30
0.0
  0
VERTEX
  5
1214
  8
0
 10
190.6763851277102
 20
83.959637047018788
 30
0.0
  0
VERTEX
  5
1215
  8
0
 10
190.7325146288151
 20
83.901978967304544
 30
0.0
 42
0.0519712727389719
  0
VERTEX
  5
1216
  8
0
 10
190.8154785318969
 20
83.849051436967883
 30
0.0
 42
0.0324629890733826
 70
     2
 50
333.41392872151761
  0
VERTEX
  5
1217
  8
0
 10
190.90449852251049
 20
83.811507607931588
 30
0.0
 42
0.0326545347734864
  0
VERTEX
  5
1218
  8
0
 10
190.9970939769116
 20
83.785988470363037
 30
0.0
 42
0.0253643116560398
  0
VERTEX
  5
1219
  8
0
 10
191.11824108689751
 20
83.767317056267515
 30
0.0
 42
0.0255557785499755
  0
VERTEX
  5
121A
  8
0
 10
191.23974260060871
 20
83.761102866241487
 30
0.0
 42
0.0255557785496849
  0
SEQEND
  5
121B
  8
0
  0
POLYLINE
  5
121C
  8
0
 66
     1
 10
0.0
 20
0.0
 30
0.0
  0
VERTEX
  5
121D
  8
0
 10
191.23974260060871
 20
84.319801818768795
 30
0.0
 42
0.0220719526212191
  0
VERTEX
  5
121E
  8
0
 10
191.11851482844321
 20
84.314447743130728
 30
0.0
 42
0.0216137450917996
  0
VERTEX
  5
121F
  8
0
 10
190.99566860471799
 20
84.298200421677365
 30
0.0
  0
VERTEX
  5
1220
  8
0
 10
190.9047165474006
 20
84.276600468313106
 30
0.0
 42
0.028776312997596
  0
VERTEX
  5
1221
  8
0
 10
190.8154785318969
 20
84.244111254944414
 30
0.0
 42
0.0498188495447864
 70
     2
 50
203.3018467024938
  0
VERTEX
  5
1222
  8
0
 10
190.7288530981057
 20
84.196082231563196
 30
0.0
  0
VERTEX
  5
1223
  8
0
 10
190.67382648526359
 20
84.145989948504791
 30
0.0
  0
VERTEX
  5
1224
  8
0
 10
190.64772919817599
 20
84.102579047561818
 30
0.0
  0
VERTEX
  5
1225
  8
0
 10
190.6397426006088
 20
84.061378069215905
 30
0.0
  0
SEQEND
  5
1226
  8
0
  0
LINE
  5
1227
  8
0
 10
191.23974260060871
 20
67.137023944383486
 30
0.0
 11
191.23974260060871
 21
83.761102866242112
 31
0.0
  0
POLYLINE
  5
1228
  8
0
 66
     1
 10
0.0
 20
0.0
 30
0.0
  0
VERTEX
  5
1229
  8
0
 10
191.23974260060871
 20
66.578324991853734
 30
0.0
 42
-0.0220719526212191
  0
VERTEX
  5
122A
  8
0
 10
191.11851482844321
 20
66.583679067491829
 30
0.0
 42
-0.0216137450917996
  0
VERTEX
  5
122B
  8
0
 10
190.99566860471799
 20
66.599926388945192
 30
0.0
  0
VERTEX
  5
122C
  8
0
 10
190.9047165474006
 20
66.621526342309437
 30
0.0
 42
-0.028776312997596
  0
VERTEX
  5
122D
  8
0
 10
190.8154785318969
 20
66.654015555678143
 30
0.0
 42
-0.0498188495447864
 70
     2
 50
156.69815329750631
  0
VERTEX
  5
122E
  8
0
 10
190.7288530981057
 20
66.702044579059361
 30
0.0
  0
VERTEX
  5
122F
  8
0
 10
190.67382648526359
 20
66.752136862117766
 30
0.0
  0
VERTEX
  5
1230
  8
0
 10
190.64772919817599
 20
66.795547763060739
 30
0.0
  0
VERTEX
  5
1231
  8
0
 10
190.6397426006088
 20
66.836748741406666
 30
0.0
  0
SEQEND
  5
1232
  8
0
  0
POLYLINE
  5
1233
  8
0
 66
     1
 10
0.0
 20
0.0
 30
0.0
  0
VERTEX
  5
1234
  8
0
 10
190.6397426006088
 20
66.836748741406666
 30
0.0
  0
VERTEX
  5
1235
  8
0
 10
190.64848930287181
 20
66.88684770657963
 30
0.0
  0
VERTEX
  5
1236
  8
0
 10
190.6763851277102
 20
66.938489763603769
 30
0.0
  0
VERTEX
  5
1237
  8
0
 10
190.7325146288151
 20
66.996147843318028
 30
0.0
 42
-0.0519712727389719
  0
VERTEX
  5
1238
  8
0
 10
190.8154785318969
 20
67.049075373654659
 30
0.0
 42
-0.0324629890733826
 70
     2
 50
26.586071278482329
  0
VERTEX
  5
1239
  8
0
 10
190.90449852251049
 20
67.086619202690969
 30
0.0
 42
-0.0326545347734864
  0
VERTEX
  5
123A
  8
0
 10
190.9970939769116
 20
67.11213834025952
 30
0.0
 42
-0.0253643116560398
  0
VERTEX
  5
123B
  8
0
 10
191.11824108689751
 20
67.130809754355013
 30
0.0
 42
-0.0255557785499755
  0
VERTEX
  5
123C
  8
0
 10
191.23974260060871
 20
67.13702394438107
 30
0.0
 42
-0.0255557785496849
  0
SEQEND
  5
123D
  8
0
  0
LINE
  5
123E
  8
1
 10
139.23974260060979
 20
75.44906340531125
 30
0.0
 11
196.23974260060879
 21
75.449063405311264
 31
0.0
  0
LINE
  5
123F
  8
0
 10
191.23974260060871
 20
66.449059140350101
 30
0.0
 11
191.23974260060871
 21
66.578324991852355
 31
0.0
  0
ARC
  5
1240
  8
0
 10
190.73974260060871
 20
66.449063405311307
 30
0.0
 40
0.5
 50
270.0000000000004
 51
0.0000000000002036
  0
ARC
  5
1241
  8
0
 10
190.73974260060871
 20
84.449063405311193
 30
0.0
 40
0.5
 50
0.0000000000002036
 51
89.999999999999645
  0
LINE
  5
1242
  8
0
 10
180.23974260060911
 20
81.949063405311236
 30
0.0
 11
186.23974260060919
 21
85.949063405307498
 31
0.0
  0
LINE
  5
1243
  8
0
 10
180.23974260060919
 20
68.949063405311193
 30
0.0
 11
186.23974260060919
 21
64.949063405318611
 31
0.0
  0
LINE
  5
1244
  8
0
 10
173.73974260060919
 20
68.949063405311193
 30
0.0
 11
173.73974260060911
 21
81.949063405311307
 31
0.0
  0
LINE
  5
1245
  8
0
 10
173.23974260060911
 20
69.449063405311193
 30
0.0
 11
173.73974260060911
 21
68.949063405311193
 31
0.0
  0
LINE
  5
1246
  8
0
 10
173.23974260060911
 20
81.449063405311307
 30
0.0
 11
173.73974260060911
 21
81.949063405311307
 31
0.0
  0
LINE
  5
1247
  8
0
 10
190.73974260060871
 20
84.949063405311193
 30
0.0
 11
187.23974260060919
 21
84.94906340531125
 31
0.0
  0
ARC
  5
1248
  8
0
 10
186.23974260060919
 20
84.949063405311136
 30
0.0
 40
1.0
 50
0.0
 51
89.999999999999091
  0
ARC
  5
1249
  8
0
 10
186.23974260060919
 20
65.949063405311307
 30
0.0
 40
1.0
 50
270.00000000000091
 51
0.0
  0
LINE
  5
124A
  8
0
 10
187.23974260060919
 20
65.949063405311193
 30
0.0
 11
187.23974260060919
 21
84.94906340531125
 31
0.0
  0
LINE
  5
124B
  8
0
 10
186.23974260060919
 20
64.949063405311335
 30
0.0
 11
186.23974260060919
 21
85.949063405311136
 31
0.0
  0
LINE
  5
124C
  8
0
 10
180.23974260060919
 20
68.949063405311193
 30
0.0
 11
180.23974260060911
 21
81.949063405311236
 31
0.0
  0
LINE
  5
124D
  8
0
 10
190.73974260060871
 20
65.949063405311307
 30
0.0
 11
187.23974260060919
 21
65.949063405311193
 31
0.0
  0
LINE
  5
124E
  8
3
 10
149.69824260056859
 20
79.90756340531911
 30
0.0
 11
172.7812426006015
 21
79.907563405319166
 31
0.0
  0
LINE
  5
124F
  8
3
 10
149.69824260056879
 20
70.990563405303277
 30
0.0
 11
172.7812426006013
 21
70.990563405303277
 31
0.0
  0
LINE
  5
1250
  8
0
 10
173.23974260060911
 20
69.449063405311193
 30
0.0
 11
173.23974260060919
 21
81.449063405311364
 31
0.0
  0
LINE
  5
1251
  8
0
 10
150.23974260060919
 20
70.449063405262876
 30
0.0
 11
150.23974260060919
 21
80.449063405359681
 31
0.0
  0
LINE
  5
1252
  8
0
 10
149.23974260060919
 20
71.449063405261114
 30
0.0
 11
149.23974260060911
 21
79.449063405361557
 31
0.0
  0
LINE
  5
1253
  8
0
 10
180.23974260060919
 20
81.949063405311279
 30
0.0
 11
173.73974260060911
 21
81.949063405311307
 31
0.0
  0
LINE
  5
1254
  8
0
 10
172.23974260060919
 20
80.449063405312614
 30
0.0
 11
150.23974260060911
 21
80.449063405359396
 31
0.0
  0
LINE
  5
1255
  8
0
 10
149.23974260060919
 20
77.94906340531125
 30
0.0
 11
145.5397426006092
 21
77.94906340531125
 31
0.0
  0
LINE
  5
1256
  8
0
 10
149.23974260060919
 20
72.94906340531125
 30
0.0
 11
145.5397426006092
 21
72.94906340531125
 31
0.0
  0
LINE
  5
1257
  8
0
 10
172.23974260060911
 20
70.449063405309943
 30
0.0
 11
150.23974260060919
 21
70.449063405263203
 31
0.0
  0
LINE
  5
1258
  8
0
 10
180.23974260060919
 20
68.949063405311193
 30
0.0
 11
173.73974260060911
 21
68.949063405311193
 31
0.0
  0
LINE
  5
1259
  8
0
 10
145.5397426006092
 20
72.94906340531125
 30
0.0
 11
145.5397426006092
 21
77.94906340531125
 31
0.0
  0
LINE
  5
125A
  8
0
 10
145.5397426006092
 20
77.94906340531125
 30
0.0
 11
144.65162006831579
 21
77.436305622218271
 31
0.0
  0
LINE
  5
125B
  8
0
 10
145.5397426006092
 20
72.94906340531125
 30
0.0
 11
144.65162006831579
 21
73.46182118840423
 31
0.0
  0
ARC
  5
125C
  8
0
 10
149.23974260060919
 20
75.44906340531125
 30
0.0
 40
5.0
 50
156.5812350446304
 51
203.41876495536991
  0
LINE
  5
125D
  8
0
 10
144.6516200683154
 20
77.436305622218043
 30
0.0
 11
144.65162006831579
 21
73.46182118840423
 31
0.0
  0
LINE
  5
125E
  8
0
 10
172.23974260060919
 20
80.449063405312614
 30
0.0
 11
173.23974260060919
 21
79.449063405310511
 31
0.0
  0
LINE
  5
125F
  8
0
 10
172.23974260060911
 20
70.449063405309943
 30
0.0
 11
173.23974260060911
 21
71.449063405312046
 31
0.0
  0
LINE
  5
1260
  8
0
 10
150.23974260060919
 20
70.449063405263203
 30
0.0
 11
149.23974260060919
 21
71.449063405261114
 31
0.0
  0
LINE
  5
1261
  8
0
 10
149.23974260060911
 20
79.449063405361557
 30
0.0
 11
150.23974260060911
 21
80.449063405359396
 31
0.0
  0
LINE
  5
1262
  8
0
 10
172.23974260060911
 20
70.449063405309943
 30
0.0
 11
172.23974260060911
 21
80.449063405312614
 31
0.0
  0
INSERT
  5
1263
  8
0
  2
STDGX5
 10
0.0
 20
0.0
 30
0.0
 41
0.25
 42
0.25
 43
0.25
  0
INSERT
  5
1264
  8
0
  2
STDGX5
 10
0.0
 20
0.0
 30
0.0
 41
0.25
 42
0.25
 43
0.25
  0
INSERT
  5
1265
  8
0
  2
STDGX5
 10
68.75
 20
0.0
 30
0.0
 41
0.25
 42
0.25
 43
0.25
  0
INSERT
  5
1266
  8
0
  2
STDGX5
 10
68.75
 20
0.0
 30
0.0
 41
0.25
 42
0.25
 43
0.25
  0
INSERT
  5
1267
  8
0
  2
STDGX5
 10
0.0
 20
0.0
 30
0.0
 41
0.5
 42
0.5
 43
0.5
  0
INSERT
  5
1268
  8
0
  2
STDGX5
 10
0.0
 20
0.0
 30
0.0
 41
0.5
 42
0.5
 43
0.5
  0
INSERT
  5
1269
  8
0
  2
STDGX5
 10
137.5
 20
0.0
 30
0.0
 41
0.5
 42
0.5
 43
0.5
  0
INSERT
  5
126A
  8
0
  2
STDGX5
 10
137.5
 20
0.0
 30
0.0
 41
0.5
 42
0.5
 43
0.5
  0
INSERT
  5
126C
  8
0
  2
STDGX5
 10
-35.0
 20
-100.0
 30
0.0
 41
0.3333333333333333
 42
0.3333333333333333
 43
0.3333333333333333
  0
INSERT
  5
126D
  8
0
  2
STDGX5
 10
-35.0
 20
-100.0
 30
0.0
 41
0.3333333333333333
 42
0.3333333333333333
 43
0.3333333333333333
  0
INSERT
  5
126E
  8
0
  2
STDGX5
 10
56.666666666666643
 20
-100.0
 30
0.0
 41
0.3333333333333333
 42
0.3333333333333333
 43
0.3333333333333333
  0
INSERT
  5
126F
  8
0
  2
STDGX5
 10
56.666666666666643
 20
-100.0
 30
0.0
 41
0.3333333333333333
 42
0.3333333333333333
 43
0.3333333333333333
  0
INSERT
  5
1271
  8
0
  2
STDGX5
 10
-35.0
 20
-100.0
 30
0.0
 41
0.3333333333333333
 42
0.3333333333333333
 43
0.3333333333333333
  0
INSERT
  5
1272
  8
0
  2
STDGX5
 10
-35.0
 20
-100.0
 30
0.0
 41
0.3333333333333333
 42
0.3333333333333333
 43
0.3333333333333333
  0
INSERT
  5
1273
  8
0
  2
STDGX5
 10
56.666666666666657
 20
-100.0
 30
0.0
 41
0.3333333333333333
 42
0.3333333333333333
 43
0.3333333333333333
  0
INSERT
  5
1274
  8
0
  2
STDGX5
 10
56.666666666666657
 20
-100.0
 30
0.0
 41
0.3333333333333333
 42
0.3333333333333333
 43
0.3333333333333333
  0
INSERT
  5
1275
  8
0
  2
STDGX5
 10
0.0
 20
0.0
 30
0.0
  0
INSERT
  5
1276
  8
0
  2
STDGX5
 10
0.0
 20
0.0
 30
0.0
  0
INSERT
  5
1277
  8
0
  2
STDGX5
 10
275.0
 20
0.0
 30
0.0
  0
INSERT
  5
1278
  8
0
  2
STDGX5
 10
275.0
 20
0.0
 30
0.0
  0
TEXT
  5
1398
  8
0
 62
     3
 10
0.0
 20
0.0
 30
0.0
 40
5.0
  1
SDX10
  7
STANDARD1
  0
ENDSEC
  0
EOF
