  0
SECTION
  2
HEADER
  9
$ACADVER
  1
AC1009
  9
$INSBASE
 10
0.0
 20
0.0
 30
0.0
  9
$EXTMIN
 10
0.0
 20
-2.960436562073669
 30
0.0
  9
$EXTMAX
 10
239.99999998000001
 20
375.00000000569997
 30
0.0
  9
$LIMMIN
 10
0.0
 20
0.0
  9
$LIMMAX
 10
375.0
 20
270.0
  9
$ORTHOMODE
 70
     1
  9
$REGENMODE
 70
     1
  9
$FILLMODE
 70
     1
  9
$QTEXTMODE
 70
     0
  9
$MIRRTEXT
 70
     0
  9
$DRAGMODE
 70
     2
  9
$LTSCALE
 40
10.0
  9
$OSMODE
 70
    37
  9
$ATTMODE
 70
     1
  9
$TEXTSIZE
 40
4.000000000000048
  9
$TRACEWID
 40
0.05
  9
$TEXTSTYLE
  7
STANDARD
  9
$CLAYER
  8
0
  9
$CELTYPE
  6
BYLAYER
  9
$CECOLOR
 62
   256
  9
$DIMSCALE
 40
1.0
  9
$DIMASZ
 40
3.0
  9
$DIMEXO
 40
2.0
  9
$DIMDLI
 40
0.38
  9
$DIMRND
 40
0.0
  9
$DIMDLE
 40
0.0
  9
$DIMEXE
 40
2.0
  9
$DIMTP
 40
0.0
  9
$DIMTM
 40
0.0
  9
$DIMTXT
 40
3.2000000000000002
  9
$DIMCEN
 40
0.0
  9
$DIMTSZ
 40
0.0
  9
$DIMTOL
 70
     0
  9
$DIMLIM
 70
     0
  9
$DIMTIH
 70
     0
  9
$DIMTOH
 70
     0
  9
$DIMSE1
 70
     0
  9
$DIMSE2
 70
     0
  9
$DIMTAD
 70
     1
  9
$DIMZIN
 70
     0
  9
$DIMBLK
  1

  9
$DIMASO
 70
     0
  9
$DIMSHO
 70
     0
  9
$DIMPOST
  1

  9
$DIMAPOST
  1

  9
$DIMALT
 70
     0
  9
$DIMALTD
 70
     2
  9
$DIMALTF
 40
25.399999999999999
  9
$DIMLFAC
 40
1.0
  9
$DIMTOFL
 70
     0
  9
$DIMTVP
 40
1.6000000000000001
  9
$DIMTIX
 70
     1
  9
$DIMSOXD
 70
     0
  9
$DIMSAH
 70
     0
  9
$DIMBLK1
  1

  9
$DIMBLK2
  1

  9
$DIMSTYLE
  2
STANDARD
  9
$DIMCLRD
 70
     4
  9
$DIMCLRE
 70
     4
  9
$DIMCLRT
 70
     4
  9
$DIMTFAC
 40
1.0
  9
$DIMGAP
 40
0.09
  9
$LUNITS
 70
     2
  9
$LUPREC
 70
     1
  9
$SKETCHINC
 40
0.1
  9
$FILLETRAD
 40
0.0
  9
$AUNITS
 70
     0
  9
$AUPREC
 70
     0
  9
$MENU
  1
E:\r13\win\SUPPORT\ACAD
  9
$ELEVATION
 40
0.0
  9
$PELEVATION
 40
0.0
  9
$THICKNESS
 40
0.0
  9
$LIMCHECK
 70
     0
  9
$BLIPMODE
 70
     0
  9
$CHAMFERA
 40
1.1999999999999991
  9
$CHAMFERB
 40
1.1999999999999991
  9
$SKPOLY
 70
     0
  9
$TDCREATE
 40
2450095.671215394
  9
$TDUPDATE
 40
2457968.4255512152
  9
$TDINDWG
 40
0.0813661574
  9
$TDUSRTIMER
 40
0.0813661574
  9
$USRTIMER
 70
     1
  9
$ANGBASE
 50
0.0
  9
$ANGDIR
 70
     0
  9
$PDMODE
 70
     0
  9
$PDSIZE
 40
0.0
  9
$PLINEWID
 40
0.0
  9
$COORDS
 70
     1
  9
$SPLFRAME
 70
     0
  9
$SPLINETYPE
 70
     6
  9
$SPLINESEGS
 70
     8
  9
$ATTDIA
 70
     0
  9
$ATTREQ
 70
     1
  9
$HANDLING
 70
     1
  9
$HANDSEED
  5
141B
  9
$SURFTAB1
 70
     6
  9
$SURFTAB2
 70
     6
  9
$SURFTYPE
 70
     6
  9
$SURFU
 70
     6
  9
$SURFV
 70
     6
  9
$UCSNAME
  2

  9
$UCSORG
 10
0.0
 20
0.0
 30
0.0
  9
$UCSXDIR
 10
1.0
 20
0.0
 30
0.0
  9
$UCSYDIR
 10
0.0
 20
1.0
 30
0.0
  9
$PUCSNAME
  2

  9
$PUCSORG
 10
0.0
 20
0.0
 30
0.0
  9
$PUCSXDIR
 10
1.0
 20
0.0
 30
0.0
  9
$PUCSYDIR
 10
0.0
 20
1.0
 30
0.0
  9
$USERI1
 70
     0
  9
$USERI2
 70
     1
  9
$USERI3
 70
     0
  9
$USERI4
 70
     0
  9
$USERI5
 70
     0
  9
$USERR1
 40
0.0
  9
$USERR2
 40
0.0
  9
$USERR3
 40
0.0
  9
$USERR4
 40
0.0
  9
$USERR5
 40
0.0
  9
$WORLDVIEW
 70
     1
  9
$SHADEDGE
 70
     3
  9
$SHADEDIF
 70
    70
  9
$TILEMODE
 70
     1
  9
$MAXACTVP
 70
    16
  9
$PLIMCHECK
 70
     0
  9
$PEXTMIN
 10
1.0000000000000000E+020
 20
1.0000000000000000E+020
 30
1.0000000000000000E+020
  9
$PEXTMAX
 10
-1.0000000000000000E+020
 20
-1.0000000000000000E+020
 30
-1.0000000000000000E+020
  9
$PLIMMIN
 10
0.0
 20
0.0
  9
$PLIMMAX
 10
12.0
 20
9.0
  9
$UNITMODE
 70
     0
  9
$VISRETAIN
 70
     0
  9
$PLINEGEN
 70
     0
  9
$PSLTSCALE
 70
     0
  0
ENDSEC
  0
SECTION
  2
TABLES
  0
TABLE
  2
VPORT
 70
     1
  0
VPORT
  2
*ACTIVE
 70
     0
 10
0.0
 20
0.0
 11
1.0
 21
1.0
 12
454.05982905982899
 22
250.0
 13
0.0
 23
0.0
 14
10.0
 24
10.0
 15
10.0
 25
10.0
 16
0.0
 26
0.0
 36
1.0
 17
0.0
 27
0.0
 37
0.0
 40
500.0
 41
1.816239316239316
 42
50.0
 43
0.0
 44
0.0
 50
0.0
 51
0.0
 71
     0
 72
   500
 73
     1
 74
     0
 75
     0
 76
     0
 77
     0
 78
     2
  0
ENDTAB
  0
TABLE
  2
LTYPE
 70
     3
  0
LTYPE
  2
CONTINUOUS
 70
     0
  3
Solid Line
 72
    65
 73
     0
 40
0.0
  0
LTYPE
  2
CENTER
 70
     0
  3
____ _ ____ _ ____ _ ____ _ ____ _ ____ _ ____
 72
    65
 73
     4
 40
2.0
 49
1.25
 49
-0.25
 49
0.25
 49
-0.25
  0
LTYPE
  2
PHANTOM2
 70
     0
  3
___ _ _ ___ _ _ ___ _ _ ___ _ _
 72
    65
 73
     6
 40
1.25
 49
0.625
 49
-0.125
 49
0.125
 49
-0.125
 49
0.125
 49
-0.125
  0
ENDTAB
  0
TABLE
  2
LAYER
 70
     3
  0
LAYER
  2
0
 70
     0
 62
     7
  6
CONTINUOUS
  0
LAYER
  2
1
 70
     0
 62
     1
  6
CENTER
  0
LAYER
  2
DEFPOINTS
 70
     0
 62
     7
  6
CONTINUOUS
  0
ENDTAB
  0
TABLE
  2
STYLE
 70
     2
  0
STYLE
  2
STANDARD
 70
     0
 40
0.0
 41
1.0
 50
0.0
 71
     0
 42
4.000000000000048
  3
SIMPLEX
  4
BIGFONT
  0
STYLE
  2
STANDARD1
 70
     0
 40
0.0
 41
1.0
 50
0.0
 71
     0
 42
3.0
  3
txt
  4

  0
ENDTAB
  0
TABLE
  2
VIEW
 70
     1
  0
VIEW
  2
ALL
 70
     0
 40
270.0
 10
220.59941989218049
 20
135.0
 41
441.19883978436093
 11
0.0
 21
0.0
 31
1.0
 12
0.0
 22
0.0
 32
0.0
 42
50.0
 43
0.0
 44
0.0
 50
0.0
 71
     0
  0
ENDTAB
  0
TABLE
  2
UCS
 70
     0
  0
ENDTAB
  0
TABLE
  2
APPID
 70
    29
  0
APPID
  2
ACAD
 70
     0
  0
APPID
  2
DCO15
 70
     0
  0
APPID
  2
GENIUS_GENOREF_13
 70
     0
  0
APPID
  2
GENIUS_GENOENT_13
 70
     0
  0
APPID
  2
GENIUS_GENBH_13
 70
     0
  0
APPID
  2
GENIUS_GENOBJ_13
 70
     0
  0
APPID
  2
GENIUS_GENODEF_13
 70
     0
  0
APPID
  2
GENIUS_GENOLIS_13
 70
     0
  0
APPID
  2
GENIUS_GENOBJ-NBEHI-BHF_13
 70
     0
  0
APPID
  2
GENIUS_GENOBJ-NBEHI-BHB_13
 70
     0
  0
APPID
  2
GENIUS_GENOBJ-F-PART_13
 70
     0
  0
APPID
  2
GENIUS_GEFSTDP_13
 70
     0
  0
APPID
  2
GENIUS_GENOBJ-N-RSSYM_13
 70
     0
  0
APPID
  2
GENIUS_GENSYMENT_13
 70
     0
  0
APPID
  2
GENIUS_GENOBJ-N-TIT_13
 70
     0
  0
APPID
  2
GENIUS_GENTITLE_13
 70
     0
  0
APPID
  2
GENIUS_GENZVEED_13
 70
     0
  0
APPID
  2
GENIUS_GENOBJ-N-LEADER_13
 70
     0
  0
APPID
  2
GENIUS_GENOBJ-N-FIL_13
 70
     0
  0
APPID
  2
GENIUS_GENOBJ-N-SEC_13
 70
     0
  0
APPID
  2
GENIUS_GENOBJ-N-CRS_13
 70
     0
  0
APPID
  2
GENIUS_GENOBJ-N-ZOO_13
 70
     0
  0
APPID
  2
GENIUS_GENZOO_13
 70
     0
  0
APPID
  2
GENIUS_GENOBJ-F-TOL_13
 70
     0
  0
APPID
  2
GENIUS_GENFIL_13
 70
     0
  0
APPID
  2
GENIUS_GENOBJ-N-CHA_13
 70
     0
  0
APPID
  2
ACAD_MLEADERVER
 70
     0
  0
APPID
  2
ACAD_EXEMPT_FROM_CAD_STANDARDS
 70
     0
  0
APPID
  2
ACAD_NAV_VCDISPLAY
 70
     0
  0
ENDTAB
  0
TABLE
  2
DIMSTYLE
 70
     1
  0
DIMSTYLE
  2
STANDARD
 70
     0
  3

  4

  5

  6

  7

 40
1.0
 41
0.18
 42
0.0625
 43
0.38
 44
0.18
 45
0.0
 46
0.0
 47
0.0
 48
0.0
140
0.18
141
0.09
142
0.0
143
25.399999999999999
144
1.0
145
0.0
146
1.0
147
0.09
 71
     0
 72
     0
 73
     1
 74
     1
 75
     0
 76
     0
 77
     0
 78
     0
170
     0
171
     2
172
     0
173
     0
174
     0
175
     0
176
     0
177
     0
178
     0
  0
ENDTAB
  0
ENDSEC
  0
SECTION
  2
BLOCKS
  0
BLOCK
  8
0
  2
$MODEL_SPACE
 70
     0
 10
0.0
 20
0.0
 30
0.0
  3
$MODEL_SPACE
  1

  0
ENDBLK
  5
10E
  8
0
  0
BLOCK
 67
     1
  8
0
  2
$PAPER_SPACE
 70
     0
 10
0.0
 20
0.0
 30
0.0
  3
$PAPER_SPACE
  1

  0
ENDBLK
  5
10C
 67
     1
  8
0
  0
ENDSEC
  0
SECTION
  2
ENTITIES
  0
TEXT
  5
A57
  8
0
 62
     3
 10
0.0
 20
0.0
 30
0.0
 40
10.0
  1
SDRT4020N
  7
STANDARD1
  0
ARC
  5
1092
  8
0
 10
54.0
 20
204.00000001000001
 30
0.0
 40
4.0000000000000142
 50
180.0
 51
270.0
  0
LINE
  5
1093
  8
0
 10
50.0
 20
204.00000001000001
 30
0.0
 11
49.999999984999981
 21
219.49303399999999
 31
0.0
  0
ARC
  5
1094
  8
0
 10
50.49999997000004
 20
219.49303399999999
 30
0.0
 40
0.4999999995288292
 50
96.379370489787263
 51
180.0
  0
ARC
  5
1095
  8
0
 10
50.624999969999969
 20
218.37500001000001
 30
0.0
 40
1.6250000052729741
 50
319.4641977279947
 51
96.379370290111964
  0
ARC
  5
1096
  8
0
 10
52.999999969999969
 20
216.3439904
 30
0.0
 40
1.5000000004730001
 50
139.4641978061089
 51
180.0
  0
LINE
  5
1097
  8
0
 10
51.499999969999983
 20
216.3439904
 30
0.0
 11
51.499999969999983
 21
205.60000001
 31
0.0
  0
ARC
  5
1098
  8
0
 10
52.999999969999969
 20
205.60000001
 30
0.0
 40
1.5
 50
180.0
 51
270.0
  0
LINE
  5
1099
  8
0
 10
52.999999969999969
 20
204.10000001
 30
0.0
 11
53.225077609999971
 21
204.10000000914999
 31
0.0
  0
ARC
  5
109A
  8
0
 10
53.225077609999971
 20
204.80000000999999
 30
0.0
 40
0.7000000010494262
 50
270.0
 51
322.84593009537468
  0
ARC
  5
109B
  8
0
 10
57.249999969999969
 20
201.75000001000001
 30
0.0
 40
4.3500000001994241
 50
37.154069796827798
 51
142.8459302031892
  0
ARC
  5
109C
  8
0
 10
61.274922329999981
 20
204.80000000999999
 30
0.0
 40
0.7000000001993955
 50
217.15406990452141
 51
270.0
  0
LINE
  5
109D
  8
0
 10
61.274922329999981
 20
204.10000001
 30
0.0
 11
61.499999969999983
 21
204.10000001
 31
0.0
  0
ARC
  5
109E
  8
0
 10
61.499999969999983
 20
205.60000001
 30
0.0
 40
1.5
 50
270.0
 51
0.0
  0
LINE
  5
109F
  8
0
 10
62.999999969999969
 20
205.60000001
 30
0.0
 11
62.99999996899998
 21
215.44071986
 31
0.0
  0
ARC
  5
10A0
  8
0
 10
61.499999969999983
 20
215.44071986
 30
0.0
 40
1.4999999990000099
 50
0.0
 51
69.879235980818905
  0
ARC
  5
10A1
  8
0
 10
62.574999970000022
 20
218.37500001000001
 30
0.0
 40
1.625000000894697
 50
90.0
 51
249.8792360060493
  0
LINE
  5
10A2
  8
0
 10
62.574999970000022
 20
220.00000001000001
 30
0.0
 11
64.02499997000001
 21
220.00000001079999
 31
0.0
  0
ARC
  5
10A3
  8
0
 10
64.02499997000001
 20
218.37500001000001
 30
0.0
 40
1.6250000017057531
 50
309.1978334951047
 51
90.0
  0
ARC
  5
10A4
  8
0
 10
65.999999969999976
 20
215.95322379999999
 30
0.0
 40
1.500000000105749
 50
129.1978335136557
 51
180.0
  0
LINE
  5
10A5
  8
0
 10
64.499999969999976
 20
215.95322379999999
 30
0.0
 11
64.499999970049998
 21
206.01878203000001
 31
0.0
  0
ARC
  5
10A6
  8
0
 10
65.999999969999976
 20
206.01878203000001
 30
0.0
 40
1.5000000005600569
 50
180.0
 51
313.13821990756378
  0
ARC
  5
10A7
  8
0
 10
69.999999979999984
 20
201.75000001000001
 30
0.0
 40
4.3500000006600503
 50
46.861780250370039
 51
133.13821983341469
  0
ARC
  5
10A8
  8
0
 10
73.999999979999984
 20
206.01878203000001
 30
0.0
 40
1.5
 50
226.8617801281909
 51
0.0
  0
LINE
  5
10A9
  8
0
 10
75.499999979999984
 20
206.01878203000001
 30
0.0
 11
75.499999979999984
 21
215.95322379999999
 31
0.0
  0
ARC
  5
10AA
  8
0
 10
73.999999979999984
 20
215.95322379999999
 30
0.0
 40
1.5000000010057279
 50
0.0
 51
50.802166486345108
  0
ARC
  5
10AB
  8
0
 10
75.974999980000007
 20
218.37500001000001
 30
0.0
 40
1.6250000008057921
 50
90.0
 51
230.8021665048949
  0
LINE
  5
10AC
  8
0
 10
75.974999980000007
 20
220.00000001000001
 30
0.0
 11
77.424999979999996
 21
220.00000001090001
 31
0.0
  0
ARC
  5
10AD
  8
0
 10
77.424999979999996
 20
218.37500001000001
 30
0.0
 40
1.625000000900001
 50
290.12076399393328
 51
90.0
  0
ARC
  5
10AE
  8
0
 10
78.499999979999984
 20
215.44071986
 30
0.0
 40
1.5
 50
110.1207640192053
 51
180.0
  0
LINE
  5
10AF
  8
0
 10
76.999999979999984
 20
215.44071986
 30
0.0
 11
76.999999979999984
 21
205.60000001
 31
0.0
  0
ARC
  5
10B0
  8
0
 10
78.499999979999984
 20
205.60000001
 30
0.0
 40
1.5
 50
180.0
 51
270.0
  0
LINE
  5
10B1
  8
0
 10
78.499999979999984
 20
204.10000001
 30
0.0
 11
78.725077619999965
 21
204.10000000914999
 31
0.0
  0
ARC
  5
10B2
  8
0
 10
78.725077619999965
 20
204.80000000999999
 30
0.0
 40
0.700000001049395
 50
270.0
 51
322.84593009537048
  0
ARC
  5
10B3
  8
0
 10
82.749999979999984
 20
201.75000001000001
 30
0.0
 40
4.350000000199393
 50
37.154069796827798
 51
142.8459302031892
  0
ARC
  5
10B4
  8
0
 10
86.774922339999975
 20
204.80000000999999
 30
0.0
 40
0.7000000001994408
 50
217.1540699045174
 51
270.0
  0
LINE
  5
10B5
  8
0
 10
86.774922339999975
 20
204.10000001
 30
0.0
 11
86.999999979999984
 21
204.10000001
 31
0.0
  0
ARC
  5
10B6
  8
0
 10
86.999999979999984
 20
205.60000001
 30
0.0
 40
1.500000000000014
 50
270.0
 51
0.0
  0
LINE
  5
10B7
  8
0
 10
88.499999979999984
 20
205.60000001
 30
0.0
 11
88.499999979999984
 21
216.3439904
 31
0.0
  0
ARC
  5
10B8
  8
0
 10
86.999999979999984
 20
216.3439904
 30
0.0
 40
1.5000000054729969
 50
0.0
 51
40.535802193855531
  0
ARC
  5
10B9
  8
0
 10
89.374999979999984
 20
218.37500001000001
 30
0.0
 40
1.625000000272977
 50
83.620629856771274
 51
220.53580227204009
  0
ARC
  5
10BA
  8
0
 10
89.499999979999984
 20
219.49303398999999
 30
0.0
 40
0.5000000021978753
 50
0.0
 51
83.620630114911478
  0
LINE
  5
10BB
  8
0
 10
89.999999979999984
 20
219.49303398999999
 30
0.0
 11
89.999999979999984
 21
204.0
 31
0.0
  0
ARC
  5
10BC
  8
0
 10
85.999999979999984
 20
204.0
 30
0.0
 40
4.0000000000000142
 50
270.0
 51
0.0
  0
LINE
  5
10BD
  8
0
 10
85.999999979999984
 20
200.0
 30
0.0
 11
80.321796749999976
 21
200.0
 31
0.0
  0
ARC
  5
10BE
  8
0
 10
80.321796749999976
 20
204.0
 30
0.0
 40
4.0000000042053978
 50
240.0000000318646
 51
270.0
  0
LINE
  5
10BF
  8
0
 10
78.321796749823761
 20
200.53589838010799
 30
0.0
 11
75.249999979481004
 21
202.3094010702996
 31
0.0
  0
ARC
  5
10C0
  8
0
 10
74.999999979999984
 20
201.87638837
 30
0.0
 40
0.5
 50
59.99999996025668
 51
180.0
  0
LINE
  5
10C1
  8
0
 10
74.499999979999984
 20
201.87638837
 30
0.0
 11
74.499999979999984
 21
201.84999998999999
 31
0.0
  0
ARC
  5
10C2
  8
0
 10
74.299999980000052
 20
201.84999998999999
 30
0.0
 40
0.1999999999999886
 50
270.0
 51
0.0
  0
LINE
  5
10C3
  8
0
 10
74.299999980000052
 20
201.64999999
 30
0.0
 11
74.019171880000044
 21
201.64999999
 31
0.0
  0
ARC
  5
10C4
  8
0
 10
74.019171880000044
 20
201.84999998999999
 30
0.0
 40
0.2000000029315422
 50
207.72473222837311
 51
270.0
  0
ARC
  5
10C5
  8
0
 10
72.071747520000031
 20
200.82650677999999
 30
0.0
 40
1.999999998789465
 50
27.724731981284229
 51
76.240452119002583
  0
ARC
  5
10C6
  8
0
 10
72.499873480000019
 20
202.57485119
 30
0.0
 40
0.1999999987146899
 50
76.240451951588312
 51
179.42362269615629
  0
ARC
  5
10C7
  8
0
 10
69.99999997999987
 20
202.60000000000011
 30
0.0
 40
2.299999998973715
 50
331.31459797213802
 51
359.42362194883862
  0
ARC
  5
10C8
  8
0
 10
72.193171200000052
 20
201.40000000000001
 30
0.0
 40
0.2000000010736657
 50
151.31459815135381
 51
270.0
  0
LINE
  5
10C9
  8
0
 10
72.193171200000052
 20
201.19999999999999
 30
0.0
 11
72.526794899337673
 21
201.2000000001639
 31
0.0
  0
ARC
  5
10CA
  8
0
 10
72.699999980000015
 20
201.09999999999999
 30
0.0
 40
0.2000000000000262
 50
0.0
 51
149.99999994580159
  0
LINE
  5
10CB
  8
0
 10
72.899999980000018
 20
201.09999999999999
 30
0.0
 11
72.899999978700009
 21
200.85659339
 31
0.0
  0
ARC
  5
10CC
  8
0
 10
72.399999980000004
 20
200.85659339
 30
0.0
 40
0.499999998699991
 50
285.41073209228267
 51
0.0
  0
LINE
  5
10CD
  8
0
 10
72.532868328253187
 20
200.37457056951851
 30
0.0
 11
71.770340528702832
 21
200.1643817512514
 31
0.0
  0
ARC
  5
10CE
  8
0
 10
71.66404584999998
 20
200.55000000999999
 30
0.0
 40
0.4000000002510755
 50
210.0000000090096
 51
285.41073201616513
  0
LINE
  5
10CF
  8
0
 10
71.317635689653002
 20
200.35000001060109
 30
0.0
 11
70.756123738330302
 21
201.32256723943661
 31
0.0
  0
ARC
  5
10D0
  8
0
 10
70.929328820000023
 20
201.42256724000001
 30
0.0
 40
0.2000000013565054
 50
128.2834664542163
 51
210.0000000090217
  0
ARC
  5
10D1
  8
0
 10
69.999999989999992
 20
202.60000001
 30
0.0
 40
1.300000000799991
 50
308.28346695027892
 51
54.765582039561259
  0
LINE
  5
10D2
  8
0
 10
70.749999990014089
 20
203.6618380400493
 30
0.0
 11
70.749999989999992
 21
204.10000001
 31
0.0
  0
LINE
  5
10D3
  8
0
 10
70.749999989999992
 20
204.10000001
 30
0.0
 11
69.249999989999992
 21
204.10000001
 31
0.0
  0
LINE
  5
10D4
  8
0
 10
69.249999989999992
 20
204.10000001
 30
0.0
 11
69.24999999082263
 21
203.66183803708981
 31
0.0
  0
ARC
  5
10D5
  8
0
 10
69.999999989999992
 20
202.60000001
 30
0.0
 40
1.299999997899991
 50
125.2344180055682
 51
231.7165329314048
  0
ARC
  5
10D6
  8
0
 10
69.070671160000018
 20
201.42256724999999
 30
0.0
 40
0.1999999993222331
 50
330.000000118542
 51
51.71653253994171
  0
LINE
  5
10D7
  8
0
 10
69.243876240376835
 20
201.3225672506972
 30
0.0
 11
68.682364290792165
 21
200.35000001137209
 31
0.0
  0
ARC
  5
10D8
  8
0
 10
68.335954130000005
 20
200.55000000999999
 30
0.0
 40
0.4000000018016238
 50
254.58926798381131
 51
330.00000011852887
  0
LINE
  5
10D9
  8
0
 10
68.229659450885038
 20
200.16438174975659
 30
0.0
 11
67.46713165174674
 21
200.37457056951851
 31
0.0
  0
ARC
  5
10DA
  8
0
 10
67.600000000000023
 20
200.85659339
 30
0.0
 40
0.5
 50
180.0
 51
254.58926790771039
  0
LINE
  5
10DB
  8
0
 10
67.100000000000023
 20
200.85659339
 30
0.0
 11
67.100000000000023
 21
201.10000001
 31
0.0
  0
ARC
  5
10DC
  8
0
 10
67.300000000000011
 20
201.10000001
 30
0.0
 40
0.200000000000017
 50
30.000000112084781
 51
180.0
  0
LINE
  5
10DD
  8
0
 10
67.473205079955051
 20
201.2000000099888
 30
0.0
 11
67.806828779999989
 21
201.20000001
 31
0.0
  0
ARC
  5
10DE
  8
0
 10
67.806828779999989
 20
201.40000001000001
 30
0.0
 40
0.2000000030236602
 50
270.0
 51
28.685401848508359
  0
ARC
  5
10DF
  8
0
 10
69.999999999999886
 20
202.60000001
 30
0.0
 40
2.299999997023519
 50
180.57637816572341
 51
208.68540202787631
  0
ARC
  5
10E0
  8
0
 10
67.500126500000022
 20
202.57485119
 30
0.0
 40
0.200000000199984
 50
0.576378851015403
 51
103.7595477078023
  0
ARC
  5
10E1
  8
0
 10
67.92825246000001
 20
200.82650677999999
 30
0.0
 40
2.0000000008076531
 50
103.7595478469364
 51
152.2752677766602
  0
ARC
  5
10E2
  8
0
 10
65.980828099999997
 20
201.84999999999999
 30
0.0
 40
0.2000000013076808
 50
270.0
 51
332.27526765631092
  0
LINE
  5
10E3
  8
0
 10
65.980828099999997
 20
201.65000000000001
 30
0.0
 11
65.700000000000045
 21
201.65000000000001
 31
0.0
  0
ARC
  5
10E4
  8
0
 10
65.700000000000045
 20
201.84999999999999
 30
0.0
 40
0.200000000000017
 50
180.0
 51
270.0
  0
LINE
  5
10E5
  8
0
 10
65.5
 20
201.84999999999999
 30
0.0
 11
65.499999999199986
 21
201.87638838000001
 31
0.0
  0
ARC
  5
10E6
  8
0
 10
65.0
 20
201.87638838000001
 30
0.0
 40
0.4999999992000142
 50
0.0
 51
120.0000000401344
  0
LINE
  5
10E7
  8
0
 10
64.750000000506361
 20
202.3094010803147
 30
0.0
 11
61.678203229149737
 21
200.53589839194021
 31
0.0
  0
ARC
  5
10E8
  8
0
 10
59.678203230000008
 20
204.00000001000001
 30
0.0
 40
4.0000000021054074
 50
270.0
 51
299.99999996852631
  0
LINE
  5
10E9
  8
0
 10
59.678203230000008
 20
200.00000001000001
 30
0.0
 11
54.0
 21
200.00000001000001
 31
0.0
  0
LINE
  5
10EA
  8
0
 10
52.249999974800012
 20
270.00000000569997
 30
0.0
 11
52.249999974800012
 21
370.00000000569997
 31
0.0
  0
LINE
  5
10EB
  8
0
 10
79.049999981800056
 20
270.00000000569997
 30
0.0
 11
79.049999981800056
 21
370.00000000569997
 31
0.0
  0
LINE
  5
10EC
  8
0
 10
65.649999971599982
 20
270.00000000569997
 30
0.0
 11
65.649999971599982
 21
370.00000000569997
 31
0.0
  0
LINE
  5
10ED
  8
0
 10
74.349999980000007
 20
370.00000000569997
 30
0.0
 11
74.349999980000007
 21
270.00000000569997
 31
0.0
  0
LINE
  5
10EE
  8
0
 10
60.949999970000022
 20
370.00000000569997
 30
0.0
 11
60.949999970000022
 21
270.00000000569997
 31
0.0
  0
LINE
  5
10EF
  8
0
 10
87.749999984300018
 20
370.00000000569997
 30
0.0
 11
87.749999984300018
 21
270.00000000569997
 31
0.0
  0
LINE
  5
1106
  8
0
 10
49.999999984999981
 20
270.00000000569997
 30
0.0
 11
49.999999984999981
 21
370.00000000569997
 31
0.0
  0
LINE
  5
1109
  8
0
 10
89.999999979999984
 20
370.00000000569997
 30
0.0
 11
89.999999979999984
 21
270.00000000569997
 31
0.0
  0
LINE
  5
110A
  8
0
 10
49.999999984999981
 20
270.00000000569997
 30
0.0
 11
89.999999979999984
 21
270.00000000569997
 31
0.0
  0
LINE
  5
110B
  8
0
 10
89.999999979999984
 20
370.00000000569997
 30
0.0
 11
49.999999984999981
 21
370.00000000569997
 31
0.0
  0
LINE
  5
110C
  8
0
 10
79.282987650206053
 20
370.00000000569997
 30
0.0
 11
79.282987650206053
 21
270.00000000569997
 31
0.0
  0
LINE
  5
110D
  8
0
 10
86.217012310470579
 20
270.00000000569997
 30
0.0
 11
86.217012310470579
 21
370.00000000569997
 31
0.0
  0
LINE
  5
1110
  8
0
 10
67.025640999878803
 20
370.00000000569997
 30
0.0
 11
67.02564099942748
 21
270.00000000569997
 31
0.0
  0
LINE
  5
1111
  8
0
 10
72.974358953558976
 20
270.00000000569997
 30
0.0
 11
72.974358951638465
 21
370.00000000569997
 31
0.0
  0
LINE
  5
1114
  8
0
 10
53.782987640206102
 20
370.00000000569997
 30
0.0
 11
53.782987640206102
 21
270.00000000569997
 31
0.0
  0
LINE
  5
1115
  8
0
 10
60.717012300470628
 20
270.00000000569997
 30
0.0
 11
60.717012300470628
 21
370.00000000569997
 31
0.0
  0
LINE
  5
1130
  8
0
 10
239.99999998000001
 20
220.0000000057
 30
0.0
 11
139.99999998000001
 21
220.0000000057
 31
0.0
  0
LINE
  5
1136
  8
0
 10
139.99999998000001
 20
200.0
 30
0.0
 11
239.99999998000001
 21
200.0
 31
0.0
  0
LINE
  5
1137
  8
0
 10
139.99999998000001
 20
220.0000000057
 30
0.0
 11
139.99999998000001
 21
200.0
 31
0.0
  0
LINE
  5
1138
  8
0
 10
239.99999998000001
 20
200.0
 30
0.0
 11
239.9999999799999
 21
220.0000000057
 31
0.0
  0
LINE
  5
113D
  8
0
 10
70.729328817199985
 20
150.0
 30
0.0
 11
70.729328817199985
 21
50.0
 31
0.0
  0
LINE
  5
113E
  8
0
 10
69.270671159300036
 20
50.0
 30
0.0
 11
69.270671159300036
 21
150.0
 31
0.0
  0
LINE
  5
1143
  8
0
 10
89.999999979999984
 20
150.0
 30
0.0
 11
89.999999979999984
 21
50.0
 31
0.0
  0
LINE
  5
1145
  8
0
 10
50.0
 20
50.0
 30
0.0
 11
89.999999979999984
 21
50.0
 31
0.0
  0
LINE
  5
1146
  8
0
 10
89.999999979999984
 20
150.0
 30
0.0
 11
50.0
 21
150.0
 31
0.0
  0
LINE
  5
114E
  8
0
 10
50.0
 20
150.0
 30
0.0
 11
50.0
 21
50.0
 31
0.0
  0
LINE
  5
1167
  8
0
 10
72.899999978700009
 20
50.0
 30
0.0
 11
72.899999978700009
 21
150.0
 31
0.0
  0
LINE
  5
116A
  8
0
 10
67.100000000000023
 20
150.0
 30
0.0
 11
67.100000000000023
 21
50.0
 31
0.0
  0
LINE
  5
1178
  8
0
 10
73.842133299383818
 20
150.0
 30
0.0
 11
73.842133299677343
 21
50.0
 31
0.0
  0
LINE
  5
117B
  8
0
 10
74.499999979999984
 20
150.0
 30
0.0
 11
74.499999979999984
 21
50.0
 31
0.0
  0
LINE
  5
1181
  8
0
 10
66.157866678991468
 20
50.0
 30
0.0
 11
66.157866678991468
 21
150.0
 31
0.0
  0
LINE
  5
1188
  8
0
 10
65.5
 20
50.0
 30
0.0
 11
65.5
 21
150.0
 31
0.0
  0
LINE
  5
1214
  8
1
 10
69.999999982499958
 20
375.00000000569997
 30
0.0
 11
69.999999982499958
 21
265.00000000569997
 31
0.0
  0
LINE
  5
1221
  8
1
 10
69.999999982499958
 20
225.0000000057
 30
0.0
 11
69.999999982499958
 21
195.0
 31
0.0
  0
LINE
  5
1222
  8
1
 10
69.999999982499958
 20
155.0
 30
0.0
 11
69.999999982499958
 21
45.0
 31
0.0
  0
ENDSEC
  0
EOF
