  0
SECTION
  2
HEADER
  9
$ACADVER
  1
AC1009
  9
$INSBASE
 10
0.0
 20
0.0
 30
0.0
  9
$EXTMIN
 10
0.0
 20
-2.960436562073669
 30
0.0
  9
$EXTMAX
 10
240.00000005000001
 20
375.00000000479997
 30
0.0
  9
$LIMMIN
 10
0.0
 20
0.0
  9
$LIMMAX
 10
375.0
 20
270.0
  9
$ORTHOMODE
 70
     1
  9
$REGENMODE
 70
     1
  9
$FILLMODE
 70
     1
  9
$QTEXTMODE
 70
     0
  9
$MIRRTEXT
 70
     0
  9
$DRAGMODE
 70
     2
  9
$LTSCALE
 40
10.0
  9
$OSMODE
 70
    37
  9
$ATTMODE
 70
     1
  9
$TEXTSIZE
 40
4.000000000000048
  9
$TRACEWID
 40
0.05
  9
$TEXTSTYLE
  7
STANDARD
  9
$CLAYER
  8
0
  9
$CELTYPE
  6
BYLAYER
  9
$CECOLOR
 62
   256
  9
$DIMSCALE
 40
1.0
  9
$DIMASZ
 40
3.0
  9
$DIMEXO
 40
2.0
  9
$DIMDLI
 40
0.38
  9
$DIMRND
 40
0.0
  9
$DIMDLE
 40
0.0
  9
$DIMEXE
 40
2.0
  9
$DIMTP
 40
0.0
  9
$DIMTM
 40
0.0
  9
$DIMTXT
 40
3.2000000000000002
  9
$DIMCEN
 40
0.0
  9
$DIMTSZ
 40
0.0
  9
$DIMTOL
 70
     0
  9
$DIMLIM
 70
     0
  9
$DIMTIH
 70
     0
  9
$DIMTOH
 70
     0
  9
$DIMSE1
 70
     0
  9
$DIMSE2
 70
     0
  9
$DIMTAD
 70
     1
  9
$DIMZIN
 70
     0
  9
$DIMBLK
  1

  9
$DIMASO
 70
     0
  9
$DIMSHO
 70
     0
  9
$DIMPOST
  1

  9
$DIMAPOST
  1

  9
$DIMALT
 70
     0
  9
$DIMALTD
 70
     2
  9
$DIMALTF
 40
25.399999999999999
  9
$DIMLFAC
 40
1.0
  9
$DIMTOFL
 70
     0
  9
$DIMTVP
 40
1.6000000000000001
  9
$DIMTIX
 70
     1
  9
$DIMSOXD
 70
     0
  9
$DIMSAH
 70
     0
  9
$DIMBLK1
  1

  9
$DIMBLK2
  1

  9
$DIMSTYLE
  2
STANDARD
  9
$DIMCLRD
 70
     4
  9
$DIMCLRE
 70
     4
  9
$DIMCLRT
 70
     4
  9
$DIMTFAC
 40
1.0
  9
$DIMGAP
 40
0.09
  9
$LUNITS
 70
     2
  9
$LUPREC
 70
     1
  9
$SKETCHINC
 40
0.1
  9
$FILLETRAD
 40
0.0
  9
$AUNITS
 70
     0
  9
$AUPREC
 70
     0
  9
$MENU
  1
E:\r13\win\SUPPORT\ACAD
  9
$ELEVATION
 40
0.0
  9
$PELEVATION
 40
0.0
  9
$THICKNESS
 40
0.0
  9
$LIMCHECK
 70
     0
  9
$BLIPMODE
 70
     0
  9
$CHAMFERA
 40
1.1999999999999991
  9
$CHAMFERB
 40
1.1999999999999991
  9
$SKPOLY
 70
     0
  9
$TDCREATE
 40
2450095.671215394
  9
$TDUPDATE
 40
2457968.4255387969
  9
$TDINDWG
 40
0.0542647338
  9
$TDUSRTIMER
 40
0.0542647338
  9
$USRTIMER
 70
     1
  9
$ANGBASE
 50
0.0
  9
$ANGDIR
 70
     0
  9
$PDMODE
 70
     0
  9
$PDSIZE
 40
0.0
  9
$PLINEWID
 40
0.0
  9
$COORDS
 70
     1
  9
$SPLFRAME
 70
     0
  9
$SPLINETYPE
 70
     6
  9
$SPLINESEGS
 70
     8
  9
$ATTDIA
 70
     0
  9
$ATTREQ
 70
     1
  9
$HANDLING
 70
     1
  9
$HANDSEED
  5
10A9
  9
$SURFTAB1
 70
     6
  9
$SURFTAB2
 70
     6
  9
$SURFTYPE
 70
     6
  9
$SURFU
 70
     6
  9
$SURFV
 70
     6
  9
$UCSNAME
  2

  9
$UCSORG
 10
0.0
 20
0.0
 30
0.0
  9
$UCSXDIR
 10
1.0
 20
0.0
 30
0.0
  9
$UCSYDIR
 10
0.0
 20
1.0
 30
0.0
  9
$PUCSNAME
  2

  9
$PUCSORG
 10
0.0
 20
0.0
 30
0.0
  9
$PUCSXDIR
 10
1.0
 20
0.0
 30
0.0
  9
$PUCSYDIR
 10
0.0
 20
1.0
 30
0.0
  9
$USERI1
 70
     0
  9
$USERI2
 70
     1
  9
$USERI3
 70
     0
  9
$USERI4
 70
     0
  9
$USERI5
 70
     0
  9
$USERR1
 40
0.0
  9
$USERR2
 40
0.0
  9
$USERR3
 40
0.0
  9
$USERR4
 40
0.0
  9
$USERR5
 40
0.0
  9
$WORLDVIEW
 70
     1
  9
$SHADEDGE
 70
     3
  9
$SHADEDIF
 70
    70
  9
$TILEMODE
 70
     1
  9
$MAXACTVP
 70
    16
  9
$PLIMCHECK
 70
     0
  9
$PEXTMIN
 10
1.0000000000000000E+020
 20
1.0000000000000000E+020
 30
1.0000000000000000E+020
  9
$PEXTMAX
 10
-1.0000000000000000E+020
 20
-1.0000000000000000E+020
 30
-1.0000000000000000E+020
  9
$PLIMMIN
 10
0.0
 20
0.0
  9
$PLIMMAX
 10
12.0
 20
9.0
  9
$UNITMODE
 70
     0
  9
$VISRETAIN
 70
     0
  9
$PLINEGEN
 70
     0
  9
$PSLTSCALE
 70
     0
  0
ENDSEC
  0
SECTION
  2
TABLES
  0
TABLE
  2
VPORT
 70
     1
  0
VPORT
  2
*ACTIVE
 70
     0
 10
0.0
 20
0.0
 11
1.0
 21
1.0
 12
454.0598290598291
 22
250.0
 13
0.0
 23
0.0
 14
10.0
 24
10.0
 15
10.0
 25
10.0
 16
0.0
 26
0.0
 36
1.0
 17
0.0
 27
0.0
 37
0.0
 40
500.0
 41
1.816239316239316
 42
50.0
 43
0.0
 44
0.0
 50
0.0
 51
0.0
 71
     0
 72
   500
 73
     1
 74
     0
 75
     0
 76
     0
 77
     0
 78
     2
  0
ENDTAB
  0
TABLE
  2
LTYPE
 70
     3
  0
LTYPE
  2
CONTINUOUS
 70
     0
  3
Solid Line
 72
    65
 73
     0
 40
0.0
  0
LTYPE
  2
CENTER
 70
     0
  3
____ _ ____ _ ____ _ ____ _ ____ _ ____ _ ____
 72
    65
 73
     4
 40
2.0
 49
1.25
 49
-0.25
 49
0.25
 49
-0.25
  0
LTYPE
  2
PHANTOM2
 70
     0
  3
___ _ _ ___ _ _ ___ _ _ ___ _ _
 72
    65
 73
     6
 40
1.25
 49
0.625
 49
-0.125
 49
0.125
 49
-0.125
 49
0.125
 49
-0.125
  0
ENDTAB
  0
TABLE
  2
LAYER
 70
     3
  0
LAYER
  2
0
 70
     0
 62
     7
  6
CONTINUOUS
  0
LAYER
  2
1
 70
     0
 62
     1
  6
CENTER
  0
LAYER
  2
DEFPOINTS
 70
     0
 62
     7
  6
CONTINUOUS
  0
ENDTAB
  0
TABLE
  2
STYLE
 70
     2
  0
STYLE
  2
STANDARD
 70
     0
 40
0.0
 41
1.0
 50
0.0
 71
     0
 42
4.000000000000048
  3
SIMPLEX
  4
BIGFONT
  0
STYLE
  2
STANDARD1
 70
     0
 40
0.0
 41
1.0
 50
0.0
 71
     0
 42
3.0
  3
txt
  4

  0
ENDTAB
  0
TABLE
  2
VIEW
 70
     1
  0
VIEW
  2
ALL
 70
     0
 40
270.0
 10
220.59941989218049
 20
135.0
 41
441.19883978436093
 11
0.0
 21
0.0
 31
1.0
 12
0.0
 22
0.0
 32
0.0
 42
50.0
 43
0.0
 44
0.0
 50
0.0
 71
     0
  0
ENDTAB
  0
TABLE
  2
UCS
 70
     0
  0
ENDTAB
  0
TABLE
  2
APPID
 70
    29
  0
APPID
  2
ACAD
 70
     0
  0
APPID
  2
DCO15
 70
     0
  0
APPID
  2
GENIUS_GENOREF_13
 70
     0
  0
APPID
  2
GENIUS_GENOENT_13
 70
     0
  0
APPID
  2
GENIUS_GENBH_13
 70
     0
  0
APPID
  2
GENIUS_GENOBJ_13
 70
     0
  0
APPID
  2
GENIUS_GENODEF_13
 70
     0
  0
APPID
  2
GENIUS_GENOLIS_13
 70
     0
  0
APPID
  2
GENIUS_GENOBJ-NBEHI-BHF_13
 70
     0
  0
APPID
  2
GENIUS_GENOBJ-NBEHI-BHB_13
 70
     0
  0
APPID
  2
GENIUS_GENOBJ-F-PART_13
 70
     0
  0
APPID
  2
GENIUS_GEFSTDP_13
 70
     0
  0
APPID
  2
GENIUS_GENOBJ-N-RSSYM_13
 70
     0
  0
APPID
  2
GENIUS_GENSYMENT_13
 70
     0
  0
APPID
  2
GENIUS_GENOBJ-N-TIT_13
 70
     0
  0
APPID
  2
GENIUS_GENTITLE_13
 70
     0
  0
APPID
  2
GENIUS_GENZVEED_13
 70
     0
  0
APPID
  2
GENIUS_GENOBJ-N-LEADER_13
 70
     0
  0
APPID
  2
GENIUS_GENOBJ-N-FIL_13
 70
     0
  0
APPID
  2
GENIUS_GENOBJ-N-SEC_13
 70
     0
  0
APPID
  2
GENIUS_GENOBJ-N-CRS_13
 70
     0
  0
APPID
  2
GENIUS_GENOBJ-N-ZOO_13
 70
     0
  0
APPID
  2
GENIUS_GENZOO_13
 70
     0
  0
APPID
  2
GENIUS_GENOBJ-F-TOL_13
 70
     0
  0
APPID
  2
GENIUS_GENFIL_13
 70
     0
  0
APPID
  2
GENIUS_GENOBJ-N-CHA_13
 70
     0
  0
APPID
  2
ACAD_MLEADERVER
 70
     0
  0
APPID
  2
ACAD_EXEMPT_FROM_CAD_STANDARDS
 70
     0
  0
APPID
  2
ACAD_NAV_VCDISPLAY
 70
     0
  0
ENDTAB
  0
TABLE
  2
DIMSTYLE
 70
     1
  0
DIMSTYLE
  2
STANDARD
 70
     0
  3

  4

  5

  6

  7

 40
1.0
 41
0.18
 42
0.0625
 43
0.38
 44
0.18
 45
0.0
 46
0.0
 47
0.0
 48
0.0
140
0.18
141
0.09
142
0.0
143
25.399999999999999
144
1.0
145
0.0
146
1.0
147
0.09
 71
     0
 72
     0
 73
     1
 74
     1
 75
     0
 76
     0
 77
     0
 78
     0
170
     0
171
     2
172
     0
173
     0
174
     0
175
     0
176
     0
177
     0
178
     0
  0
ENDTAB
  0
ENDSEC
  0
SECTION
  2
BLOCKS
  0
BLOCK
  8
0
  2
$MODEL_SPACE
 70
     0
 10
0.0
 20
0.0
 30
0.0
  3
$MODEL_SPACE
  1

  0
ENDBLK
  5
10E
  8
0
  0
BLOCK
 67
     1
  8
0
  2
$PAPER_SPACE
 70
     0
 10
0.0
 20
0.0
 30
0.0
  3
$PAPER_SPACE
  1

  0
ENDBLK
  5
10C
 67
     1
  8
0
  0
ENDSEC
  0
SECTION
  2
ENTITIES
  0
TEXT
  5
A57
  8
0
 62
     3
 10
0.0
 20
0.0
 30
0.0
 40
10.0
  1
SDRB4020N
  7
STANDARD1
  0
LINE
  5
C0D
  8
0
 10
71.0
 20
206.09999998999999
 30
0.0
 11
69.0
 21
206.09999998999999
 31
0.0
  0
LINE
  5
C0E
  8
0
 10
72.000000001249987
 20
210.55691784999999
 30
0.0
 11
72.000000001249987
 21
207.09999998999999
 31
0.0
  0
ARC
  5
C0F
  8
0
 10
70.0
 20
209.65000000000001
 30
0.0
 40
2.3499999975775041
 50
42.205446268711071
 51
137.7945537313179
  0
LINE
  5
C10
  8
0
 10
68.0
 20
207.09999999499999
 30
0.0
 11
68.0
 21
210.55691784999999
 31
0.0
  0
ARC
  5
C11
  8
0
 10
84.749999999999986
 20
204.0
 30
0.0
 40
1.500000001855758
 50
270.0
 51
66.421821544911865
  0
LINE
  5
C12
  8
0
 10
84.749999999999986
 20
210.55691786
 30
0.0
 11
84.749999999999986
 21
206.29128785
 31
0.0
  0
ARC
  5
C13
  8
0
 10
82.75
 20
209.65000001000001
 30
0.0
 40
2.3499999975775272
 50
42.205446268681513
 51
137.79455373128829
  0
LINE
  5
C14
  8
0
 10
80.750000000000014
 20
206.29128785
 30
0.0
 11
80.750000000000014
 21
210.55691786
 31
0.0
  0
ARC
  5
C15
  8
0
 10
80.750000000000014
 20
204.0
 30
0.0
 40
1.5000000007057559
 50
113.57817845508811
 51
270.0
  0
LINE
  5
C16
  8
0
 10
84.749999999999986
 20
202.5
 30
0.0
 11
80.750000000000014
 21
202.5
 31
0.0
  0
ARC
  5
C17
  8
0
 10
59.25
 20
204.0
 30
0.0
 40
1.5000000018557691
 50
270.0
 51
66.421821544911865
  0
LINE
  5
C18
  8
0
 10
59.25
 20
210.55691786
 30
0.0
 11
59.25
 21
206.29128785
 31
0.0
  0
ARC
  5
C19
  8
0
 10
57.25
 20
209.65000001000001
 30
0.0
 40
2.3499999975775272
 50
42.205446268681513
 51
137.79455373128889
  0
LINE
  5
C1A
  8
0
 10
55.25
 20
206.29128785
 30
0.0
 11
55.25
 21
210.55691786
 31
0.0
  0
ARC
  5
C1B
  8
0
 10
55.25
 20
204.0
 30
0.0
 40
1.5000000007057801
 50
113.57817845508821
 51
270.0
  0
LINE
  5
C1C
  8
0
 10
59.25
 20
202.5
 30
0.0
 11
55.25
 21
202.5
 31
0.0
  0
LINE
  5
C1D
  8
0
 10
51.5
 20
216.3439904
 30
0.0
 11
51.5
 21
207.59999999999999
 31
0.0
  0
ARC
  5
C1E
  8
0
 10
53.0
 20
207.59999999999999
 30
0.0
 40
1.5
 50
180.0
 51
270.0
  0
LINE
  5
C1F
  8
0
 10
54.007827980070601
 20
207.06510050202019
 30
0.0
 11
54.173456570027213
 21
211.80808287077849
 31
0.0
  0
ARC
  5
C20
  8
0
 10
56.17223821999999
 20
211.73828388000001
 30
0.0
 40
1.999999995845404
 50
117.29822556690969
 51
178.0000000711342
  0
ARC
  5
C21
  8
0
 10
57.250000010000008
 20
209.65000000000009
 30
0.0
 40
4.3500000041939852
 50
62.701774450719178
 51
117.29822565761999
  0
ARC
  5
C22
  8
0
 10
58.327761790000011
 20
211.73828388000001
 30
0.0
 40
2.0000000020696769
 50
1.9999999238894379
 51
62.701774414156603
  0
LINE
  5
C23
  8
0
 10
60.326543446199359
 20
211.80808287082209
 30
0.0
 11
60.492172039929521
 21
207.0651005020205
 31
0.0
  0
ARC
  5
C24
  8
0
 10
61.500000020000023
 20
207.59999999999999
 30
0.0
 40
1.500000000000028
 50
270.0
 51
0.0
  0
LINE
  5
C25
  8
0
 10
63.000000020000009
 20
207.59999999999999
 30
0.0
 11
63.000000020000009
 21
215.44071984999999
 31
0.0
  0
ARC
  5
C26
  8
0
 10
61.500000020000023
 20
215.44071984999999
 30
0.0
 40
1.500000000000028
 50
0.0
 51
69.879235980815466
  0
ARC
  5
C27
  8
0
 10
62.575000020000061
 20
218.375
 30
0.0
 40
1.6250000009000161
 50
90.0
 51
249.87923600604589
  0
ARC
  5
C28
  8
0
 10
64.025000019999993
 20
218.375
 30
0.0
 40
1.625000000805789
 50
309.19783349510868
 51
90.0
  0
LINE
  5
C29
  8
0
 10
64.500000020000016
 20
215.95322379000001
 30
0.0
 11
64.500000020000016
 21
207.59999999999999
 31
0.0
  0
ARC
  5
C2A
  8
0
 10
66.000000020000016
 20
207.59999999999999
 30
0.0
 40
1.5
 50
180.0
 51
270.0
  0
LINE
  5
C2B
  8
0
 10
66.747717380038793
 20
206.7755703511113
 30
0.0
 11
66.923456590059175
 21
211.80808287169441
 31
0.0
  0
ARC
  5
C2C
  8
0
 10
68.922238240000013
 20
211.73828388000001
 30
0.0
 40
1.999999995845444
 50
117.29822556690969
 51
178.00000004487759
  0
ARC
  5
C2D
  8
0
 10
70.000000030000024
 20
209.65000000000009
 30
0.0
 40
4.3500000041939089
 50
62.701774450719178
 51
117.29822565761999
  0
ARC
  5
C2E
  8
0
 10
71.07776180999997
 20
211.73828388000001
 30
0.0
 40
2.000000002069688
 50
1.9999999501462411
 51
62.701774414149412
  0
LINE
  5
C2F
  8
0
 10
73.076543466167323
 20
211.80808287173809
 30
0.0
 11
73.25228267996124
 21
206.77557035111121
 31
0.0
  0
ARC
  5
C30
  8
0
 10
74.000000040000032
 20
207.59999999999999
 30
0.0
 40
1.5
 50
270.0
 51
0.0
  0
LINE
  5
C31
  8
0
 10
75.500000040000032
 20
207.59999999999999
 30
0.0
 11
75.500000040000032
 21
215.95322379000001
 31
0.0
  0
ARC
  5
C32
  8
0
 10
75.975000040000054
 20
218.375
 30
0.0
 40
1.6250000017057631
 50
90.0
 51
230.80216650489129
  0
ARC
  5
C33
  8
0
 10
77.425000039999986
 20
218.375
 30
0.0
 40
1.625000000000014
 50
290.12076399393328
 51
90.0
  0
ARC
  5
C34
  8
0
 10
78.500000040000032
 20
215.44071984999999
 30
0.0
 40
1.499999999789444
 50
110.1207640192054
 51
180.0
  0
LINE
  5
C35
  8
0
 10
77.000000041000021
 20
215.44071984999999
 30
0.0
 11
77.000000040000032
 21
207.59999999999999
 31
0.0
  0
ARC
  5
C36
  8
0
 10
78.500000040000032
 20
207.59999999999999
 30
0.0
 40
1.500000000000028
 50
180.0
 51
270.0
  0
LINE
  5
C37
  8
0
 10
79.507828020070576
 20
207.06510050202019
 30
0.0
 11
79.673456610027188
 21
211.80808287077849
 31
0.0
  0
ARC
  5
C38
  8
0
 10
81.672238259999972
 20
211.73828388000001
 30
0.0
 40
1.999999995845432
 50
117.29822556690969
 51
178.0000000711342
  0
ARC
  5
C39
  8
0
 10
82.75000005000004
 20
209.65000000000001
 30
0.0
 40
4.3500000041939959
 50
62.701774617545588
 51
117.29822565761999
  0
ARC
  5
C3A
  8
0
 10
83.827761819999978
 20
211.73828388000001
 30
0.0
 40
2.0000000020696769
 50
1.9999999238894379
 51
62.701774522437127
  0
LINE
  5
C3B
  8
0
 10
85.82654347619939
 20
211.80808287082209
 30
0.0
 11
85.992172069929552
 21
207.0651005020205
 31
0.0
  0
ARC
  5
C3C
  8
0
 10
87.000000050000054
 20
207.59999999999999
 30
0.0
 40
1.5
 50
270.0
 51
0.0
  0
LINE
  5
C3D
  8
0
 10
88.500000050000025
 20
207.59999999999999
 30
0.0
 11
88.500000050000025
 21
216.34399038999999
 31
0.0
  0
ARC
  5
C3E
  8
0
 10
89.375000050000025
 20
218.375
 30
0.0
 40
1.6250000052729761
 50
83.620629709865113
 51
220.53580227203611
  0
LINE
  5
C3F
  8
0
 10
90.000000050000025
 20
219.49303398999999
 30
0.0
 11
90.000000050000025
 21
204.0
 31
0.0
  0
ARC
  5
C40
  8
0
 10
86.000000050000025
 20
204.0
 30
0.0
 40
4.0
 50
270.0
 51
0.0
  0
LINE
  5
C41
  8
0
 10
86.000000050000025
 20
200.0
 30
0.0
 11
80.321796820000046
 21
200.0
 31
0.0
  0
ARC
  5
C42
  8
0
 10
80.321796820000046
 20
204.0
 30
0.0
 40
4.000000002105355
 50
240.00000003177789
 51
270.0
  0
LINE
  5
C43
  8
0
 10
78.321796820868485
 20
200.53589838192971
 30
0.0
 11
75.250000049481685
 21
202.30940107029929
 31
0.0
  0
ARC
  5
C44
  8
0
 10
70.000000060000033
 20
202.59999999999999
 30
0.0
 40
1.299999997899987
 50
308.28346706860742
 51
54.765581994427642
  0
ARC
  5
C45
  8
0
 10
70.000000060000033
 20
202.59999999999999
 30
0.0
 40
1.300000000800001
 50
125.23441796042709
 51
231.71653304973319
  0
LINE
  5
C46
  8
0
 10
64.750000070518453
 20
202.30940106029931
 30
0.0
 11
61.678203300183547
 21
200.53589837010591
 31
0.0
  0
ARC
  5
C47
  8
0
 10
59.678203300000007
 20
203.99999998999999
 30
0.0
 40
4.0000000042108468
 50
270.0
 51
299.99999996821418
  0
LINE
  5
C48
  8
0
 10
59.678203300000007
 20
199.9999999879
 30
0.0
 11
54.000000069999999
 21
199.99999998999999
 31
0.0
  0
ARC
  5
C49
  8
0
 10
54.000000069999999
 20
203.99999998999999
 30
0.0
 40
4.0000000699999703
 50
179.9999999283794
 51
270.0
  0
LINE
  5
C4A
  8
0
 10
50.0
 20
203.999999995
 30
0.0
 11
50.0
 21
219.49303398999999
 31
0.0
  0
ARC
  5
C4B
  8
0
 10
50.5
 20
219.49303398999999
 30
0.0
 40
0.5000000021978608
 50
96.379369885029519
 51
180.0
  0
ARC
  5
C4C
  8
0
 10
50.625
 20
218.37500001000001
 30
0.0
 40
1.6250000002729901
 50
319.4641977279947
 51
96.37937014320579
  0
ARC
  5
C4D
  8
0
 10
53.0
 20
216.3439904
 30
0.0
 40
1.5000000054729841
 50
139.4641978061081
 51
180.0
  0
LINE
  5
C4E
  8
0
 10
53.008437149999963
 20
206.09999999999999
 30
0.0
 11
53.0
 21
206.09999999999999
 31
0.0
  0
ARC
  5
C4F
  8
0
 10
53.008437149999963
 20
207.09999999999999
 30
0.0
 40
1.0000000030942049
 50
270.0
 51
357.99999993296132
  0
ARC
  5
C50
  8
0
 10
61.491562870000052
 20
207.09999999999999
 30
0.0
 40
1.0000000030941349
 50
182.00000006702069
 51
270.0
  0
LINE
  5
C51
  8
0
 10
61.500000020000023
 20
206.09999999999999
 30
0.0
 11
61.491562870000052
 21
206.09999999844999
 31
0.0
  0
LINE
  5
C52
  8
0
 10
64.025000019999993
 20
220.0
 30
0.0
 11
62.575000020000061
 21
220.0000000009
 31
0.0
  0
ARC
  5
C53
  8
0
 10
66.000000020000016
 20
215.95322379000001
 30
0.0
 40
1.5000000010057311
 50
129.19783351365879
 51
180.0
  0
LINE
  5
C54
  8
0
 10
66.048143800000034
 20
206.09999999999999
 30
0.0
 11
66.000000020000016
 21
206.09999999999999
 31
0.0
  0
ARC
  5
C55
  8
0
 10
66.048143800000034
 20
206.80000000000001
 30
0.0
 40
0.7000000011665076
 50
270.0
 51
357.99999990530489
  0
ARC
  5
C56
  8
0
 10
73.951856259999985
 20
206.80000000000001
 30
0.0
 40
0.7000000011664826
 50
182.0000000947048
 51
270.0
  0
LINE
  5
C57
  8
0
 10
74.000000040000032
 20
206.09999999999999
 30
0.0
 11
73.951856259999985
 21
206.09999999940001
 31
0.0
  0
ARC
  5
C58
  8
0
 10
74.000000040000032
 20
215.95322379000001
 30
0.0
 40
1.500000000105757
 50
0.0
 51
50.802166486348291
  0
LINE
  5
C59
  8
0
 10
77.425000039999986
 20
220.0
 30
0.0
 11
75.975000040000054
 21
220.00000000079999
 31
0.0
  0
LINE
  5
C5A
  8
0
 10
78.508437189999995
 20
206.09999999999999
 30
0.0
 11
78.500000040000032
 21
206.09999999999999
 31
0.0
  0
ARC
  5
C5B
  8
0
 10
78.508437189999995
 20
207.09999999999999
 30
0.0
 40
1.0000000030942049
 50
270.0
 51
357.99999993296132
  0
ARC
  5
C5C
  8
0
 10
86.991562900000076
 20
207.09999999999999
 30
0.0
 40
1.0000000030941349
 50
182.00000006702069
 51
270.0
  0
LINE
  5
C5D
  8
0
 10
87.000000050000054
 20
206.09999999999999
 30
0.0
 11
86.991562900000076
 21
206.09999999844999
 31
0.0
  0
ARC
  5
C5E
  8
0
 10
87.000000049999926
 20
216.34399038999999
 30
0.0
 40
1.500000000473054
 50
0.0
 51
40.53580219385217
  0
ARC
  5
C5F
  8
0
 10
89.500000050000054
 20
219.49303398999999
 30
0.0
 40
0.5
 50
0.0
 51
83.620629510147197
  0
ARC
  5
C60
  8
0
 10
75.000000050000025
 20
201.87638837
 30
0.0
 40
0.4999999991999858
 50
59.999999960166477
 51
180.0
  0
LINE
  5
C61
  8
0
 10
70.750000060000048
 20
204.09999999999999
 30
0.0
 11
70.750000059177523
 21
203.66183802708969
 31
0.0
  0
ARC
  5
C62
  8
0
 10
70.929328889999965
 20
201.42256724000001
 30
0.0
 40
0.1999999993222298
 50
128.28346745998891
 51
209.99999988147599
  0
ARC
  5
C63
  8
0
 10
69.070671230000016
 20
201.42256723
 30
0.0
 40
0.2000000013564995
 50
329.99999999099742
 51
51.716533545721298
  0
LINE
  5
C64
  8
0
 10
69.250000059986064
 20
203.66183803004941
 30
0.0
 11
69.250000060000033
 21
204.09999999999999
 31
0.0
  0
ARC
  5
C65
  8
0
 10
65.000000069999999
 20
201.87638835999999
 30
0.0
 40
0.5
 50
0.0
 51
120.0000000398185
  0
ARC
  5
C66
  8
0
 10
54.25
 20
206.29128785
 30
0.0
 40
1.0000000016057711
 50
293.57817845506679
 51
0.0
  0
ARC
  5
C67
  8
0
 10
60.25
 20
206.29128785
 30
0.0
 40
1.000000000455757
 50
180.0
 51
246.42182154493329
  0
ARC
  5
C68
  8
0
 10
58.25
 20
210.55691786
 30
0.0
 40
1.0000000025224911
 50
0.0
 51
42.205446398764892
  0
ARC
  5
C69
  8
0
 10
56.25
 20
210.55691786
 30
0.0
 40
1.000000001272475
 50
137.79455360116509
 51
180.0
  0
ARC
  5
C6A
  8
0
 10
79.75
 20
206.29128785
 30
0.0
 40
1.000000001605784
 50
293.57817845506679
 51
0.0
  0
ARC
  5
C6B
  8
0
 10
85.750000000000014
 20
206.29128785
 30
0.0
 40
1.000000000455769
 50
180.0
 51
246.42182154493329
  0
ARC
  5
C6C
  8
0
 10
83.75
 20
210.55691786
 30
0.0
 40
1.0000000025224911
 50
0.0
 51
42.205446398764892
  0
ARC
  5
C6D
  8
0
 10
81.75
 20
210.55691786
 30
0.0
 40
1.0000000012724839
 50
137.79455360116509
 51
180.0
  0
ARC
  5
C6E
  8
0
 10
69.0
 20
207.09999998999999
 30
0.0
 40
1.0
 50
179.9999997135192
 51
270.0
  0
ARC
  5
C6F
  8
0
 10
69.000000000000114
 20
210.55691784999999
 30
0.0
 40
1.000000001272549
 50
137.79455360124251
 51
180.0
  0
ARC
  5
C70
  8
0
 10
71.0
 20
207.09999998999999
 30
0.0
 40
1.000000001250015
 50
270.0
 51
0.0
  0
ARC
  5
C71
  8
0
 10
71.0
 20
210.55691784999999
 30
0.0
 40
1.0000000025224689
 50
0.0
 51
42.205446398834873
  0
LINE
  5
C72
  8
0
 10
74.500000050800054
 20
201.87638837
 30
0.0
 11
74.50000005000004
 21
201.84999998999999
 31
0.0
  0
LINE
  5
C73
  8
0
 10
70.750000060000048
 20
204.09999999999999
 30
0.0
 11
69.250000060000033
 21
204.09999999999999
 31
0.0
  0
LINE
  5
C74
  8
0
 10
71.31763575920786
 20
200.35000000137219
 30
0.0
 11
70.756123809623205
 21
201.3225672406972
 31
0.0
  0
LINE
  5
C75
  8
0
 10
69.243876311669794
 20
201.32256722943669
 30
0.0
 11
68.68236436034698
 21
200.350000000601
 31
0.0
  0
LINE
  5
C76
  8
0
 10
65.500000069999999
 20
201.84999998000001
 30
0.0
 11
65.500000069999999
 21
201.87638835999999
 31
0.0
  0
ARC
  5
C77
  8
0
 10
74.300000049999994
 20
201.84999998999999
 30
0.0
 40
0.2000000000000028
 50
270.0
 51
0.0
  0
ARC
  5
C78
  8
0
 10
71.664045920000035
 20
200.55000000000001
 30
0.0
 40
0.4000000018010688
 50
209.99999988146411
 51
285.41073201616848
  0
ARC
  5
C79
  8
0
 10
68.33595420000006
 20
200.55000000000001
 30
0.0
 40
0.4000000002510859
 50
254.58926798381131
 51
329.9999999909823
  0
ARC
  5
C7A
  8
0
 10
65.700000069999987
 20
201.84999998000001
 30
0.0
 40
0.200000000000017
 50
180.0
 51
270.0
  0
LINE
  5
C7B
  8
0
 10
74.300000049999994
 20
201.64999999
 30
0.0
 11
74.019171949999986
 21
201.64999999
 31
0.0
  0
LINE
  5
C7C
  8
0
 10
72.532868398253186
 20
200.3745705595185
 30
0.0
 11
71.770340599114718
 21
200.16438173975709
 31
0.0
  0
LINE
  5
C7D
  8
0
 10
68.229659521297094
 20
200.16438174125139
 30
0.0
 11
67.467131721746739
 21
200.3745705595185
 31
0.0
  0
LINE
  5
C7E
  8
0
 10
65.980828169999995
 20
201.64999997999999
 30
0.0
 11
65.700000069999987
 21
201.64999997999999
 31
0.0
  0
ARC
  5
C7F
  8
0
 10
74.019171949999986
 20
201.84999998999999
 30
0.0
 40
0.2000000000000028
 50
207.7247323436448
 51
270.0
  0
ARC
  5
C80
  8
0
 10
72.400000050000017
 20
200.85659337999999
 30
0.0
 40
0.5
 50
285.41073209228949
 51
0.0
  0
ARC
  5
C81
  8
0
 10
67.600000069999965
 20
200.85659337999999
 30
0.0
 40
0.499999998699991
 50
180.0
 51
254.58926790771039
  0
ARC
  5
C82
  8
0
 10
65.980828169999995
 20
201.84999998000001
 30
0.0
 40
0.20000000293153
 50
270.0
 51
332.27526777152917
  0
ARC
  5
C83
  8
0
 10
72.071747589999973
 20
200.82650677000009
 30
0.0
 40
2.0000000021153008
 50
27.72473222334477
 51
76.240452153053496
  0
LINE
  5
C84
  8
0
 10
72.900000050000017
 20
201.09999999999999
 30
0.0
 11
72.900000050000017
 21
200.85659337999999
 31
0.0
  0
LINE
  5
C85
  8
0
 10
67.100000071299974
 20
200.85659337999999
 30
0.0
 11
67.100000069999965
 21
201.09999998999999
 31
0.0
  0
ARC
  5
C86
  8
0
 10
67.928252530000009
 20
200.82650677000001
 30
0.0
 40
1.9999999987894641
 50
103.75954788100741
 51
152.27526801872531
  0
ARC
  5
C87
  8
0
 10
72.499873550000004
 20
202.57485118
 30
0.0
 40
0.1999999999649729
 50
76.240452292080292
 51
179.42362114922719
  0
ARC
  5
C88
  8
0
 10
72.700000050000028
 20
201.09999999999999
 30
0.0
 40
0.1999999999999602
 50
0.0
 51
149.99999988790699
  0
ARC
  5
C89
  8
0
 10
67.30000007000001
 20
201.09999998999999
 30
0.0
 40
0.200000000000017
 50
30.000000054198409
 51
180.0
  0
ARC
  5
C8A
  8
0
 10
67.50012657000002
 20
202.57485118
 30
0.0
 40
0.1999999987146708
 50
0.5763773041091173
 51
103.7595480485022
  0
ARC
  5
C8B
  8
0
 10
70.000000050000153
 20
202.59999999999999
 30
0.0
 40
2.299999996099916
 50
331.31459797213557
 51
359.42362183425712
  0
LINE
  5
C8C
  8
0
 10
72.193171269999993
 20
201.19999999999999
 30
0.0
 11
72.526794970044989
 21
201.1999999999889
 31
0.0
  0
LINE
  5
C8D
  8
0
 10
67.473205150662295
 20
201.19999999016389
 30
0.0
 11
67.806828849999988
 21
201.19999999000001
 31
0.0
  0
ARC
  5
C8E
  8
0
 10
70.000000070000112
 20
202.5999999900001
 30
0.0
 40
2.299999998973739
 50
180.57637805114021
 51
208.68540202787401
  0
ARC
  5
C8F
  8
0
 10
72.193171269999993
 20
201.40000000000001
 30
0.0
 40
0.2000000039472383
 50
151.31459815135281
 51
270.0
  0
ARC
  5
C90
  8
0
 10
67.806828849999988
 20
201.39999999
 30
0.0
 40
0.2000000010736424
 50
270.0
 51
28.685401848516801
  0
LINE
  5
C91
  8
0
 10
52.249999995700023
 20
270.00000000479997
 30
0.0
 11
52.249999995700023
 21
370.00000000479997
 31
0.0
  0
LINE
  5
C92
  8
0
 10
87.750000045199954
 20
370.00000000479997
 30
0.0
 11
87.750000045199954
 21
270.00000000479997
 31
0.0
  0
LINE
  5
C93
  8
0
 10
60.950000018200001
 20
370.00000000479997
 30
0.0
 11
60.950000018200001
 21
270.00000000479997
 31
0.0
  0
LINE
  5
C94
  8
0
 10
74.350000038400026
 20
370.00000000479997
 30
0.0
 11
74.350000038400026
 21
270.00000000479997
 31
0.0
  0
LINE
  5
C95
  8
0
 10
79.050000039999986
 20
270.00000000479997
 30
0.0
 11
79.050000039999986
 21
370.00000000479997
 31
0.0
  0
LINE
  5
C96
  8
0
 10
65.650000019999993
 20
270.00000000479997
 30
0.0
 11
65.650000019999993
 21
370.00000000479997
 31
0.0
  0
LINE
  5
CAD
  8
0
 10
50.0
 20
270.00000000479997
 30
0.0
 11
50.0
 21
370.00000000479997
 31
0.0
  0
LINE
  5
CAE
  8
0
 10
50.0
 20
270.00000000479997
 30
0.0
 11
90.000000050000025
 21
270.00000000479997
 31
0.0
  0
LINE
  5
CAF
  8
0
 10
90.000000050000025
 20
370.00000000479997
 30
0.0
 11
50.0
 21
370.00000000479997
 31
0.0
  0
LINE
  5
CB0
  8
0
 10
90.000000050000025
 20
370.00000000479997
 30
0.0
 11
90.000000050000025
 21
270.00000000479997
 31
0.0
  0
LINE
  5
CBF
  8
0
 10
85.82654347619939
 20
270.00000000479997
 30
0.0
 11
85.82654347619939
 21
370.00000000479997
 31
0.0
  0
LINE
  5
CC2
  8
0
 10
60.326543446199359
 20
270.00000000479997
 30
0.0
 11
60.326543446199359
 21
370.00000000479997
 31
0.0
  0
LINE
  5
CC5
  8
0
 10
73.076543466167323
 20
270.00000000479997
 30
0.0
 11
73.076543466167323
 21
370.00000000479997
 31
0.0
  0
LINE
  5
CC8
  8
0
 10
54.173456570027213
 20
270.00000000479997
 30
0.0
 11
54.173456570027213
 21
370.00000000479997
 31
0.0
  0
LINE
  5
CCB
  8
0
 10
79.673456610027188
 20
270.00000000479997
 30
0.0
 11
79.673456610027188
 21
370.00000000479997
 31
0.0
  0
LINE
  5
CCE
  8
0
 10
66.923456590059175
 20
270.00000000479997
 30
0.0
 11
66.923456590059175
 21
370.00000000479997
 31
0.0
  0
LINE
  5
D07
  8
0
 10
240.00000005000001
 20
220.0000000048
 30
0.0
 11
140.00000005000001
 21
220.0000000048
 31
0.0
  0
LINE
  5
D0C
  8
0
 10
140.00000005000001
 20
200.0
 30
0.0
 11
240.00000005000001
 21
200.0
 31
0.0
  0
LINE
  5
D0D
  8
0
 10
140.00000005000001
 20
220.0000000048
 30
0.0
 11
140.00000005000001
 21
200.0
 31
0.0
  0
LINE
  5
D0E
  8
0
 10
240.00000005000001
 20
200.0
 30
0.0
 11
240.0000000499999
 21
220.0000000048
 31
0.0
  0
LINE
  5
D14
  8
0
 10
69.270671232800055
 20
50.0
 30
0.0
 11
69.270671232800055
 21
150.0
 31
0.0
  0
LINE
  5
D15
  8
0
 10
70.729328890700003
 20
150.0
 30
0.0
 11
70.729328890700003
 21
50.0
 31
0.0
  0
LINE
  5
D1D
  8
0
 10
50.0
 20
50.0
 30
0.0
 11
50.0
 21
150.0
 31
0.0
  0
LINE
  5
D25
  8
0
 10
90.000000050000025
 20
150.0
 30
0.0
 11
90.000000050000025
 21
50.0
 31
0.0
  0
LINE
  5
D26
  8
0
 10
90.000000050000025
 20
150.0
 30
0.0
 11
50.0
 21
150.0
 31
0.0
  0
LINE
  5
D27
  8
0
 10
50.0
 20
50.0
 30
0.0
 11
90.000000050000025
 21
50.0
 31
0.0
  0
LINE
  5
D3E
  8
0
 10
72.900000050000017
 20
50.0
 30
0.0
 11
72.900000050000017
 21
150.0
 31
0.0
  0
LINE
  5
D41
  8
0
 10
67.100000071299974
 20
150.0
 30
0.0
 11
67.100000071299974
 21
50.0
 31
0.0
  0
LINE
  5
D4F
  8
0
 10
66.157866750322569
 20
50.0
 30
0.0
 11
66.157866750615995
 21
150.0
 31
0.0
  0
LINE
  5
D52
  8
0
 10
65.500000069999999
 20
50.0
 30
0.0
 11
65.500000069999999
 21
150.0
 31
0.0
  0
LINE
  5
D58
  8
0
 10
73.842133372166018
 20
150.0
 30
0.0
 11
73.842133371008444
 21
50.0
 31
0.0
  0
LINE
  5
D5F
  8
0
 10
74.50000005000004
 20
150.0
 30
0.0
 11
74.50000005000004
 21
50.0
 31
0.0
  0
LINE
  5
ECA
  8
1
 10
70.000000060000033
 20
375.00000000479997
 30
0.0
 11
70.000000060000033
 21
265.00000000479997
 31
0.0
  0
LINE
  5
ED3
  8
1
 10
70.000000060000104
 20
225.0000000048
 30
0.0
 11
70.000000060000104
 21
195.0
 31
0.0
  0
LINE
  5
ED4
  8
1
 10
70.000000060000033
 20
155.0
 30
0.0
 11
70.000000060000033
 21
44.999999999999972
 31
0.0
  0
ENDSEC
  0
EOF
