  0
SECTION
  2
HEADER
  9
$ACADVER
  1
AC1009
  9
$INSBASE
 10
0.0
 20
0.0
 30
0.0
  9
$EXTMIN
 10
0.0
 20
-2.960436562073669
 30
0.0
  9
$EXTMAX
 10
281.79637540043001
 20
287.00198152060528
 30
0.0
  9
$LIMMIN
 10
0.0
 20
0.0
  9
$LIMMAX
 10
375.0
 20
270.0
  9
$ORTHOMODE
 70
     1
  9
$REGENMODE
 70
     1
  9
$FILLMODE
 70
     1
  9
$QTEXTMODE
 70
     0
  9
$MIRRTEXT
 70
     0
  9
$DRAGMODE
 70
     2
  9
$LTSCALE
 40
10.0
  9
$OSMODE
 70
    55
  9
$ATTMODE
 70
     1
  9
$TEXTSIZE
 40
4.000000000000048
  9
$TRACEWID
 40
0.05
  9
$TEXTSTYLE
  7
STANDARD
  9
$CLAYER
  8
0
  9
$CELTYPE
  6
BYLAYER
  9
$CECOLOR
 62
   256
  9
$DIMSCALE
 40
1.0
  9
$DIMASZ
 40
3.0
  9
$DIMEXO
 40
2.0
  9
$DIMDLI
 40
0.38
  9
$DIMRND
 40
0.0
  9
$DIMDLE
 40
0.0
  9
$DIMEXE
 40
2.0
  9
$DIMTP
 40
0.0
  9
$DIMTM
 40
0.0
  9
$DIMTXT
 40
3.2000000000000002
  9
$DIMCEN
 40
0.0
  9
$DIMTSZ
 40
0.0
  9
$DIMTOL
 70
     0
  9
$DIMLIM
 70
     0
  9
$DIMTIH
 70
     0
  9
$DIMTOH
 70
     0
  9
$DIMSE1
 70
     0
  9
$DIMSE2
 70
     0
  9
$DIMTAD
 70
     1
  9
$DIMZIN
 70
     0
  9
$DIMBLK
  1

  9
$DIMASO
 70
     0
  9
$DIMSHO
 70
     0
  9
$DIMPOST
  1

  9
$DIMAPOST
  1

  9
$DIMALT
 70
     0
  9
$DIMALTD
 70
     2
  9
$DIMALTF
 40
25.399999999999999
  9
$DIMLFAC
 40
1.0
  9
$DIMTOFL
 70
     0
  9
$DIMTVP
 40
1.6000000000000001
  9
$DIMTIX
 70
     1
  9
$DIMSOXD
 70
     0
  9
$DIMSAH
 70
     0
  9
$DIMBLK1
  1

  9
$DIMBLK2
  1

  9
$DIMSTYLE
  2
STANDARD
  9
$DIMCLRD
 70
     4
  9
$DIMCLRE
 70
     4
  9
$DIMCLRT
 70
     4
  9
$DIMTFAC
 40
1.0
  9
$DIMGAP
 40
0.09
  9
$LUNITS
 70
     2
  9
$LUPREC
 70
     1
  9
$SKETCHINC
 40
0.1
  9
$FILLETRAD
 40
22.0
  9
$AUNITS
 70
     0
  9
$AUPREC
 70
     0
  9
$MENU
  1
E:\r13\win\SUPPORT\ACAD
  9
$ELEVATION
 40
0.0
  9
$PELEVATION
 40
0.0
  9
$THICKNESS
 40
0.0
  9
$LIMCHECK
 70
     0
  9
$BLIPMODE
 70
     0
  9
$CHAMFERA
 40
1.1999999999999991
  9
$CHAMFERB
 40
1.1999999999999991
  9
$SKPOLY
 70
     0
  9
$TDCREATE
 40
2449954.6020138888
  9
$TDUPDATE
 40
2456598.4858289231
  9
$TDINDWG
 40
0.2488856597
  9
$TDUSRTIMER
 40
0.2488856597
  9
$USRTIMER
 70
     1
  9
$ANGBASE
 50
0.0
  9
$ANGDIR
 70
     0
  9
$PDMODE
 70
     0
  9
$PDSIZE
 40
0.0
  9
$PLINEWID
 40
0.0
  9
$COORDS
 70
     1
  9
$SPLFRAME
 70
     0
  9
$SPLINETYPE
 70
     6
  9
$SPLINESEGS
 70
     8
  9
$ATTDIA
 70
     0
  9
$ATTREQ
 70
     1
  9
$HANDLING
 70
     1
  9
$HANDSEED
  5
1C03
  9
$SURFTAB1
 70
     6
  9
$SURFTAB2
 70
     6
  9
$SURFTYPE
 70
     6
  9
$SURFU
 70
     6
  9
$SURFV
 70
     6
  9
$UCSNAME
  2

  9
$UCSORG
 10
0.0
 20
0.0
 30
0.0
  9
$UCSXDIR
 10
1.0
 20
0.0
 30
0.0
  9
$UCSYDIR
 10
0.0
 20
1.0
 30
0.0
  9
$PUCSNAME
  2

  9
$PUCSORG
 10
0.0
 20
0.0
 30
0.0
  9
$PUCSXDIR
 10
1.0
 20
0.0
 30
0.0
  9
$PUCSYDIR
 10
0.0
 20
1.0
 30
0.0
  9
$USERI1
 70
     0
  9
$USERI2
 70
     1
  9
$USERI3
 70
     0
  9
$USERI4
 70
     0
  9
$USERI5
 70
     0
  9
$USERR1
 40
0.0
  9
$USERR2
 40
0.0
  9
$USERR3
 40
0.0
  9
$USERR4
 40
0.0
  9
$USERR5
 40
0.0
  9
$WORLDVIEW
 70
     1
  9
$SHADEDGE
 70
     3
  9
$SHADEDIF
 70
    70
  9
$TILEMODE
 70
     1
  9
$MAXACTVP
 70
    16
  9
$PLIMCHECK
 70
     0
  9
$PEXTMIN
 10
1.0000000000000000E+020
 20
1.0000000000000000E+020
 30
1.0000000000000000E+020
  9
$PEXTMAX
 10
-1.0000000000000000E+020
 20
-1.0000000000000000E+020
 30
-1.0000000000000000E+020
  9
$PLIMMIN
 10
0.0
 20
0.0
  9
$PLIMMAX
 10
12.0
 20
9.0
  9
$UNITMODE
 70
     0
  9
$VISRETAIN
 70
     0
  9
$PLINEGEN
 70
     0
  9
$PSLTSCALE
 70
     0
  0
ENDSEC
  0
SECTION
  2
TABLES
  0
TABLE
  2
VPORT
 70
     1
  0
VPORT
  2
*ACTIVE
 70
     0
 10
0.0
 20
0.0
 11
1.0
 21
1.0
 12
187.49427839065231
 22
186.00568621419021
 13
0.0
 23
0.0
 14
10.0
 24
10.0
 15
10.0
 25
10.0
 16
0.0
 26
0.0
 36
1.0
 17
0.0
 27
0.0
 37
0.0
 40
381.27399899655398
 41
1.7807262569832401
 42
50.0
 43
0.0
 44
0.0
 50
0.0
 51
0.0
 71
     0
 72
   500
 73
     1
 74
     0
 75
     0
 76
     0
 77
     0
 78
     2
  0
ENDTAB
  0
TABLE
  2
LTYPE
 70
     5
  0
LTYPE
  2
CONTINUOUS
 70
     0
  3
Solid Line
 72
    65
 73
     0
 40
0.0
  0
LTYPE
  2
CENTER
 70
     0
  3
____ _ ____ _ ____ _ ____ _ ____ _ ____ _ ____
 72
    65
 73
     4
 40
2.0
 49
1.25
 49
-0.25
 49
0.25
 49
-0.25
  0
LTYPE
  2
HIDDEN
 70
     0
  3
_ _ _ _ _ _ _ _ _ _ _ _ _ _ _ _ _ _ _ _ _ _ _
 72
    65
 73
     2
 40
0.375
 49
0.25
 49
-0.125
  0
LTYPE
  2
PHANTOM
 70
     0
  3
_____ _ _ _____ _ _ _____ _ _ _____ _ _ ____
 72
    65
 73
     6
 40
2.5
 49
1.25
 49
-0.25
 49
0.25
 49
-0.25
 49
0.25
 49
-0.25
  0
LTYPE
  2
PHANTOM2
 70
     0
  3
___ _ _ ___ _ _ ___ _ _ ___ _ _
 72
    65
 73
     6
 40
1.25
 49
0.625
 49
-0.125
 49
0.125
 49
-0.125
 49
0.125
 49
-0.125
  0
ENDTAB
  0
TABLE
  2
LAYER
 70
     5
  0
LAYER
  2
0
 70
     0
 62
     7
  6
CONTINUOUS
  0
LAYER
  2
1
 70
     0
 62
     1
  6
CENTER
  0
LAYER
  2
3
 70
     0
 62
     3
  6
CONTINUOUS
  0
LAYER
  2
2
 70
     0
 62
     2
  6
HIDDEN
  0
LAYER
  2
5
 70
     0
 62
     3
  6
PHANTOM
  0
ENDTAB
  0
TABLE
  2
STYLE
 70
     2
  0
STYLE
  2
STANDARD
 70
     0
 40
0.0
 41
1.0
 50
0.0
 71
     0
 42
4.000000000000048
  3
SIMPLEX
  4
BIGFONT
  0
STYLE
  2
STANDARD1
 70
     0
 40
0.0
 41
1.0
 50
0.0
 71
     0
 42
3.0
  3
txt
  4

  0
ENDTAB
  0
TABLE
  2
VIEW
 70
     1
  0
VIEW
  2
ALL
 70
     0
 40
270.0
 10
220.78595317725751
 20
135.0
 41
441.57190635451502
 11
0.0
 21
0.0
 31
1.0
 12
0.0
 22
0.0
 32
0.0
 42
50.0
 43
0.0
 44
0.0
 50
0.0
 71
     0
  0
ENDTAB
  0
TABLE
  2
UCS
 70
     0
  0
ENDTAB
  0
TABLE
  2
APPID
 70
     4
  0
APPID
  2
ACAD
 70
     0
  0
APPID
  2
ACAD_EXEMPT_FROM_CAD_STANDARDS
 70
     0
  0
APPID
  2
ACAD_MLEADERVER
 70
     0
  0
APPID
  2
ACAD_NAV_VCDISPLAY
 70
     0
  0
ENDTAB
  0
TABLE
  2
DIMSTYLE
 70
     1
  0
DIMSTYLE
  2
STANDARD
 70
     0
  3

  4

  5

  6

  7

 40
1.0
 41
0.18
 42
0.0625
 43
0.38
 44
0.18
 45
0.0
 46
0.0
 47
0.0
 48
0.0
140
0.18
141
0.09
142
0.0
143
25.399999999999999
144
1.0
145
0.0
146
1.0
147
0.09
 71
     0
 72
     0
 73
     1
 74
     1
 75
     0
 76
     0
 77
     0
 78
     0
170
     0
171
     2
172
     0
173
     0
174
     0
175
     0
176
     0
177
     0
178
     0
  0
ENDTAB
  0
ENDSEC
  0
SECTION
  2
BLOCKS
  0
BLOCK
  8
0
  2
$MODEL_SPACE
 70
     0
 10
0.0
 20
0.0
 30
0.0
  3
$MODEL_SPACE
  1

  0
ENDBLK
  5
DE5
  8
0
  0
BLOCK
 67
     1
  8
0
  2
$PAPER_SPACE
 70
     0
 10
0.0
 20
0.0
 30
0.0
  3
$PAPER_SPACE
  1

  0
ENDBLK
  5
DE3
 67
     1
  8
0
  0
ENDSEC
  0
SECTION
  2
ENTITIES
  0
LINE
  5
BCA
  8
0
 10
178.29637540042981
 20
130.5019815206056
 30
0.0
 11
172.79637540042989
 21
130.5019815206056
 31
0.0
  0
LINE
  5
BCB
  8
0
 10
178.79637540042989
 20
136.00198152060679
 30
0.0
 11
178.79637540042989
 21
131.0019815206056
 31
0.0
  0
LINE
  5
BCC
  8
0
 10
178.29637540042981
 20
136.50198152060679
 30
0.0
 11
172.79637540042989
 21
136.5019815206069
 31
0.0
  0
ARC
  5
BCD
  8
0
 10
178.29637540042989
 20
131.0019815206056
 30
0.0
 40
0.5
 50
270.0
 51
0.0
  0
ARC
  5
BCE
  8
0
 10
178.29637540042989
 20
136.00198152060679
 30
0.0
 40
0.5
 50
0.0
 51
90.000000000000028
  0
LINE
  5
BCF
  8
0
 10
142.79637540042989
 20
66.501981520604815
 30
0.0
 11
143.29637540042989
 21
66.501981520604815
 31
0.0
  0
LINE
  5
BD0
  8
0
 10
142.79637540042989
 20
28.501981520604829
 30
0.0
 11
142.79637540042989
 21
66.501981520604815
 31
0.0
  0
LINE
  5
BD1
  8
0
 10
143.29637540042989
 20
28.501981520604829
 30
0.0
 11
142.79637540042989
 21
28.501981520604829
 31
0.0
  0
CIRCLE
  5
BD2
  8
0
 10
60.296375400430009
 20
163.50198152060551
 30
0.0
 40
19.0
  0
LINE
  5
BD3
  8
0
 10
167.79637540042989
 20
71.501981520605199
 30
0.0
 11
167.79637540042989
 21
23.50198152060511
 31
0.0
  0
LINE
  5
BD4
  8
1
 10
183.79637540042989
 20
47.501981520604787
 30
0.0
 11
129.29637540042989
 21
47.501981520604787
 31
0.0
  0
LINE
  5
BD5
  8
1
 10
129.29637540042989
 20
163.50198152060551
 30
0.0
 11
179.79637540042989
 21
163.50198152060551
 31
0.0
  0
LINE
  5
BD6
  8
2
 10
68.676328760375554
 20
158.04520759408541
 30
0.0
 11
71.191350273066519
 21
155.5301860813945
 31
0.0
  0
LINE
  5
BD7
  8
2
 10
71.444973873043125
 20
155.8889169539251
 30
0.0
 11
68.910674322210866
 21
158.42321650475731
 31
0.0
  0
LINE
  5
BD8
  8
2
 10
65.753149326950052
 20
155.12202816065999
 30
0.0
 11
68.268170839640959
 21
152.607006647969
 31
0.0
  0
LINE
  5
BD9
  8
2
 10
67.909439967110416
 20
152.35338304799239
 30
0.0
 11
65.375140416278157
 21
154.88768259882471
 31
0.0
  0
LINE
  5
BDA
  8
0
 10
67.9094399671107
 20
152.35338304799211
 30
0.0
 11
68.074549993482194
 21
152.18827302162049
 31
0.0
  0
LINE
  5
BDB
  8
3
 10
68.268170839641073
 20
152.60700664796889
 30
0.0
 11
68.380727229735783
 21
152.49445025787421
 31
0.0
  0
LINE
  5
BDC
  8
0
 10
71.444973873042784
 20
155.88891695392539
 30
0.0
 11
71.610083899414917
 21
155.7238069275532
 31
0.0
  0
LINE
  5
BDD
  8
3
 10
71.191350273066575
 20
155.53018608139439
 30
0.0
 11
71.303906663161285
 21
155.4176296912996
 31
0.0
  0
LINE
  5
BDE
  8
0
 10
68.781656774668704
 20
158.5522340522995
 30
0.0
 11
65.246122868735995
 21
155.0167001463667
 31
0.0
  0
LINE
  5
BDF
  8
2
 10
170.79637540042989
 20
143.5019815206054
 30
0.0
 11
170.79637540042989
 21
183.5019815206054
 31
0.0
  0
LINE
  5
BE0
  8
0
 10
167.79637540042989
 20
121.5019815206052
 30
0.0
 11
167.79637540042989
 21
189.0019815206052
 31
0.0
  0
LINE
  5
BE1
  8
0
 10
146.29637540043109
 20
65.001981520604829
 30
0.0
 11
146.29637540043109
 21
30.001981520604769
 31
0.0
  0
LINE
  5
BE2
  8
0
 10
143.29637540042989
 20
67.501981520605185
 30
0.0
 11
143.29637540042989
 21
27.50198152060511
 31
0.0
  0
LINE
  5
BE3
  8
0
 10
172.79637540042989
 20
71.501981520605199
 30
0.0
 11
172.79637540042989
 21
23.50198152060511
 31
0.0
  0
LINE
  5
BE4
  8
0
 10
147.29637540042989
 20
71.501981520605199
 30
0.0
 11
172.79637540042989
 21
71.501981520605199
 31
0.0
  0
LINE
  5
BE5
  8
0
 10
172.79637540042989
 20
23.50198152060511
 30
0.0
 11
147.29637540042989
 21
23.50198152060511
 31
0.0
  0
LINE
  5
BE6
  8
0
 10
228.79637540042989
 20
182.32319263989851
 30
0.0
 11
228.79637540042989
 21
128.18077040131189
 31
0.0
  0
LINE
  5
BE7
  8
1
 10
281.79637540043001
 20
163.50198152060551
 30
0.0
 11
223.79637540043001
 21
163.50198152060551
 31
0.0
  0
LINE
  5
C13
  8
0
 10
65.246122868736052
 20
155.0167001463667
 30
0.0
 11
65.375140416278498
 21
154.88768259882431
 31
0.0
  0
LINE
  5
C14
  8
3
 10
65.552300104989683
 20
155.32287738262039
 30
0.0
 11
65.753149326949824
 21
155.12202816066019
 31
0.0
  0
LINE
  5
C15
  8
3
 10
68.475479538415115
 20
158.24605681604589
 30
0.0
 11
68.676328760375384
 21
158.04520759408561
 31
0.0
  0
LINE
  5
C16
  8
0
 10
68.781656774668761
 20
158.5522340522995
 30
0.0
 11
68.910674322210582
 21
158.4232165047577
 31
0.0
  0
LINE
  5
C17
  8
0
 10
71.610083899414917
 20
155.72380692755331
 30
0.0
 11
68.074549993482194
 21
152.18827302162049
 31
0.0
  0
LINE
  5
C18
  8
1
 10
63.124802525176221
 20
160.6735543958593
 30
0.0
 11
75.852724586534066
 21
147.94563233450151
 31
0.0
  0
CIRCLE
  5
C19
  8
0
 10
60.296375400430009
 20
163.50198152060551
 30
0.0
 40
13.5
  0
CIRCLE
  5
C1A
  8
0
 10
60.296375400430009
 20
163.50198152060551
 30
0.0
 40
10.0
  0
LINE
  5
C1B
  8
0
 10
143.29637540042989
 20
130.47507614671591
 30
0.0
 11
143.29637540042989
 21
185.0019815206052
 31
0.0
  0
LINE
  5
C1C
  8
0
 10
134.29637540042989
 20
150.00198152060551
 30
0.0
 11
140.99637540043
 21
150.00198152060551
 31
0.0
  0
LINE
  5
C1D
  8
0
 10
134.29637540042989
 20
177.00198152060551
 30
0.0
 11
134.29637540042989
 21
150.00198152060551
 31
0.0
  0
LINE
  5
C1E
  8
0
 10
160.25453266764649
 20
121.5019815206052
 30
0.0
 11
145.9282948271273
 21
126.7163056635723
 31
0.0
  0
LINE
  5
C1F
  8
0
 10
172.79637540042989
 20
121.5019815206052
 30
0.0
 11
160.2545326676466
 21
121.5019815206052
 31
0.0
  0
LINE
  5
C20
  8
0
 10
172.79637540042989
 20
189.0019815206052
 30
0.0
 11
147.29637540042989
 21
189.0019815206052
 31
0.0
  0
LINE
  5
C21
  8
0
 10
172.79637540042989
 20
121.5019815206052
 30
0.0
 11
172.79637540042989
 21
189.0019815206052
 31
0.0
  0
LINE
  5
C22
  8
1
 10
252.79637540043001
 20
117.0019815206052
 30
0.0
 11
252.79637540043001
 21
194.0019815206052
 31
0.0
  0
CIRCLE
  5
C23
  8
0
 10
252.79637540043001
 20
163.50198152060551
 30
0.0
 40
20.0
  0
CIRCLE
  5
C24
  8
0
 10
252.79637540043001
 20
133.50198152060551
 30
0.0
 40
3.0
  0
LINE
  5
C25
  8
1
 10
260.79637540043001
 20
133.50198152060551
 30
0.0
 11
244.79637540042989
 21
133.50198152060551
 31
0.0
  0
LINE
  5
C26
  8
1
 10
168.29637540042989
 20
133.50198152060551
 30
0.0
 11
183.79637540042989
 21
133.50198152060551
 31
0.0
  0
LINE
  5
C27
  8
2
 10
172.79637540042989
 20
183.5019815206054
 30
0.0
 11
170.79637540042989
 21
183.50198152060551
 31
0.0
  0
LINE
  5
C28
  8
2
 10
170.79637540042989
 20
143.50198152060551
 30
0.0
 11
172.79637540042989
 21
143.50198152060551
 31
0.0
  0
LINE
  5
C29
  8
2
 10
134.29637540042989
 20
173.50198152060551
 30
0.0
 11
170.79637540042989
 21
173.5019815206054
 31
0.0
  0
LINE
  5
C2A
  8
2
 10
170.79637540042989
 20
153.5019815206054
 30
0.0
 11
134.29637540042989
 21
153.50198152060551
 31
0.0
  0
LINE
  5
C2B
  8
0
 10
143.29637540042989
 20
144.50198152060551
 30
0.0
 11
142.79637540042989
 21
144.50198152060551
 31
0.0
  0
LINE
  5
C2C
  8
0
 10
142.79637540042989
 20
144.50198152060551
 30
0.0
 11
142.79637540042989
 21
182.50198152060551
 31
0.0
  0
LINE
  5
C2D
  8
0
 10
142.79637540042989
 20
182.50198152060551
 30
0.0
 11
143.29637540042989
 21
182.50198152060551
 31
0.0
  0
ARC
  5
C2E
  8
0
 10
252.79637540043001
 20
109.0019815206052
 30
0.0
 40
80.0
 50
74.742476709541791
 51
105.2575232904582
  0
ARC
  5
C2F
  8
0
 10
252.79637540043001
 20
201.5019815206052
 30
0.0
 40
80.0
 50
254.74247670954179
 51
285.25752329045821
  0
CIRCLE
  5
C30
  8
0
 10
252.79637540043001
 20
133.50198152060551
 30
0.0
 40
1.5
  0
LINE
  5
C31
  8
0
 10
276.79637540042989
 20
182.32319263989859
 30
0.0
 11
276.79637540042989
 21
128.18077040131169
 31
0.0
  0
ARC
  5
C32
  8
0
 10
116.5053427592148
 20
47.501981520605
 30
0.0
 40
43.749189908431852
 50
23.578641506830358
 51
33.269758183864418
  0
LINE
  5
C33
  8
0
 10
134.29637540042989
 20
61.001981520605028
 30
0.0
 11
134.29637540042989
 21
34.001981520605
 31
0.0
  0
LINE
  5
C34
  8
0
 10
134.29637540042989
 20
34.001981520605
 30
0.0
 11
140.99637540043
 21
34.001981520604971
 31
0.0
  0
LINE
  5
C35
  8
0
 10
134.29637540042989
 20
61.001981520605028
 30
0.0
 11
140.99637540043
 21
61.001981520604993
 31
0.0
  0
LINE
  5
C36
  8
1
 10
60.296375400430001
 20
117.0019815206051
 30
0.0
 11
60.296375400430009
 21
194.0019815206052
 31
0.0
  0
ARC
  5
C37
  8
0
 10
60.296375400430009
 20
201.5019815206052
 30
0.0
 40
80.0
 50
254.74247670954421
 51
257.36437490697881
  0
LINE
  5
C38
  8
0
 10
84.296375400429937
 20
182.32319263989859
 30
0.0
 11
84.296375400429937
 21
128.18077040131169
 31
0.0
  0
LINE
  5
C39
  8
1
 10
89.296375400429937
 20
163.50198152060551
 30
0.0
 11
31.296375400430058
 21
163.50198152060551
 31
0.0
  0
ARC
  5
C3A
  8
0
 10
60.296375400430001
 20
109.0019815206052
 30
0.0
 40
80.0
 50
74.74247670954415
 51
105.25752329045579
  0
LINE
  5
C3B
  8
0
 10
36.296375400430058
 20
182.32319263989871
 30
0.0
 11
36.296375400430058
 21
128.18077040131169
 31
0.0
  0
ARC
  5
C3C
  8
0
 10
80.296375400429966
 20
128.18077040131169
 30
0.0
 40
4.0
 50
285.25752329045582
 51
0.0
  0
ARC
  5
C3D
  8
0
 10
80.296375400429966
 20
182.32319263989871
 30
0.0
 40
4.0
 50
0.0
 51
74.74247670954415
  0
ARC
  5
C3E
  8
0
 10
40.296375400430058
 20
182.32319263989871
 30
0.0
 40
4.0
 50
105.2575232904566
 51
180.0
  0
ARC
  5
C3F
  8
0
 10
40.296375400430058
 20
128.18077040131169
 30
0.0
 40
4.0
 50
180.0
 51
254.74247670954421
  0
ARC
  5
C40
  8
0
 10
232.79637540042989
 20
182.32319263989851
 30
0.0
 40
4.0
 50
105.2575232904582
 51
180.0
  0
ARC
  5
C41
  8
0
 10
232.79637540042989
 20
128.18077040131189
 30
0.0
 40
4.0
 50
180.0
 51
254.74247670954179
  0
ARC
  5
C42
  8
0
 10
272.79637540042989
 20
128.18077040131169
 30
0.0
 40
4.0
 50
285.25752329045821
 51
0.0
  0
ARC
  5
C43
  8
0
 10
272.79637540042989
 20
182.32319263989859
 30
0.0
 40
4.0
 50
0.0
 51
74.742476709541791
  0
ARC
  5
C44
  8
0
 10
147.29637540042989
 20
130.47507614671591
 30
0.0
 40
4.0
 50
180.0
 51
250.0000000000006
  0
ARC
  5
C45
  8
0
 10
147.29637540042989
 20
185.0019815206052
 30
0.0
 40
4.0
 50
90.000000000000057
 51
180.0
  0
ARC
  5
C46
  8
0
 10
147.29637540042989
 20
27.50198152060511
 30
0.0
 40
4.0
 50
180.0
 51
270.0
  0
ARC
  5
C47
  8
0
 10
147.29637540042989
 20
67.501981520605185
 30
0.0
 40
4.0
 50
90.000000000000071
 51
180.0
  0
CIRCLE
  5
C48
  8
0
 10
252.79637540043001
 20
163.50198152060551
 30
0.0
 40
10.0
  0
LINE
  5
C49
  8
0
 10
134.29637540042989
 20
177.00198152060551
 30
0.0
 11
140.99637540043
 21
177.00198152060551
 31
0.0
  0
ARC
  5
C4A
  8
0
 10
147.29637540042989
 20
283.00198152060528
 30
0.0
 40
4.0
 50
90.000000000000071
 51
180.0
  0
ARC
  5
C4B
  8
0
 10
147.29637540042989
 20
243.00198152060531
 30
0.0
 40
4.0
 50
180.0
 51
270.0
  0
LINE
  5
C4C
  8
0
 10
134.29637540042989
 20
276.50198152060523
 30
0.0
 11
140.99637540043
 21
276.50198152060523
 31
0.0
  0
LINE
  5
C4D
  8
0
 10
134.29637540042989
 20
249.5019815206052
 30
0.0
 11
140.99637540043
 21
249.5019815206052
 31
0.0
  0
LINE
  5
C4E
  8
0
 10
134.29637540042989
 20
276.50198152060523
 30
0.0
 11
134.29637540042989
 21
249.5019815206052
 31
0.0
  0
LINE
  5
C4F
  8
0
 10
172.79637540042989
 20
239.0019815206052
 30
0.0
 11
147.29637540042989
 21
239.0019815206052
 31
0.0
  0
LINE
  5
C50
  8
0
 10
147.29637540042989
 20
287.00198152060528
 30
0.0
 11
172.79637540042989
 21
287.00198152060528
 31
0.0
  0
LINE
  5
C51
  8
0
 10
172.79637540042989
 20
287.00198152060528
 30
0.0
 11
172.79637540042989
 21
239.0019815206052
 31
0.0
  0
LINE
  5
C52
  8
0
 10
143.29637540042989
 20
283.00198152060528
 30
0.0
 11
143.29637540042989
 21
243.00198152060531
 31
0.0
  0
LINE
  5
C53
  8
1
 10
183.79637540042989
 20
263.001981520605
 30
0.0
 11
129.29637540042989
 21
263.001981520605
 31
0.0
  0
LINE
  5
C54
  8
0
 10
167.79637540042989
 20
287.00198152060528
 30
0.0
 11
167.79637540042989
 21
239.0019815206052
 31
0.0
  0
LINE
  5
C55
  8
0
 10
143.29637540042989
 20
244.001981520605
 30
0.0
 11
142.79637540042989
 21
244.001981520605
 31
0.0
  0
LINE
  5
C56
  8
0
 10
142.79637540042989
 20
244.001981520605
 30
0.0
 11
142.79637540042989
 21
282.001981520605
 31
0.0
  0
LINE
  5
C57
  8
0
 10
142.79637540042989
 20
282.001981520605
 30
0.0
 11
143.29637540042989
 21
282.001981520605
 31
0.0
  0
POLYLINE
  5
C58
  8
0
 66
     1
 10
0.0
 20
0.0
 30
0.0
 70
     1
  0
VERTEX
  5
C59
  8
0
 10
140.29637540042981
 20
57.047924973972073
 30
0.0
 42
-0.1332561510788753
  0
VERTEX
  5
C5A
  8
0
 10
140.1221661839248
 20
56.4058692530663
 30
0.0
 42
-0.1067562697216228
  0
VERTEX
  5
C5B
  8
0
 10
139.56414235339619
 20
55.797924973972073
 30
0.0
 42
-0.0828275296410038
 70
     2
 50
215.2643896827548
  0
VERTEX
  5
C5C
  8
0
 10
138.70391983962631
 20
55.382175885969019
 30
0.0
 42
-0.0867079104441661
  0
VERTEX
  5
C5D
  8
0
 10
137.79637540042981
 20
55.280158021005683
 30
0.0
 42
-0.0713517487531113
  0
VERTEX
  5
C5E
  8
0
 10
136.8059916830926
 20
55.422212450679488
 30
0.0
 42
-0.0828275296410024
  0
VERTEX
  5
C5F
  8
0
 10
136.0286084474636
 20
55.797924973972073
 30
0.0
 42
-0.1067562697216169
 70
     2
 50
144.73561031724509
  0
VERTEX
  5
C60
  8
0
 10
135.47058461693501
 20
56.4058692530663
 30
0.0
 42
-0.1332561510788725
  0
VERTEX
  5
C61
  8
0
 10
135.29637540042981
 20
57.047924973972073
 30
0.0
 42
-0.1332561510788583
  0
VERTEX
  5
C62
  8
0
 10
135.47058461693501
 20
57.68998069487796
 30
0.0
 42
-0.1067562697215875
  0
VERTEX
  5
C63
  8
0
 10
136.0286084474636
 20
58.29792497397213
 30
0.0
 42
-0.0828275296410098
 70
     2
 50
35.264389682754889
  0
VERTEX
  5
C64
  8
0
 10
136.8059916830926
 20
58.673637497264707
 30
0.0
 42
-0.0713517487531184
  0
VERTEX
  5
C65
  8
0
 10
137.79637540042981
 20
58.815691926938449
 30
0.0
 42
-0.0713517487531214
  0
VERTEX
  5
C66
  8
0
 10
138.78675911776719
 20
58.673637497264707
 30
0.0
 42
-0.0828275296410031
  0
VERTEX
  5
C67
  8
0
 10
139.56414235339619
 20
58.29792497397213
 30
0.0
 42
-0.1067562697216167
 70
     2
 50
324.735610317245
  0
VERTEX
  5
C68
  8
0
 10
140.1221661839248
 20
57.689980694877903
 30
0.0
 42
-0.1332561510788725
  0
SEQEND
  5
C69
  8
0
  0
POLYLINE
  5
C6A
  8
3
 66
     1
 10
0.0
 20
0.0
 30
0.0
 70
     1
  0
VERTEX
  5
C6B
  8
3
 10
135.72937540042929
 20
57.047924973972073
 30
0.0
 42
-0.1332561510789112
  0
VERTEX
  5
C6C
  8
3
 10
135.87341158063589
 20
57.57877664401704
 30
0.0
 42
-0.1067562697216285
  0
VERTEX
  5
C6D
  8
3
 10
136.3347856837168
 20
58.08142497397219
 30
0.0
 42
-0.0828275296409765
 70
     2
 50
35.264389682749787
  0
VERTEX
  5
C6E
  8
3
 10
137.04601765810219
 20
58.42516631993319
 30
0.0
 42
-0.0867079104441287
  0
VERTEX
  5
C6F
  8
3
 10
137.79637540042981
 20
58.509514690684817
 30
0.0
 42
-0.0713517487530916
  0
VERTEX
  5
C70
  8
3
 10
138.61522465792461
 20
58.392064088230569
 30
0.0
 42
-0.0828275296409883
  0
VERTEX
  5
C71
  8
3
 10
139.25796511714299
 20
58.08142497397219
 30
0.0
 42
-0.1067562697216101
 70
     2
 50
324.73561031725097
  0
VERTEX
  5
C72
  8
3
 10
139.71933922022399
 20
57.57877664401704
 30
0.0
 42
-0.1332561510788615
  0
VERTEX
  5
C73
  8
3
 10
139.8633754004305
 20
57.04792497397213
 30
0.0
 42
-0.1332561510788673
  0
VERTEX
  5
C74
  8
3
 10
139.71933922022399
 20
56.517073303927162
 30
0.0
 42
-0.1067562697216111
  0
VERTEX
  5
C75
  8
3
 10
139.25796511714299
 20
56.014424973972012
 30
0.0
 42
-0.0828275296410134
 70
     2
 50
215.26438968274991
  0
VERTEX
  5
C76
  8
3
 10
138.61522465792461
 20
55.70378585971369
 30
0.0
 42
-0.0713517487531155
  0
VERTEX
  5
C77
  8
3
 10
137.79637540042981
 20
55.586335257259371
 30
0.0
 42
-0.0713517487530977
  0
VERTEX
  5
C78
  8
3
 10
136.97752614293501
 20
55.703785859713633
 30
0.0
 42
-0.0828275296409885
  0
VERTEX
  5
C79
  8
3
 10
136.3347856837168
 20
56.014424973971948
 30
0.0
 42
-0.1067562697216128
 70
     2
 50
144.73561031725089
  0
VERTEX
  5
C7A
  8
3
 10
135.87341158063589
 20
56.517073303927098
 30
0.0
 42
-0.1332561510788984
  0
SEQEND
  5
C7B
  8
3
  0
LINE
  5
C7C
  8
0
 10
137.0746875639428
 20
56.16404149748891
 30
0.0
 11
138.5180632369171
 21
56.16404149748891
 31
0.0
  0
LINE
  5
C7D
  8
0
 10
137.0746875639428
 20
57.931808450455293
 30
0.0
 11
138.5180632369171
 21
57.931808450455293
 31
0.0
  0
LINE
  5
C7E
  8
0
 10
138.5180632369171
 20
56.16404149748891
 30
0.0
 11
139.23975107340391
 21
57.047924973972073
 31
0.0
  0
LINE
  5
C7F
  8
0
 10
138.5180632369171
 20
57.931808450455229
 30
0.0
 11
139.23975107340391
 21
57.047924973972073
 31
0.0
  0
LINE
  5
C80
  8
0
 10
137.0746875639428
 20
57.931808450455229
 30
0.0
 11
136.35299972745599
 21
57.047924973972073
 31
0.0
  0
LINE
  5
C81
  8
0
 10
137.0746875639428
 20
56.16404149748891
 30
0.0
 11
136.35299972745599
 21
57.047924973972073
 31
0.0
  0
LINE
  5
C82
  8
1
 10
137.79637540043001
 20
52.780158021005683
 30
0.0
 11
137.79637540042989
 21
61.315691926938449
 31
0.0
  0
LINE
  5
C83
  8
0
 10
42.796375400430001
 20
141.50198152060551
 30
0.0
 11
77.796375400430009
 21
141.50198152060551
 31
0.0
  0
LINE
  5
C84
  8
0
 10
42.796375400430001
 20
130.50198152060551
 30
0.0
 11
42.796375400430001
 21
141.50198152060551
 31
0.0
  0
LINE
  5
C85
  8
0
 10
77.796375400430009
 20
130.50198152060551
 30
0.0
 11
77.796375400430009
 21
141.50198152060551
 31
0.0
  0
LINE
  5
C86
  8
0
 10
42.796375400430001
 20
130.50198152060551
 30
0.0
 11
77.796375400430009
 21
130.50198152060551
 31
0.0
  0
LINE
  5
C87
  8
0
 10
82.296375400429952
 20
128.1807704013118
 30
0.0
 11
38.296375400430072
 21
128.18077040131169
 31
0.0
  0
LINE
  5
C88
  8
0
 10
178.79637540042989
 20
265.50198152060642
 30
0.0
 11
178.79637540042989
 21
260.50198152060511
 31
0.0
  0
LINE
  5
C89
  8
0
 10
178.29637540042981
 20
266.00198152060642
 30
0.0
 11
172.79637540042989
 21
266.00198152060642
 31
0.0
  0
ARC
  5
C8A
  8
0
 10
178.29637540042989
 20
265.50198152060642
 30
0.0
 40
0.5
 50
0.0
 51
90.000000000000028
  0
LINE
  5
C8B
  8
0
 10
178.29637540042981
 20
260.00198152060511
 30
0.0
 11
172.79637540042989
 21
260.00198152060511
 31
0.0
  0
ARC
  5
C8C
  8
0
 10
178.29637540042989
 20
260.50198152060511
 30
0.0
 40
0.5
 50
270.0
 51
0.0
  0
LINE
  5
C8D
  8
0
 10
178.79637540042989
 20
50.001981520606137
 30
0.0
 11
178.79637540042989
 21
45.001981520604943
 31
0.0
  0
LINE
  5
C8E
  8
0
 10
178.29637540042981
 20
50.50198152060613
 30
0.0
 11
172.79637540042989
 21
50.501981520606158
 31
0.0
  0
ARC
  5
C8F
  8
0
 10
178.29637540042989
 20
50.001981520606137
 30
0.0
 40
0.5
 50
0.0
 51
90.000000000000028
  0
LINE
  5
C90
  8
0
 10
178.29637540042981
 20
44.501981520604943
 30
0.0
 11
172.79637540042989
 21
44.501981520604943
 31
0.0
  0
ARC
  5
C91
  8
0
 10
178.29637540042989
 20
45.001981520604943
 30
0.0
 40
0.5
 50
270.0
 51
0.0
  0
CIRCLE
  5
C92
  8
0
 10
234.54637540042989
 20
145.25198152060551
 30
0.0
 40
1.25
  0
CIRCLE
  5
C93
  8
0
 10
271.04637540043001
 20
145.25198152060551
 30
0.0
 40
1.25
  0
CIRCLE
  5
C94
  8
0
 10
234.54637540042989
 20
181.75198152060551
 30
0.0
 40
1.25
  0
CIRCLE
  5
C95
  8
0
 10
271.09637540042991
 20
181.80198152060549
 30
0.0
 40
1.25
  0
LINE
  5
C96
  8
1
 10
267.29637540043001
 20
145.25198152060551
 30
0.0
 11
274.79637540042989
 21
145.25198152060551
 31
0.0
  0
LINE
  5
C97
  8
1
 10
271.04637540043001
 20
141.50198152060551
 30
0.0
 11
271.04637540043001
 21
149.00198152060551
 31
0.0
  0
LINE
  5
C98
  8
1
 10
267.34637540042991
 20
181.80198152060549
 30
0.0
 11
274.84637540042991
 21
181.80198152060549
 31
0.0
  0
LINE
  5
C99
  8
1
 10
271.09637540042991
 20
178.05198152060549
 30
0.0
 11
271.09637540042991
 21
185.55198152060549
 31
0.0
  0
LINE
  5
C9A
  8
1
 10
230.79637540042989
 20
181.75198152060551
 30
0.0
 11
238.29637540043001
 21
181.75198152060551
 31
0.0
  0
LINE
  5
C9B
  8
1
 10
234.54637540042989
 20
178.00198152060551
 30
0.0
 11
234.54637540042989
 21
185.50198152060551
 31
0.0
  0
LINE
  5
C9C
  8
1
 10
230.79637540042989
 20
145.25198152060551
 30
0.0
 11
238.29637540043001
 21
145.25198152060551
 31
0.0
  0
LINE
  5
C9D
  8
1
 10
234.54637540042989
 20
141.50198152060551
 30
0.0
 11
234.54637540042989
 21
149.00198152060551
 31
0.0
  0
LINE
  5
C9E
  8
0
 10
157.2963754004312
 20
65.001981520604801
 30
0.0
 11
157.29637540043109
 21
30.001981520604829
 31
0.0
  0
LINE
  5
C9F
  8
0
 10
157.29637540043109
 20
30.001981520604829
 30
0.0
 11
146.29637540043109
 21
30.001981520604769
 31
0.0
  0
LINE
  5
CA0
  8
0
 10
157.29637540043109
 20
65.001981520604801
 30
0.0
 11
146.29637540043109
 21
65.001981520604829
 31
0.0
  0
LINE
  5
CAD
  8
0
 10
42.796375400430001
 20
126.582335291078
 30
0.0
 11
77.796375400430009
 21
126.582335291078
 31
0.0
  0
ARC
  5
CAE
  8
0
 10
82.296375400429952
 20
130.1807704013118
 30
0.0
 40
2.0
 50
270.0
 51
0.0
  0
ARC
  5
CAF
  8
0
 10
38.296375400430072
 20
130.18077040131169
 30
0.0
 40
2.0
 50
180.0
 51
270.0
  0
LINE
  5
CB0
  8
0
 10
42.796375400430001
 20
123.4395065406252
 30
0.0
 11
42.796375400430001
 21
126.5823352910781
 31
0.0
  0
LINE
  5
CB1
  8
0
 10
77.796375400430009
 20
123.4395065406252
 30
0.0
 11
77.796375400430009
 21
126.5823352910781
 31
0.0
  0
LINE
  5
CB2
  8
0
 10
47.21548290126848
 20
122.5786627141498
 30
0.0
 11
73.377267899591615
 21
122.5786627141499
 31
0.0
  0
ARC
  5
CB3
  8
0
 10
60.296375400430009
 20
201.5019815206052
 30
0.0
 40
80.0
 50
282.63562509302119
 51
285.25752329045582
  0
ARC
  5
CB4
  8
0
 10
60.296375400430009
 20
201.5019815206052
 30
0.0
 40
80.0
 50
257.36437490697881
 51
282.63562509302119
  0
POLYLINE
  5
CE0
  8
3
 66
     1
 10
0.0
 20
0.0
 30
0.0
 70
     8
  0
VERTEX
  5
D08
  8
3
 10
150.296375400431
 20
51.101981520604731
 30
0.0
 70
    32
1001
ACAD
1000
R13OBJECT
1002
{
1005
CE0
1002
}
  0
VERTEX
  5
D09
  8
3
 10
150.34017974228161
 20
50.766319552116379
 30
0.0
 70
    32
1001
ACAD
1000
R13OBJECT
1002
{
1005
CE0
1002
}
  0
VERTEX
  5
D0A
  8
3
 10
150.48245741385031
 20
50.426930618330111
 30
0.0
 70
    32
1001
ACAD
1000
R13OBJECT
1002
{
1005
CE0
1002
}
  0
VERTEX
  5
D0B
  8
3
 10
150.72653656901539
 20
50.1209783531475
 30
0.0
 70
    32
1001
ACAD
1000
R13OBJECT
1002
{
1005
CE0
1002
}
  0
VERTEX
  5
D0C
  8
3
 10
151.05334350572701
 20
49.885992527621447
 30
0.0
 70
    32
1001
ACAD
1000
R13OBJECT
1002
{
1005
CE0
1002
}
  0
VERTEX
  5
D0D
  8
3
 10
151.79637540043109
 20
49.701981520604761
 30
0.0
 70
    32
1001
ACAD
1000
R13OBJECT
1002
{
1005
CE0
1002
}
  0
VERTEX
  5
D0E
  8
3
 10
152.53940729513519
 20
49.885992527621497
 30
0.0
 70
    32
1001
ACAD
1000
R13OBJECT
1002
{
1005
CE0
1002
}
  0
VERTEX
  5
D0F
  8
3
 10
152.86621423184681
 20
50.1209783531475
 30
0.0
 70
    32
1001
ACAD
1000
R13OBJECT
1002
{
1005
CE0
1002
}
  0
VERTEX
  5
D10
  8
3
 10
153.11029338701189
 20
50.426930618330111
 30
0.0
 70
    32
1001
ACAD
1000
R13OBJECT
1002
{
1005
CE0
1002
}
  0
VERTEX
  5
D11
  8
3
 10
153.25257105858049
 20
50.766319552116379
 30
0.0
 70
    32
1001
ACAD
1000
R13OBJECT
1002
{
1005
CE0
1002
}
  0
VERTEX
  5
D12
  8
3
 10
153.29637540043089
 20
51.101981520604788
 30
0.0
 70
    32
1001
ACAD
1000
R13OBJECT
1002
{
1005
CE0
1002
}
  0
VERTEX
  5
D13
  8
3
 10
153.25257105858049
 20
51.437643489093141
 30
0.0
 70
    32
1001
ACAD
1000
R13OBJECT
1002
{
1005
CE0
1002
}
  0
VERTEX
  5
D14
  8
3
 10
153.11029338701189
 20
51.777032422879351
 30
0.0
 70
    32
1001
ACAD
1000
R13OBJECT
1002
{
1005
CE0
1002
}
  0
VERTEX
  5
D15
  8
3
 10
152.86621423184681
 20
52.082984688062012
 30
0.0
 70
    32
1001
ACAD
1000
R13OBJECT
1002
{
1005
CE0
1002
}
  0
VERTEX
  5
D16
  8
3
 10
152.53940729513511
 20
52.317970513588008
 30
0.0
 70
    32
1001
ACAD
1000
R13OBJECT
1002
{
1005
CE0
1002
}
  0
VERTEX
  5
D17
  8
3
 10
151.796375400431
 20
52.501981520604822
 30
0.0
 70
    32
1001
ACAD
1000
R13OBJECT
1002
{
1005
CE0
1002
}
  0
VERTEX
  5
D18
  8
3
 10
151.0533435057269
 20
52.317970513588037
 30
0.0
 70
    32
1001
ACAD
1000
R13OBJECT
1002
{
1005
CE0
1002
}
  0
VERTEX
  5
D19
  8
3
 10
150.72653656901539
 20
52.082984688062012
 30
0.0
 70
    32
1001
ACAD
1000
R13OBJECT
1002
{
1005
CE0
1002
}
  0
VERTEX
  5
D1A
  8
3
 10
150.4824574138502
 20
51.777032422879401
 30
0.0
 70
    32
1001
ACAD
1000
R13OBJECT
1002
{
1005
CE0
1002
}
  0
VERTEX
  5
D1B
  8
3
 10
150.34017974228161
 20
51.437643489093141
 30
0.0
 70
    32
1001
ACAD
1000
R13OBJECT
1002
{
1005
CE0
1002
}
  0
VERTEX
  5
D1C
  8
3
 10
150.296375400431
 20
51.101981520604731
 30
0.0
 70
    32
1001
ACAD
1000
R13OBJECT
1002
{
1005
CE0
1002
}
  0
SEQEND
  5
D1D
  8
3
  0
POLYLINE
  5
CE1
  8
3
 66
     1
 10
0.0
 20
0.0
 30
0.0
 70
     8
  0
VERTEX
  5
D1E
  8
3
 10
149.79637540043109
 20
51.101981520604731
 30
0.0
 70
    32
1001
ACAD
1000
R13OBJECT
1002
{
1005
CE1
1002
}
  0
VERTEX
  5
D1F
  8
3
 10
150.02546334912461
 20
50.219007493721548
 30
0.0
 70
    32
1001
ACAD
1000
R13OBJECT
1002
{
1005
CE1
1002
}
  0
VERTEX
  5
D20
  8
3
 10
150.66024590696881
 20
49.53831217540678
 30
0.0
 70
    32
1001
ACAD
1000
R13OBJECT
1002
{
1005
CE1
1002
}
  0
VERTEX
  5
D21
  8
3
 10
151.55530203992041
 20
49.21583465981842
 30
0.0
 70
    32
1001
ACAD
1000
R13OBJECT
1002
{
1005
CE1
1002
}
  0
VERTEX
  5
D22
  8
3
 10
152.5055851745162
 20
49.325450659502437
 30
0.0
 70
    32
1001
ACAD
1000
R13OBJECT
1002
{
1005
CE1
1002
}
  0
VERTEX
  5
D23
  8
3
 10
153.29339689677329
 20
49.842048469947223
 30
0.0
 70
    32
1001
ACAD
1000
R13OBJECT
1002
{
1005
CE1
1002
}
  0
VERTEX
  5
D24
  8
3
 10
153.73825903528319
 20
50.647281758458369
 30
0.0
 70
    32
1001
ACAD
1000
R13OBJECT
1002
{
1005
CE1
1002
}
  0
VERTEX
  5
D25
  8
3
 10
153.73825903528319
 20
51.5566812827511
 30
0.0
 70
    32
1001
ACAD
1000
R13OBJECT
1002
{
1005
CE1
1002
}
  0
VERTEX
  5
D26
  8
3
 10
153.29339689677329
 20
52.361914571262268
 30
0.0
 70
    32
1001
ACAD
1000
R13OBJECT
1002
{
1005
CE1
1002
}
  0
VERTEX
  5
D27
  8
3
 10
152.50558517451611
 20
52.878512381707019
 30
0.0
 70
    32
1001
ACAD
1000
R13OBJECT
1002
{
1005
CE1
1002
}
  0
VERTEX
  5
D28
  8
3
 10
151.55530203992041
 20
52.988128381391043
 30
0.0
 70
    32
1001
ACAD
1000
R13OBJECT
1002
{
1005
CE1
1002
}
  0
VERTEX
  5
D29
  8
3
 10
150.6602459069687
 20
52.665650865802682
 30
0.0
 70
    32
1001
ACAD
1000
R13OBJECT
1002
{
1005
CE1
1002
}
  0
VERTEX
  5
D2A
  8
3
 10
150.02546334912461
 20
51.984955547487878
 30
0.0
 70
    32
1001
ACAD
1000
R13OBJECT
1002
{
1005
CE1
1002
}
  0
VERTEX
  5
D2B
  8
3
 10
149.79637540043109
 20
51.101981520604703
 30
0.0
 70
    32
1001
ACAD
1000
R13OBJECT
1002
{
1005
CE1
1002
}
  0
SEQEND
  5
D2C
  8
3
  0
POLYLINE
  5
CE2
  8
3
 66
     1
 10
0.0
 20
0.0
 30
0.0
 70
     8
  0
VERTEX
  5
D2D
  8
3
 10
153.01878484614099
 20
42.827606495579111
 30
0.0
 70
    32
1001
ACAD
1000
R13OBJECT
1002
{
1005
CE2
1002
}
  0
VERTEX
  5
D2E
  8
3
 10
153.0986055850519
 20
42.901333999412877
 30
0.0
 70
    32
1001
ACAD
1000
R13OBJECT
1002
{
1005
CE2
1002
}
  0
VERTEX
  5
D2F
  8
3
 10
153.20813413627781
 20
43.05914837218522
 30
0.0
 70
    32
1001
ACAD
1000
R13OBJECT
1002
{
1005
CE2
1002
}
  0
VERTEX
  5
D30
  8
3
 10
153.2963754004312
 20
43.429337306578013
 30
0.0
 70
    32
1001
ACAD
1000
R13OBJECT
1002
{
1005
CE2
1002
}
  0
VERTEX
  5
D31
  8
3
 10
153.20813413627781
 20
43.799526240970799
 30
0.0
 70
    32
1001
ACAD
1000
R13OBJECT
1002
{
1005
CE2
1002
}
  0
VERTEX
  5
D32
  8
3
 10
153.0986055850519
 20
43.957340613743199
 30
0.0
 70
    32
1001
ACAD
1000
R13OBJECT
1002
{
1005
CE2
1002
}
  0
VERTEX
  5
D33
  8
3
 10
152.9610132375656
 20
44.071098766558343
 30
0.0
 70
    32
1001
ACAD
1000
R13OBJECT
1002
{
1005
CE2
1002
}
  0
VERTEX
  5
D34
  8
3
 10
152.81378998085501
 20
44.13507401181117
 30
0.0
 70
    32
1001
ACAD
1000
R13OBJECT
1002
{
1005
CE2
1002
}
  0
VERTEX
  5
D35
  8
3
 10
152.67137540043109
 20
44.154337306578029
 30
0.0
 70
    32
1001
ACAD
1000
R13OBJECT
1002
{
1005
CE2
1002
}
  0
VERTEX
  5
D36
  8
3
 10
152.528960820007
 20
44.13507401181117
 30
0.0
 70
    32
1001
ACAD
1000
R13OBJECT
1002
{
1005
CE2
1002
}
  0
VERTEX
  5
D37
  8
3
 10
152.3817375632965
 20
44.071098766558279
 30
0.0
 70
    32
1001
ACAD
1000
R13OBJECT
1002
{
1005
CE2
1002
}
  0
VERTEX
  5
D38
  8
3
 10
152.24414521581019
 20
43.957340613743149
 30
0.0
 70
    32
1001
ACAD
1000
R13OBJECT
1002
{
1005
CE2
1002
}
  0
VERTEX
  5
D39
  8
3
 10
152.13461666458431
 20
43.799526240970771
 30
0.0
 70
    32
1001
ACAD
1000
R13OBJECT
1002
{
1005
CE2
1002
}
  0
VERTEX
  5
D3A
  8
3
 10
152.04637540043109
 20
43.429337306578013
 30
0.0
 70
    32
1001
ACAD
1000
R13OBJECT
1002
{
1005
CE2
1002
}
  0
SEQEND
  5
D3B
  8
3
  0
LINE
  5
CE3
  8
3
 10
153.796375400431
 20
48.87698152060473
 30
0.0
 11
151.96304206709769
 21
47.501981520604851
 31
0.0
  0
POLYLINE
  5
CE4
  8
3
 66
     1
 10
0.0
 20
0.0
 30
0.0
 70
     8
  0
VERTEX
  5
D3C
  8
3
 10
153.27013588124041
 20
42.39225373225203
 30
0.0
 70
    32
1001
ACAD
1000
R13OBJECT
1002
{
1005
CE4
1002
}
  0
VERTEX
  5
D3D
  8
3
 10
153.70018153605361
 20
42.933703915745681
 30
0.0
 70
    32
1001
ACAD
1000
R13OBJECT
1002
{
1005
CE4
1002
}
  0
VERTEX
  5
D3E
  8
3
 10
153.77890122893169
 20
43.644407442286209
 30
0.0
 70
    32
1001
ACAD
1000
R13OBJECT
1002
{
1005
CE4
1002
}
  0
VERTEX
  5
D3F
  8
3
 10
153.479413051937
 20
44.281666886705821
 30
0.0
 70
    32
1001
ACAD
1000
R13OBJECT
1002
{
1005
CE4
1002
}
  0
VERTEX
  5
D40
  8
3
 10
152.90398891833641
 20
44.62786516881728
 30
0.0
 70
    32
1001
ACAD
1000
R13OBJECT
1002
{
1005
CE4
1002
}
  0
VERTEX
  5
D41
  8
3
 10
152.24912983085341
 20
44.564779389017147
 30
0.0
 70
    32
1001
ACAD
1000
R13OBJECT
1002
{
1005
CE4
1002
}
  0
VERTEX
  5
D42
  8
3
 10
151.73846295390271
 20
44.113952646151048
 30
0.0
 70
    32
1001
ACAD
1000
R13OBJECT
1002
{
1005
CE4
1002
}
  0
VERTEX
  5
D43
  8
3
 10
151.54637540043109
 20
43.42933730657775
 30
0.0
 70
    32
1001
ACAD
1000
R13OBJECT
1002
{
1005
CE4
1002
}
  0
SEQEND
  5
D44
  8
3
  0
LINE
  5
CE5
  8
3
 10
151.96304206709769
 20
47.501981520604851
 30
0.0
 11
153.79637540043109
 21
47.501981520604851
 31
0.0
  0
LINE
  5
CE6
  8
3
 10
153.79637540043109
 20
46.001981520604843
 30
0.0
 11
149.79637540043109
 21
46.001981520604843
 31
0.0
  0
LINE
  5
CE7
  8
3
 10
153.79637540043109
 20
45.501981520604851
 30
0.0
 11
149.79637540043109
 21
45.501981520604851
 31
0.0
  0
LINE
  5
CE8
  8
3
 10
153.79637540043109
 20
47.001981520604851
 30
0.0
 11
149.79637540043109
 21
47.001981520604851
 31
0.0
  0
LINE
  5
CE9
  8
3
 10
153.79637540043109
 20
49.501981520604851
 30
0.0
 11
151.79637540043109
 21
48.001981520604851
 31
0.0
  0
POLYLINE
  5
CEA
  8
3
 66
     1
 10
0.0
 20
0.0
 30
0.0
 70
     8
  0
VERTEX
  5
D45
  8
3
 10
154.57067660714139
 20
43.539868782139237
 30
0.0
 70
    32
1001
ACAD
1000
R13OBJECT
1002
{
1005
CEA
1002
}
  0
VERTEX
  5
D46
  8
3
 10
155.33951534789821
 20
44.949454351209127
 30
0.0
 70
    32
1001
ACAD
1000
R13OBJECT
1002
{
1005
CEA
1002
}
  0
VERTEX
  5
D47
  8
3
 10
155.74472784252379
 20
46.621001312297601
 30
0.0
 70
    32
1001
ACAD
1000
R13OBJECT
1002
{
1005
CEA
1002
}
  0
VERTEX
  5
D48
  8
3
 10
155.74472784252379
 20
48.382961728912008
 30
0.0
 70
    32
1001
ACAD
1000
R13OBJECT
1002
{
1005
CEA
1002
}
  0
VERTEX
  5
D49
  8
3
 10
155.33951534789821
 20
50.054508690000482
 30
0.0
 70
    32
1001
ACAD
1000
R13OBJECT
1002
{
1005
CEA
1002
}
  0
VERTEX
  5
D4A
  8
3
 10
154.57067660714139
 20
51.464094259070372
 30
0.0
 70
    32
1001
ACAD
1000
R13OBJECT
1002
{
1005
CEA
1002
}
  0
SEQEND
  5
D4B
  8
3
  0
POLYLINE
  5
CEB
  8
3
 66
     1
 10
0.0
 20
0.0
 30
0.0
 70
     8
  0
VERTEX
  5
D4C
  8
3
 10
154.26747016472791
 20
43.972892458502592
 30
0.0
 70
    32
1001
ACAD
1000
R13OBJECT
1002
{
1005
CEB
1002
}
  0
VERTEX
  5
D4D
  8
3
 10
154.82242680134701
 20
45.001037905720572
 30
0.0
 70
    32
1001
ACAD
1000
R13OBJECT
1002
{
1005
CEB
1002
}
  0
VERTEX
  5
D4E
  8
3
 10
155.1651479982219
 20
46.146873429674081
 30
0.0
 70
    32
1001
ACAD
1000
R13OBJECT
1002
{
1005
CEB
1002
}
  0
VERTEX
  5
D4F
  8
3
 10
155.29586821311349
 20
47.415897520826078
 30
0.0
 70
    32
1001
ACAD
1000
R13OBJECT
1002
{
1005
CEB
1002
}
  0
VERTEX
  5
D50
  8
3
 10
155.29637540043089
 20
47.50198152060473
 30
0.0
 70
    32
1001
ACAD
1000
R13OBJECT
1002
{
1005
CEB
1002
}
  0
VERTEX
  5
D51
  8
3
 10
155.19661866079869
 20
48.687616587594128
 30
0.0
 70
    32
1001
ACAD
1000
R13OBJECT
1002
{
1005
CEB
1002
}
  0
VERTEX
  5
D52
  8
3
 10
154.85472908255369
 20
49.922049429227393
 30
0.0
 70
    32
1001
ACAD
1000
R13OBJECT
1002
{
1005
CEB
1002
}
  0
VERTEX
  5
D53
  8
3
 10
154.82242680134701
 20
50.002925135488951
 30
0.0
 70
    32
1001
ACAD
1000
R13OBJECT
1002
{
1005
CEB
1002
}
  0
VERTEX
  5
D54
  8
3
 10
154.26747016472791
 20
51.031070582706832
 30
0.0
 70
    32
1001
ACAD
1000
R13OBJECT
1002
{
1005
CEB
1002
}
  0
SEQEND
  5
D55
  8
3
  0
LINE
  5
CEC
  8
3
 10
154.57067660714131
 20
51.464094259070372
 30
0.0
 11
154.26747016472819
 21
51.031070582706512
 31
0.0
  0
LINE
  5
CED
  8
3
 10
153.79637540043109
 20
47.001981520604851
 30
0.0
 11
153.79637540043109
 21
47.501981520604851
 31
0.0
  0
LINE
  5
CEE
  8
3
 10
153.79637540043109
 20
49.501981520604851
 30
0.0
 11
153.79637540043109
 21
48.876981520604851
 31
0.0
  0
LINE
  5
CEF
  8
3
 10
153.27013588124041
 20
42.392253732252087
 30
0.0
 11
153.01878484614099
 21
42.827606495579133
 31
0.0
  0
LINE
  5
CF0
  8
3
 10
154.26747016472811
 20
43.972892458503068
 30
0.0
 11
154.57067660714131
 21
43.539868782139209
 31
0.0
  0
LINE
  5
CF1
  8
3
 10
153.79637540043109
 20
46.001981520604843
 30
0.0
 11
153.79637540043109
 21
45.501981520604851
 31
0.0
  0
POLYLINE
  5
CF2
  8
3
 66
     1
 10
0.0
 20
0.0
 30
0.0
 70
     8
  0
VERTEX
  5
D56
  8
3
 10
149.32528063613421
 20
51.031070582706938
 30
0.0
 70
    32
1001
ACAD
1000
R13OBJECT
1002
{
1005
CF2
1002
}
  0
VERTEX
  5
D57
  8
3
 10
148.77032399951511
 20
50.002925135488951
 30
0.0
 70
    32
1001
ACAD
1000
R13OBJECT
1002
{
1005
CF2
1002
}
  0
VERTEX
  5
D58
  8
3
 10
148.7380217183084
 20
49.922049429227471
 30
0.0
 70
    32
1001
ACAD
1000
R13OBJECT
1002
{
1005
CF2
1002
}
  0
VERTEX
  5
D59
  8
3
 10
148.3961321400634
 20
48.687616587594128
 30
0.0
 70
    32
1001
ACAD
1000
R13OBJECT
1002
{
1005
CF2
1002
}
  0
VERTEX
  5
D5A
  8
3
 10
148.29637540043109
 20
47.501981520604758
 30
0.0
 70
    32
1001
ACAD
1000
R13OBJECT
1002
{
1005
CF2
1002
}
  0
VERTEX
  5
D5B
  8
3
 10
148.2968825877486
 20
47.415897520826057
 30
0.0
 70
    32
1001
ACAD
1000
R13OBJECT
1002
{
1005
CF2
1002
}
  0
VERTEX
  5
D5C
  8
3
 10
148.42760280264011
 20
46.14687342967413
 30
0.0
 70
    32
1001
ACAD
1000
R13OBJECT
1002
{
1005
CF2
1002
}
  0
VERTEX
  5
D5D
  8
3
 10
148.7703239995152
 20
45.001037905720629
 30
0.0
 70
    32
1001
ACAD
1000
R13OBJECT
1002
{
1005
CF2
1002
}
  0
VERTEX
  5
D5E
  8
3
 10
149.3252806361341
 20
43.972892458502592
 30
0.0
 70
    32
1001
ACAD
1000
R13OBJECT
1002
{
1005
CF2
1002
}
  0
SEQEND
  5
D5F
  8
3
  0
POLYLINE
  5
CF3
  8
3
 66
     1
 10
0.0
 20
0.0
 30
0.0
 70
     8
  0
VERTEX
  5
D60
  8
3
 10
149.0220741937207
 20
51.464094259070372
 30
0.0
 70
    32
1001
ACAD
1000
R13OBJECT
1002
{
1005
CF3
1002
}
  0
VERTEX
  5
D61
  8
3
 10
148.25323545296391
 20
50.054508690000482
 30
0.0
 70
    32
1001
ACAD
1000
R13OBJECT
1002
{
1005
CF3
1002
}
  0
VERTEX
  5
D62
  8
3
 10
147.8480229583383
 20
48.382961728912008
 30
0.0
 70
    32
1001
ACAD
1000
R13OBJECT
1002
{
1005
CF3
1002
}
  0
VERTEX
  5
D63
  8
3
 10
147.8480229583383
 20
46.621001312297601
 30
0.0
 70
    32
1001
ACAD
1000
R13OBJECT
1002
{
1005
CF3
1002
}
  0
VERTEX
  5
D64
  8
3
 10
148.25323545296399
 20
44.949454351209127
 30
0.0
 70
    32
1001
ACAD
1000
R13OBJECT
1002
{
1005
CF3
1002
}
  0
VERTEX
  5
D65
  8
3
 10
149.0220741937207
 20
43.539868782139237
 30
0.0
 70
    32
1001
ACAD
1000
R13OBJECT
1002
{
1005
CF3
1002
}
  0
SEQEND
  5
D66
  8
3
  0
LINE
  5
CF4
  8
3
 10
149.0220741937207
 20
51.464094259070372
 30
0.0
 11
149.3252806361339
 21
51.031070582706512
 31
0.0
  0
LINE
  5
CF5
  8
3
 10
151.6297087337644
 20
47.501981520604851
 30
0.0
 11
149.79637540043109
 21
48.876981520604851
 31
0.0
  0
LINE
  5
CF6
  8
3
 10
149.796375400431
 20
47.501981520604851
 30
0.0
 11
149.79637540043109
 21
47.001981520604851
 31
0.0
  0
LINE
  5
CF7
  8
3
 10
151.6297087337644
 20
47.501981520604851
 30
0.0
 11
149.79637540043109
 21
47.501981520604851
 31
0.0
  0
LINE
  5
CF8
  8
3
 10
151.79637540043109
 20
48.001981520604851
 30
0.0
 11
149.79637540043109
 21
49.501981520604851
 31
0.0
  0
LINE
  5
CF9
  8
3
 10
149.796375400431
 20
49.501981520604851
 30
0.0
 11
149.796375400431
 21
48.876981520604851
 31
0.0
  0
LINE
  5
CFA
  8
3
 10
149.3252806361339
 20
43.972892458503068
 30
0.0
 11
149.0220741937207
 21
43.539868782139209
 31
0.0
  0
LINE
  5
CFB
  8
3
 10
149.79637540043109
 20
46.001981520604843
 30
0.0
 11
149.79637540043109
 21
45.501981520604851
 31
0.0
  0
LINE
  5
CFC
  8
3
 10
150.32261491962171
 20
44.466420880904103
 30
0.0
 11
150.5739659547213
 21
44.031068117576943
 31
0.0
  0
POLYLINE
  5
CFD
  8
3
 66
     1
 10
0.0
 20
0.0
 30
0.0
 70
     8
  0
VERTEX
  5
D67
  8
3
 10
150.5739659547213
 20
44.031068117576908
 30
0.0
 70
    32
1001
ACAD
1000
R13OBJECT
1002
{
1005
CFD
1002
}
  0
VERTEX
  5
D68
  8
3
 10
150.49414521581019
 20
43.957340613743149
 30
0.0
 70
    32
1001
ACAD
1000
R13OBJECT
1002
{
1005
CFD
1002
}
  0
VERTEX
  5
D69
  8
3
 10
150.38461666458451
 20
43.79952624097082
 30
0.0
 70
    32
1001
ACAD
1000
R13OBJECT
1002
{
1005
CFD
1002
}
  0
VERTEX
  5
D6A
  8
3
 10
150.3842967703799
 20
43.798904272819769
 30
0.0
 70
    32
1001
ACAD
1000
R13OBJECT
1002
{
1005
CFD
1002
}
  0
VERTEX
  5
D6B
  8
3
 10
150.2997496409198
 20
43.504846812915687
 30
0.0
 70
    32
1001
ACAD
1000
R13OBJECT
1002
{
1005
CFD
1002
}
  0
VERTEX
  5
D6C
  8
3
 10
150.296375400431
 20
43.429337306577949
 30
0.0
 70
    32
1001
ACAD
1000
R13OBJECT
1002
{
1005
CFD
1002
}
  0
VERTEX
  5
D6D
  8
3
 10
150.3277752140269
 20
43.202804897700261
 30
0.0
 70
    32
1001
ACAD
1000
R13OBJECT
1002
{
1005
CFD
1002
}
  0
VERTEX
  5
D6E
  8
3
 10
150.38461666458451
 20
43.059148372185263
 30
0.0
 70
    32
1001
ACAD
1000
R13OBJECT
1002
{
1005
CFD
1002
}
  0
VERTEX
  5
D6F
  8
3
 10
150.4695971130449
 20
42.929596430847589
 30
0.0
 70
    32
1001
ACAD
1000
R13OBJECT
1002
{
1005
CFD
1002
}
  0
VERTEX
  5
D70
  8
3
 10
150.49414521581019
 20
42.901333999412877
 30
0.0
 70
    32
1001
ACAD
1000
R13OBJECT
1002
{
1005
CFD
1002
}
  0
VERTEX
  5
D71
  8
3
 10
150.6317375632965
 20
42.78757584659774
 30
0.0
 70
    32
1001
ACAD
1000
R13OBJECT
1002
{
1005
CFD
1002
}
  0
VERTEX
  5
D72
  8
3
 10
150.7789608200072
 20
42.723600601344842
 30
0.0
 70
    32
1001
ACAD
1000
R13OBJECT
1002
{
1005
CFD
1002
}
  0
VERTEX
  5
D73
  8
3
 10
150.92137540043109
 20
42.704337306577983
 30
0.0
 70
    32
1001
ACAD
1000
R13OBJECT
1002
{
1005
CFD
1002
}
  0
VERTEX
  5
D74
  8
3
 10
150.97322768446961
 20
42.706862918586907
 30
0.0
 70
    32
1001
ACAD
1000
R13OBJECT
1002
{
1005
CFD
1002
}
  0
VERTEX
  5
D75
  8
3
 10
151.06346317868929
 20
42.723511155156601
 30
0.0
 70
    32
1001
ACAD
1000
R13OBJECT
1002
{
1005
CFD
1002
}
  0
VERTEX
  5
D76
  8
3
 10
151.06378998085509
 20
42.723600601344842
 30
0.0
 70
    32
1001
ACAD
1000
R13OBJECT
1002
{
1005
CFD
1002
}
  0
VERTEX
  5
D77
  8
3
 10
151.2110132375656
 20
42.787575846597683
 30
0.0
 70
    32
1001
ACAD
1000
R13OBJECT
1002
{
1005
CFD
1002
}
  0
VERTEX
  5
D78
  8
3
 10
151.24674411050751
 20
42.81117582633722
 30
0.0
 70
    32
1001
ACAD
1000
R13OBJECT
1002
{
1005
CFD
1002
}
  0
VERTEX
  5
D79
  8
3
 10
151.3486055850519
 20
42.901333999412813
 30
0.0
 70
    32
1001
ACAD
1000
R13OBJECT
1002
{
1005
CFD
1002
}
  0
VERTEX
  5
D7A
  8
3
 10
151.40783477159789
 20
42.975470627764977
 30
0.0
 70
    32
1001
ACAD
1000
R13OBJECT
1002
{
1005
CFD
1002
}
  0
VERTEX
  5
D7B
  8
3
 10
151.45813413627769
 20
43.05914837218517
 30
0.0
 70
    32
1001
ACAD
1000
R13OBJECT
1002
{
1005
CFD
1002
}
  0
VERTEX
  5
D7C
  8
3
 10
151.4689324923423
 20
43.080947996237761
 30
0.0
 70
    32
1001
ACAD
1000
R13OBJECT
1002
{
1005
CFD
1002
}
  0
VERTEX
  5
D7D
  8
3
 10
151.5123636495839
 20
43.193875145791182
 30
0.0
 70
    32
1001
ACAD
1000
R13OBJECT
1002
{
1005
CFD
1002
}
  0
VERTEX
  5
D7E
  8
3
 10
151.5379742925729
 20
43.310645440016607
 30
0.0
 70
    32
1001
ACAD
1000
R13OBJECT
1002
{
1005
CFD
1002
}
  0
VERTEX
  5
D7F
  8
3
 10
151.54637540043109
 20
43.429337306578013
 30
0.0
 70
    32
1001
ACAD
1000
R13OBJECT
1002
{
1005
CFD
1002
}
  0
SEQEND
  5
D80
  8
3
  0
POLYLINE
  5
CFE
  8
3
 66
     1
 10
0.0
 20
0.0
 30
0.0
 70
     8
  0
VERTEX
  5
D81
  8
3
 10
150.32261491962171
 20
44.466420880903982
 30
0.0
 70
    32
1001
ACAD
1000
R13OBJECT
1002
{
1005
CFE
1002
}
  0
VERTEX
  5
D82
  8
3
 10
149.8925692648086
 20
43.924970697410387
 30
0.0
 70
    32
1001
ACAD
1000
R13OBJECT
1002
{
1005
CFE
1002
}
  0
VERTEX
  5
D83
  8
3
 10
149.8138495719304
 20
43.21426717086986
 30
0.0
 70
    32
1001
ACAD
1000
R13OBJECT
1002
{
1005
CFE
1002
}
  0
VERTEX
  5
D84
  8
3
 10
150.11333774892509
 20
42.577007726450248
 30
0.0
 70
    32
1001
ACAD
1000
R13OBJECT
1002
{
1005
CFE
1002
}
  0
VERTEX
  5
D85
  8
3
 10
150.6887618825256
 20
42.230809444338767
 30
0.0
 70
    32
1001
ACAD
1000
R13OBJECT
1002
{
1005
CFE
1002
}
  0
VERTEX
  5
D86
  8
3
 10
151.3436209700086
 20
42.293895224138808
 30
0.0
 70
    32
1001
ACAD
1000
R13OBJECT
1002
{
1005
CFE
1002
}
  0
VERTEX
  5
D87
  8
3
 10
151.85428784695929
 20
42.744721967004772
 30
0.0
 70
    32
1001
ACAD
1000
R13OBJECT
1002
{
1005
CFE
1002
}
  0
VERTEX
  5
D88
  8
3
 10
152.04637540043109
 20
43.429337306578013
 30
0.0
 70
    32
1001
ACAD
1000
R13OBJECT
1002
{
1005
CFE
1002
}
  0
SEQEND
  5
D89
  8
3
  0
ARC
  5
CFF
  8
0
 10
157.26564654497449
 20
136.03760015670039
 30
0.0
 40
15.0
 50
158.6359767320518
 51
201.36402326794939
  0
LINE
  5
115C
  8
5
 10
174.79637540043001
 20
121.5019815206052
 30
0.0
 11
174.79637540042989
 21
189.0019815206052
 31
0.0
  0
LINE
  5
115D
  8
5
 10
172.79637540042989
 20
121.5019815206052
 30
0.0
 11
174.79637540042989
 21
121.5019815206052
 31
0.0
  0
LINE
  5
115E
  8
5
 10
172.79637540042989
 20
189.0019815206052
 30
0.0
 11
174.79637540042989
 21
189.0019815206052
 31
0.0
  0
LINE
  5
115F
  8
5
 10
174.79637540043001
 20
23.50198152060511
 30
0.0
 11
174.79637540043001
 21
71.501981520605199
 31
0.0
  0
LINE
  5
1160
  8
5
 10
172.79637540042989
 20
23.50198152060511
 30
0.0
 11
174.79637540043001
 21
23.50198152060511
 31
0.0
  0
LINE
  5
1161
  8
5
 10
172.79637540042989
 20
71.501981520605199
 30
0.0
 11
174.79637540043001
 21
71.501981520605199
 31
0.0
  0
LINE
  5
1162
  8
5
 10
172.79637540042989
 20
239.0019815206052
 30
0.0
 11
174.79637540043001
 21
239.0019815206052
 31
0.0
  0
LINE
  5
1163
  8
5
 10
172.79637540042989
 20
287.00198152060528
 30
0.0
 11
174.79637540043001
 21
287.00198152060528
 31
0.0
  0
LINE
  5
1164
  8
5
 10
174.79637540043001
 20
239.0019815206052
 30
0.0
 11
174.79637540043001
 21
287.00198152060528
 31
0.0
  0
LINE
  5
1767
  8
0
 10
142.29637540042989
 20
150.9019815206052
 30
0.0
 11
140.99637540043
 21
150.9019815206052
 31
0.0
  0
LINE
  5
1768
  8
0
 10
142.29637540042989
 20
176.10198152060579
 30
0.0
 11
140.99637540043
 21
176.10198152060579
 31
0.0
  0
LINE
  5
176A
  8
0
 10
142.29637540042989
 20
177.00198152060551
 30
0.0
 11
142.29637540042989
 21
150.00198152060551
 31
0.0
  0
LINE
  5
176B
  8
0
 10
140.99637540043
 20
177.00198152060551
 30
0.0
 11
140.99637540043
 21
150.00198152060551
 31
0.0
  0
LINE
  5
176C
  8
0
 10
142.29637540042989
 20
150.00198152060551
 30
0.0
 11
142.79637540042989
 21
150.00198152060551
 31
0.0
  0
LINE
  5
176D
  8
0
 10
142.29637540042989
 20
177.00198152060551
 30
0.0
 11
142.79637540042989
 21
177.00198152060551
 31
0.0
  0
LINE
  5
1779
  8
0
 10
142.29637540043001
 20
34.901981520604487
 30
0.0
 11
140.99637540043
 21
34.901981520604487
 31
0.0
  0
LINE
  5
177A
  8
0
 10
142.29637540043001
 20
60.101981520605101
 30
0.0
 11
140.99637540043
 21
60.101981520605101
 31
0.0
  0
LINE
  5
177B
  8
0
 10
140.99637540043
 20
61.001981520605028
 30
0.0
 11
140.99637540043
 21
34.001981520605
 31
0.0
  0
LINE
  5
177C
  8
0
 10
142.29637540042989
 20
61.001981520605028
 30
0.0
 11
142.29637540042989
 21
34.001981520605
 31
0.0
  0
LINE
  5
177D
  8
0
 10
142.29637540042989
 20
61.001981520604993
 30
0.0
 11
142.79637540042989
 21
61.001981520605028
 31
0.0
  0
LINE
  5
177E
  8
0
 10
142.29637540042989
 20
34.001981520604971
 30
0.0
 11
142.79637540042989
 21
34.001981520605
 31
0.0
  0
LINE
  5
177F
  8
0
 10
140.99637540043
 20
276.50198152060523
 30
0.0
 11
140.99637540043
 21
249.5019815206052
 31
0.0
  0
LINE
  5
1780
  8
0
 10
142.29637540042989
 20
276.50198152060523
 30
0.0
 11
142.29637540042989
 21
249.5019815206052
 31
0.0
  0
LINE
  5
1781
  8
0
 10
142.29637540042989
 20
275.60198152060531
 30
0.0
 11
140.99637540043
 21
275.60198152060531
 31
0.0
  0
LINE
  5
1782
  8
0
 10
142.29637540042989
 20
250.40198152060469
 30
0.0
 11
140.99637540043
 21
250.40198152060469
 31
0.0
  0
LINE
  5
1783
  8
0
 10
142.29637540042989
 20
276.50198152060523
 30
0.0
 11
142.79637540042989
 21
276.50198152060523
 31
0.0
  0
LINE
  5
1784
  8
0
 10
142.29637540042989
 20
249.5019815206052
 30
0.0
 11
142.79637540042989
 21
249.5019815206052
 31
0.0
  0
ARC
  5
17A0
  8
0
 10
116.5053427592148
 20
47.501981520605
 30
0.0
 40
43.749189908431852
 50
326.73024181613562
 51
336.42135849316958
  0
ARC
  5
17A1
  8
0
 10
116.5053427592148
 20
47.501981520605
 30
0.0
 40
43.749189908431852
 50
338.80949630943718
 51
21.190503690562441
  0
LINE
  5
1A71
  8
0
 10
137.07468756394289
 20
154.83992345107009
 30
0.0
 11
136.35299972745611
 21
153.9560399745869
 31
0.0
  0
LINE
  5
1A72
  8
0
 10
137.07468756394289
 20
153.07215649810379
 30
0.0
 11
136.35299972745611
 21
153.9560399745869
 31
0.0
  0
LINE
  5
1A73
  8
0
 10
138.51806323691719
 20
153.07215649810379
 30
0.0
 11
139.23975107340399
 21
153.9560399745869
 31
0.0
  0
LINE
  5
1A74
  8
0
 10
138.51806323691719
 20
154.83992345107009
 30
0.0
 11
139.23975107340399
 21
153.9560399745869
 31
0.0
  0
LINE
  5
1A75
  8
0
 10
137.07468756394289
 20
153.07215649810371
 30
0.0
 11
138.51806323691719
 21
153.07215649810371
 31
0.0
  0
LINE
  5
1A76
  8
0
 10
137.07468756394289
 20
154.83992345107009
 30
0.0
 11
138.51806323691719
 21
154.83992345107009
 31
0.0
  0
POLYLINE
  5
1A77
  8
3
 66
     1
 10
0.0
 20
0.0
 30
0.0
 70
     1
  0
VERTEX
  5
1A78
  8
3
 10
135.72937540042949
 20
153.9560399745869
 30
0.0
 42
0.1332561510789112
  0
VERTEX
  5
1A79
  8
3
 10
135.873411580636
 20
153.42518830454199
 30
0.0
 42
0.1067562697216285
  0
VERTEX
  5
1A7A
  8
3
 10
136.33478568371689
 20
152.92253997458681
 30
0.0
 42
0.0828275296409765
 70
     2
 50
324.73561031725018
  0
VERTEX
  5
1A7B
  8
3
 10
137.0460176581023
 20
152.5787986286258
 30
0.0
 42
0.0867079104441287
 50
324.73561031725018
  0
VERTEX
  5
1A7C
  8
3
 10
137.79637540042989
 20
152.49445025787421
 30
0.0
 42
0.0713517487530916
  0
VERTEX
  5
1A7D
  8
3
 10
138.6152246579247
 20
152.6119008603284
 30
0.0
 42
0.0828275296409883
  0
VERTEX
  5
1A7E
  8
3
 10
139.2579651171431
 20
152.92253997458681
 30
0.0
 42
0.1067562697216101
 70
     2
 50
35.264389682749027
  0
VERTEX
  5
1A7F
  8
3
 10
139.7193392202241
 20
153.42518830454199
 30
0.0
 42
0.1332561510788615
 50
35.264389682749027
  0
VERTEX
  5
1A80
  8
3
 10
139.86337540043061
 20
153.9560399745869
 30
0.0
 42
0.1332561510788673
  0
VERTEX
  5
1A81
  8
3
 10
139.7193392202241
 20
154.48689164463181
 30
0.0
 42
0.1067562697216111
  0
VERTEX
  5
1A82
  8
3
 10
139.2579651171431
 20
154.98953997458699
 30
0.0
 42
0.0828275296410134
 70
     2
 50
144.73561031725009
  0
VERTEX
  5
1A83
  8
3
 10
138.6152246579247
 20
155.30017908884531
 30
0.0
 42
0.0713517487531155
 50
144.73561031725009
  0
VERTEX
  5
1A84
  8
3
 10
137.79637540042989
 20
155.4176296912996
 30
0.0
 42
0.0713517487530977
  0
VERTEX
  5
1A85
  8
3
 10
136.97752614293509
 20
155.3001790888454
 30
0.0
 42
0.0828275296409885
  0
VERTEX
  5
1A86
  8
3
 10
136.33478568371689
 20
154.9895399745871
 30
0.0
 42
0.1067562697216128
 70
     2
 50
215.264389682749
  0
VERTEX
  5
1A87
  8
3
 10
135.873411580636
 20
154.4868916446319
 30
0.0
 42
0.1332561510788984
 50
215.264389682749
  0
SEQEND
  5
1A88
  8
3
  0
POLYLINE
  5
1A89
  8
0
 66
     1
 10
0.0
 20
0.0
 30
0.0
 70
     1
  0
VERTEX
  5
1A8A
  8
0
 10
140.29637540042989
 20
153.9560399745869
 30
0.0
 42
0.1332561510788753
  0
VERTEX
  5
1A8B
  8
0
 10
140.12216618392489
 20
154.5980956954927
 30
0.0
 42
0.1067562697216228
  0
VERTEX
  5
1A8C
  8
0
 10
139.56414235339639
 20
155.2060399745869
 30
0.0
 42
0.0828275296410038
 70
     2
 50
144.73561031724509
  0
VERTEX
  5
1A8D
  8
0
 10
138.70391983962639
 20
155.62178906259001
 30
0.0
 42
0.0867079104441661
 50
144.73561031724509
  0
VERTEX
  5
1A8E
  8
0
 10
137.79637540042989
 20
155.72380692755331
 30
0.0
 42
0.0713517487531113
  0
VERTEX
  5
1A8F
  8
0
 10
136.80599168309271
 20
155.58175249787951
 30
0.0
 42
0.0828275296410024
  0
VERTEX
  5
1A90
  8
0
 10
136.02860844746371
 20
155.2060399745869
 30
0.0
 42
0.1067562697216169
 70
     2
 50
215.26438968275491
  0
VERTEX
  5
1A91
  8
0
 10
135.47058461693521
 20
154.5980956954927
 30
0.0
 42
0.1332561510788725
 50
215.26438968275491
  0
VERTEX
  5
1A92
  8
0
 10
135.29637540042989
 20
153.9560399745869
 30
0.0
 42
0.1332561510788583
  0
VERTEX
  5
1A93
  8
0
 10
135.47058461693521
 20
153.3139842536811
 30
0.0
 42
0.1067562697215875
  0
VERTEX
  5
1A94
  8
0
 10
136.02860844746371
 20
152.7060399745869
 30
0.0
 42
0.0828275296410098
 70
     2
 50
324.73561031724512
  0
VERTEX
  5
1A95
  8
0
 10
136.80599168309271
 20
152.33032745129429
 30
0.0
 42
0.0713517487531184
 50
324.73561031724512
  0
VERTEX
  5
1A96
  8
0
 10
137.79637540042989
 20
152.18827302162049
 30
0.0
 42
0.0713517487531214
  0
VERTEX
  5
1A97
  8
0
 10
138.7867591177673
 20
152.33032745129429
 30
0.0
 42
0.0828275296410031
  0
VERTEX
  5
1A98
  8
0
 10
139.56414235339639
 20
152.7060399745869
 30
0.0
 42
0.1067562697216167
 70
     2
 50
35.264389682754917
  0
VERTEX
  5
1A99
  8
0
 10
140.12216618392489
 20
153.3139842536811
 30
0.0
 42
0.1332561510788725
 50
35.264389682754917
  0
SEQEND
  5
1A9A
  8
0
  0
LINE
  5
1A9B
  8
1
 10
137.79637540042989
 20
149.6882730216202
 30
0.0
 11
137.79637540042989
 21
158.2262058949816
 31
0.0
  0
TEXT
  5
1ACA
  8
0
 10
71.580548062300807
 20
132.7519815206056
 30
0.0
 40
6.4000000000000004
  1
5
 41
0.8349999999999999
  0
TEXT
  5
1ACB
  8
0
 10
57.811663170214437
 20
132.7519815206056
 30
0.0
 40
6.4000000000000004
  1
3
 41
0.8349999999999999
  0
TEXT
  5
1ACC
  8
0
 10
65.174972522732389
 20
132.7519815206056
 30
0.0
 40
6.4000000000000004
  1
4
 41
0.8349999999999999
  0
TEXT
  5
1ACD
  8
0
 10
43.570655975969821
 20
132.7519815206056
 30
0.0
 40
6.4000000000000004
  1
1
 41
0.8349999999999999
  0
TEXT
  5
1ACE
  8
0
 10
50.691159573092143
 20
132.7519815206056
 30
0.0
 40
6.4000000000000004
  1
2
 41
0.8349999999999999
  0
TEXT
  5
1B9F
  8
0
 62
     3
 10
0.0
 20
0.0
 30
0.0
 40
10.0
  1
SDP-09A
  7
STANDARD1
  0
ENDSEC
  0
EOF
