  0
SECTION
  2
HEADER
  9
$ACADVER
  1
AC1009
  9
$INSBASE
 10
0.0
 20
0.0
 30
0.0
  9
$EXTMIN
 10
0.0
 20
-2.960436562073669
 30
0.0
  9
$EXTMAX
 10
174.4682726540812
 20
121.5423436698255
 30
0.0
  9
$LIMMIN
 10
0.0
 20
0.0
  9
$LIMMAX
 10
275.0
 20
175.0
  9
$ORTHOMODE
 70
     0
  9
$REGENMODE
 70
     1
  9
$FILLMODE
 70
     1
  9
$QTEXTMODE
 70
     0
  9
$MIRRTEXT
 70
     0
  9
$DRAGMODE
 70
     2
  9
$LTSCALE
 40
10.0
  9
$OSMODE
 70
    55
  9
$ATTMODE
 70
     1
  9
$TEXTSIZE
 40
4.000000000000048
  9
$TRACEWID
 40
0.05
  9
$TEXTSTYLE
  7
STANDARD
  9
$CLAYER
  8
0
  9
$CELTYPE
  6
BYLAYER
  9
$CECOLOR
 62
   256
  9
$DIMSCALE
 40
1.0
  9
$DIMASZ
 40
3.0
  9
$DIMEXO
 40
2.0
  9
$DIMDLI
 40
0.38
  9
$DIMRND
 40
0.0
  9
$DIMDLE
 40
0.0
  9
$DIMEXE
 40
2.0
  9
$DIMTP
 40
0.0
  9
$DIMTM
 40
0.0
  9
$DIMTXT
 40
3.0
  9
$DIMCEN
 40
0.0
  9
$DIMTSZ
 40
0.0
  9
$DIMTOL
 70
     0
  9
$DIMLIM
 70
     0
  9
$DIMTIH
 70
     0
  9
$DIMTOH
 70
     0
  9
$DIMSE1
 70
     0
  9
$DIMSE2
 70
     0
  9
$DIMTAD
 70
     1
  9
$DIMZIN
 70
     0
  9
$DIMBLK
  1

  9
$DIMASO
 70
     0
  9
$DIMSHO
 70
     0
  9
$DIMPOST
  1

  9
$DIMAPOST
  1

  9
$DIMALT
 70
     0
  9
$DIMALTD
 70
     2
  9
$DIMALTF
 40
25.399999999999999
  9
$DIMLFAC
 40
1.0
  9
$DIMTOFL
 70
     0
  9
$DIMTVP
 40
1.6000000000000001
  9
$DIMTIX
 70
     1
  9
$DIMSOXD
 70
     0
  9
$DIMSAH
 70
     0
  9
$DIMBLK1
  1

  9
$DIMBLK2
  1

  9
$DIMSTYLE
  2
STANDARD
  9
$DIMCLRD
 70
     4
  9
$DIMCLRE
 70
     4
  9
$DIMCLRT
 70
     4
  9
$DIMTFAC
 40
1.0
  9
$DIMGAP
 40
1.1999999999999991
  9
$LUNITS
 70
     2
  9
$LUPREC
 70
     1
  9
$SKETCHINC
 40
0.1
  9
$FILLETRAD
 40
22.0
  9
$AUNITS
 70
     0
  9
$AUPREC
 70
     0
  9
$MENU
  1
E:\r13\win\SUPPORT\ACAD
  9
$ELEVATION
 40
0.0
  9
$PELEVATION
 40
0.0
  9
$THICKNESS
 40
0.0
  9
$LIMCHECK
 70
     0
  9
$BLIPMODE
 70
     0
  9
$CHAMFERA
 40
1.1999999999999991
  9
$CHAMFERB
 40
1.1999999999999991
  9
$SKPOLY
 70
     0
  9
$TDCREATE
 40
2449954.6020138888
  9
$TDUPDATE
 40
2456598.4857303929
  9
$TDINDWG
 40
0.1756823032
  9
$TDUSRTIMER
 40
0.1756823032
  9
$USRTIMER
 70
     1
  9
$ANGBASE
 50
0.0
  9
$ANGDIR
 70
     0
  9
$PDMODE
 70
     0
  9
$PDSIZE
 40
0.0
  9
$PLINEWID
 40
0.0
  9
$COORDS
 70
     1
  9
$SPLFRAME
 70
     0
  9
$SPLINETYPE
 70
     6
  9
$SPLINESEGS
 70
     8
  9
$ATTDIA
 70
     0
  9
$ATTREQ
 70
     1
  9
$HANDLING
 70
     1
  9
$HANDSEED
  5
1357
  9
$SURFTAB1
 70
     6
  9
$SURFTAB2
 70
     6
  9
$SURFTYPE
 70
     6
  9
$SURFU
 70
     6
  9
$SURFV
 70
     6
  9
$UCSNAME
  2

  9
$UCSORG
 10
0.0
 20
0.0
 30
0.0
  9
$UCSXDIR
 10
1.0
 20
0.0
 30
0.0
  9
$UCSYDIR
 10
0.0
 20
1.0
 30
0.0
  9
$PUCSNAME
  2

  9
$PUCSORG
 10
0.0
 20
0.0
 30
0.0
  9
$PUCSXDIR
 10
1.0
 20
0.0
 30
0.0
  9
$PUCSYDIR
 10
0.0
 20
1.0
 30
0.0
  9
$USERI1
 70
     4
  9
$USERI2
 70
     1
  9
$USERI3
 70
     1
  9
$USERI4
 70
     0
  9
$USERI5
 70
     0
  9
$USERR1
 40
1.0
  9
$USERR2
 40
3.0
  9
$USERR3
 40
3.0
  9
$USERR4
 40
3.0
  9
$USERR5
 40
10.0
  9
$WORLDVIEW
 70
     1
  9
$SHADEDGE
 70
     3
  9
$SHADEDIF
 70
    70
  9
$TILEMODE
 70
     1
  9
$MAXACTVP
 70
    16
  9
$PLIMCHECK
 70
     0
  9
$PEXTMIN
 10
1.0000000000000000E+020
 20
1.0000000000000000E+020
 30
1.0000000000000000E+020
  9
$PEXTMAX
 10
-1.0000000000000000E+020
 20
-1.0000000000000000E+020
 30
-1.0000000000000000E+020
  9
$PLIMMIN
 10
0.0
 20
0.0
  9
$PLIMMAX
 10
12.0
 20
9.0
  9
$UNITMODE
 70
     0
  9
$VISRETAIN
 70
     0
  9
$PLINEGEN
 70
     0
  9
$PSLTSCALE
 70
     0
  0
ENDSEC
  0
SECTION
  2
TABLES
  0
TABLE
  2
VPORT
 70
     1
  0
VPORT
  2
*ACTIVE
 70
     0
 10
0.0
 20
0.0
 11
1.0
 21
1.0
 12
137.49580415314509
 22
113.0092346562803
 13
0.0
 23
0.0
 14
5.0
 24
5.0
 15
10.0
 25
10.0
 16
0.0
 26
0.0
 36
1.0
 17
0.0
 27
0.0
 37
0.0
 40
234.00281403467551
 41
1.7807262569832401
 42
50.0
 43
0.0
 44
0.0
 50
0.0
 51
0.0
 71
     0
 72
   500
 73
     1
 74
     0
 75
     0
 76
     0
 77
     0
 78
     2
  0
ENDTAB
  0
TABLE
  2
LTYPE
 70
     4
  0
LTYPE
  2
CONTINUOUS
 70
     0
  3
Solid Line
 72
    65
 73
     0
 40
0.0
  0
LTYPE
  2
CENTER
 70
     0
  3
____ _ ____ _ ____ _ ____ _ ____ _ ____ _ ____
 72
    65
 73
     4
 40
2.0
 49
1.25
 49
-0.25
 49
0.25
 49
-0.25
  0
LTYPE
  2
HIDDEN
 70
     0
  3
_ _ _ _ _ _ _ _ _ _ _ _ _ _ _ _ _ _ _ _ _ _ _
 72
    65
 73
     2
 40
0.375
 49
0.25
 49
-0.125
  0
LTYPE
  2
PHANTOM2
 70
     0
  3
___ _ _ ___ _ _ ___ _ _ ___ _ _
 72
    65
 73
     6
 40
1.25
 49
0.625
 49
-0.125
 49
0.125
 49
-0.125
 49
0.125
 49
-0.125
  0
ENDTAB
  0
TABLE
  2
LAYER
 70
     5
  0
LAYER
  2
0
 70
     0
 62
     7
  6
CONTINUOUS
  0
LAYER
  2
1
 70
     0
 62
     1
  6
CENTER
  0
LAYER
  2
11
 70
     0
 62
     3
  6
CONTINUOUS
  0
LAYER
  2
2
 70
     0
 62
     2
  6
HIDDEN
  0
LAYER
  2
DEFPOINTS
 70
     0
 62
     7
  6
CONTINUOUS
  0
ENDTAB
  0
TABLE
  2
STYLE
 70
     2
  0
STYLE
  2
STANDARD
 70
     0
 40
0.0
 41
1.0
 50
0.0
 71
     0
 42
4.000000000000048
  3
SIMPLEX
  4
BIGFONT
  0
STYLE
  2
STANDARD1
 70
     0
 40
0.0
 41
1.0
 50
0.0
 71
     0
 42
3.0
  3
txt
  4

  0
ENDTAB
  0
TABLE
  2
VIEW
 70
     1
  0
VIEW
  2
ALL
 70
     0
 40
270.0
 10
220.78595317725751
 20
135.0
 41
441.57190635451502
 11
0.0
 21
0.0
 31
1.0
 12
0.0
 22
0.0
 32
0.0
 42
50.0
 43
0.0
 44
0.0
 50
0.0
 71
     0
  0
ENDTAB
  0
TABLE
  2
UCS
 70
     0
  0
ENDTAB
  0
TABLE
  2
APPID
 70
     3
  0
APPID
  2
ACAD
 70
     0
  0
APPID
  2
ACAD_MLEADERVER
 70
     0
  0
APPID
  2
ACAD_NAV_VCDISPLAY
 70
     0
  0
ENDTAB
  0
TABLE
  2
DIMSTYLE
 70
     1
  0
DIMSTYLE
  2
STANDARD
 70
     0
  3

  4

  5

  6

  7

 40
1.0
 41
0.18
 42
0.0625
 43
0.38
 44
0.18
 45
0.0
 46
0.0
 47
0.0
 48
0.0
140
0.18
141
0.09
142
0.0
143
25.399999999999999
144
1.0
145
0.0
146
1.0
147
0.09
 71
     0
 72
     0
 73
     1
 74
     1
 75
     0
 76
     0
 77
     0
 78
     0
170
     0
171
     2
172
     0
173
     0
174
     0
175
     0
176
     0
177
     0
178
     0
  0
ENDTAB
  0
ENDSEC
  0
SECTION
  2
BLOCKS
  0
BLOCK
  8
0
  2
$MODEL_SPACE
 70
     0
 10
0.0
 20
0.0
 30
0.0
  3
$MODEL_SPACE
  1

  0
ENDBLK
  5
B2D
  8
0
  0
BLOCK
 67
     1
  8
0
  2
$PAPER_SPACE
 70
     0
 10
0.0
 20
0.0
 30
0.0
  3
$PAPER_SPACE
  1

  0
ENDBLK
  5
B2B
 67
     1
  8
0
  0
BLOCK
  8
0
  2
STDGX5
 70
     0
 10
0.0
 20
0.0
 30
0.0
  3
STDGX5
  1

  0
ENDBLK
  5
2EE
  8
0
  0
ENDSEC
  0
SECTION
  2
ENTITIES
  0
INSERT
  5
38A
  8
0
  2
STDGX5
 10
0.0
 20
0.0
 30
0.0
  0
INSERT
  5
38B
  8
0
  2
STDGX5
 10
0.0
 20
0.0
 30
0.0
  0
INSERT
  5
38C
  8
0
  2
STDGX5
 10
275.0
 20
0.0
 30
0.0
  0
INSERT
  5
38D
  8
0
  2
STDGX5
 10
275.0
 20
0.0
 30
0.0
  0
INSERT
  5
452
  8
0
  2
STDGX5
 10
0.0
 20
0.0
 30
0.0
 41
2.0
 42
2.0
 43
2.0
  0
INSERT
  5
453
  8
0
  2
STDGX5
 10
0.0
 20
0.0
 30
0.0
 41
2.0
 42
2.0
 43
2.0
  0
INSERT
  5
454
  8
0
  2
STDGX5
 10
550.0
 20
0.0
 30
0.0
 41
2.0
 42
2.0
 43
2.0
  0
INSERT
  5
455
  8
0
  2
STDGX5
 10
550.0
 20
0.0
 30
0.0
 41
2.0
 42
2.0
 43
2.0
  0
INSERT
  5
7B1
  8
0
  2
STDGX5
 10
0.0
 20
0.0
 30
0.0
  0
INSERT
  5
7B2
  8
0
  2
STDGX5
 10
0.0
 20
0.0
 30
0.0
  0
INSERT
  5
7B3
  8
0
  2
STDGX5
 10
275.0
 20
0.0
 30
0.0
  0
INSERT
  5
7B4
  8
0
  2
STDGX5
 10
275.0
 20
0.0
 30
0.0
  0
INSERT
  5
A34
  8
0
  2
STDGX5
 10
397.07273089504167
 20
14.090111960945359
 30
0.0
  0
INSERT
  5
A35
  8
0
  2
STDGX5
 10
397.07273089504167
 20
14.090111960945359
 30
0.0
  0
INSERT
  5
A36
  8
0
  2
STDGX5
 10
672.07273089504156
 20
14.090111960945359
 30
0.0
  0
INSERT
  5
A37
  8
0
  2
STDGX5
 10
672.07273089504156
 20
14.090111960945359
 30
0.0
  0
INSERT
  5
A38
  8
0
  2
STDGX5
 10
397.07273089504167
 20
14.090111960945359
 30
0.0
 41
2.0
 42
2.0
 43
2.0
  0
INSERT
  5
A39
  8
0
  2
STDGX5
 10
397.07273089504167
 20
14.090111960945359
 30
0.0
 41
2.0
 42
2.0
 43
2.0
  0
INSERT
  5
A3A
  8
0
  2
STDGX5
 10
947.07273089504167
 20
14.090111960945359
 30
0.0
 41
2.0
 42
2.0
 43
2.0
  0
INSERT
  5
A3B
  8
0
  2
STDGX5
 10
947.07273089504167
 20
14.090111960945359
 30
0.0
 41
2.0
 42
2.0
 43
2.0
  0
INSERT
  5
A3C
  8
0
  2
STDGX5
 10
397.07273089504167
 20
14.090111960945359
 30
0.0
  0
INSERT
  5
A3D
  8
0
  2
STDGX5
 10
397.07273089504167
 20
14.090111960945359
 30
0.0
  0
INSERT
  5
A3E
  8
0
  2
STDGX5
 10
672.07273089504156
 20
14.090111960945359
 30
0.0
  0
INSERT
  5
A3F
  8
0
  2
STDGX5
 10
672.07273089504156
 20
14.090111960945359
 30
0.0
  0
INSERT
  5
A49
  8
0
  2
STDGX5
 10
0.0
 20
0.0
 30
0.0
 41
0.25
 42
0.25
 43
0.25
  0
INSERT
  5
A4A
  8
0
  2
STDGX5
 10
0.0
 20
0.0
 30
0.0
 41
0.25
 42
0.25
 43
0.25
  0
INSERT
  5
A4B
  8
0
  2
STDGX5
 10
68.75
 20
0.0
 30
0.0
 41
0.25
 42
0.25
 43
0.25
  0
INSERT
  5
A4C
  8
0
  2
STDGX5
 10
68.75
 20
0.0
 30
0.0
 41
0.25
 42
0.25
 43
0.25
  0
INSERT
  5
A4D
  8
0
  2
STDGX5
 10
0.0
 20
0.0
 30
0.0
 41
0.5
 42
0.5
 43
0.5
  0
INSERT
  5
A4E
  8
0
  2
STDGX5
 10
0.0
 20
0.0
 30
0.0
 41
0.5
 42
0.5
 43
0.5
  0
INSERT
  5
A4F
  8
0
  2
STDGX5
 10
137.5
 20
0.0
 30
0.0
 41
0.5
 42
0.5
 43
0.5
  0
INSERT
  5
A50
  8
0
  2
STDGX5
 10
137.5
 20
0.0
 30
0.0
 41
0.5
 42
0.5
 43
0.5
  0
INSERT
  5
A52
  8
0
  2
STDGX5
 10
-35.0
 20
-100.0
 30
0.0
 41
0.3333333333333333
 42
0.3333333333333333
 43
0.3333333333333333
  0
INSERT
  5
A53
  8
0
  2
STDGX5
 10
-35.0
 20
-100.0
 30
0.0
 41
0.3333333333333333
 42
0.3333333333333333
 43
0.3333333333333333
  0
INSERT
  5
A54
  8
0
  2
STDGX5
 10
56.666666666666643
 20
-100.0
 30
0.0
 41
0.3333333333333333
 42
0.3333333333333333
 43
0.3333333333333333
  0
INSERT
  5
A55
  8
0
  2
STDGX5
 10
56.666666666666643
 20
-100.0
 30
0.0
 41
0.3333333333333333
 42
0.3333333333333333
 43
0.3333333333333333
  0
INSERT
  5
A57
  8
0
  2
STDGX5
 10
-35.0
 20
-100.0
 30
0.0
 41
0.3333333333333333
 42
0.3333333333333333
 43
0.3333333333333333
  0
INSERT
  5
A58
  8
0
  2
STDGX5
 10
-35.0
 20
-100.0
 30
0.0
 41
0.3333333333333333
 42
0.3333333333333333
 43
0.3333333333333333
  0
INSERT
  5
A59
  8
0
  2
STDGX5
 10
56.666666666666657
 20
-100.0
 30
0.0
 41
0.3333333333333333
 42
0.3333333333333333
 43
0.3333333333333333
  0
INSERT
  5
A5A
  8
0
  2
STDGX5
 10
56.666666666666657
 20
-100.0
 30
0.0
 41
0.3333333333333333
 42
0.3333333333333333
 43
0.3333333333333333
  0
INSERT
  5
A5B
  8
0
  2
STDGX5
 10
0.0
 20
0.0
 30
0.0
  0
INSERT
  5
A5C
  8
0
  2
STDGX5
 10
0.0
 20
0.0
 30
0.0
  0
INSERT
  5
A5D
  8
0
  2
STDGX5
 10
275.0
 20
0.0
 30
0.0
  0
INSERT
  5
A5E
  8
0
  2
STDGX5
 10
275.0
 20
0.0
 30
0.0
  0
INSERT
  5
10F4
  8
0
  2
STDGX5
 10
199.5507742342194
 20
28.544423030308959
 30
0.0
  0
INSERT
  5
10F5
  8
0
  2
STDGX5
 10
199.5507742342194
 20
28.544423030308959
 30
0.0
  0
INSERT
  5
10F6
  8
0
  2
STDGX5
 10
474.55077423421938
 20
28.544423030308959
 30
0.0
  0
INSERT
  5
10F7
  8
0
  2
STDGX5
 10
474.55077423421938
 20
28.544423030308959
 30
0.0
  0
INSERT
  5
10F8
  8
0
  2
STDGX5
 10
199.5507742342194
 20
28.544423030308959
 30
0.0
 41
2.0
 42
2.0
 43
2.0
  0
INSERT
  5
10F9
  8
0
  2
STDGX5
 10
199.5507742342194
 20
28.544423030308959
 30
0.0
 41
2.0
 42
2.0
 43
2.0
  0
INSERT
  5
10FA
  8
0
  2
STDGX5
 10
749.55077423421938
 20
28.544423030308959
 30
0.0
 41
2.0
 42
2.0
 43
2.0
  0
INSERT
  5
10FB
  8
0
  2
STDGX5
 10
749.55077423421938
 20
28.544423030308959
 30
0.0
 41
2.0
 42
2.0
 43
2.0
  0
INSERT
  5
10FC
  8
0
  2
STDGX5
 10
199.5507742342194
 20
28.544423030308959
 30
0.0
  0
INSERT
  5
10FD
  8
0
  2
STDGX5
 10
199.5507742342194
 20
28.544423030308959
 30
0.0
  0
INSERT
  5
10FE
  8
0
  2
STDGX5
 10
474.55077423421938
 20
28.544423030308959
 30
0.0
  0
INSERT
  5
10FF
  8
0
  2
STDGX5
 10
474.55077423421938
 20
28.544423030308959
 30
0.0
  0
INSERT
  5
1100
  8
0
  2
STDGX5
 10
596.62350512926105
 20
42.63453499125432
 30
0.0
  0
INSERT
  5
1101
  8
0
  2
STDGX5
 10
596.62350512926105
 20
42.63453499125432
 30
0.0
  0
INSERT
  5
1102
  8
0
  2
STDGX5
 10
871.62350512926105
 20
42.63453499125432
 30
0.0
  0
INSERT
  5
1103
  8
0
  2
STDGX5
 10
871.62350512926105
 20
42.63453499125432
 30
0.0
  0
INSERT
  5
1104
  8
0
  2
STDGX5
 10
596.62350512926105
 20
42.63453499125432
 30
0.0
 41
2.0
 42
2.0
 43
2.0
  0
INSERT
  5
1105
  8
0
  2
STDGX5
 10
596.62350512926105
 20
42.63453499125432
 30
0.0
 41
2.0
 42
2.0
 43
2.0
  0
INSERT
  5
1106
  8
0
  2
STDGX5
 10
1146.623505129261
 20
42.63453499125432
 30
0.0
 41
2.0
 42
2.0
 43
2.0
  0
INSERT
  5
1107
  8
0
  2
STDGX5
 10
1146.623505129261
 20
42.63453499125432
 30
0.0
 41
2.0
 42
2.0
 43
2.0
  0
INSERT
  5
1108
  8
0
  2
STDGX5
 10
596.62350512926105
 20
42.63453499125432
 30
0.0
  0
INSERT
  5
1109
  8
0
  2
STDGX5
 10
596.62350512926105
 20
42.63453499125432
 30
0.0
  0
INSERT
  5
110A
  8
0
  2
STDGX5
 10
871.62350512926105
 20
42.63453499125432
 30
0.0
  0
INSERT
  5
110B
  8
0
  2
STDGX5
 10
871.62350512926105
 20
42.63453499125432
 30
0.0
  0
INSERT
  5
110C
  8
0
  2
STDGX5
 10
199.5507742342194
 20
28.544423030308959
 30
0.0
 41
0.25
 42
0.25
 43
0.25
  0
INSERT
  5
110D
  8
0
  2
STDGX5
 10
199.5507742342194
 20
28.544423030308959
 30
0.0
 41
0.25
 42
0.25
 43
0.25
  0
INSERT
  5
110E
  8
0
  2
STDGX5
 10
268.30077423421938
 20
28.544423030308959
 30
0.0
 41
0.25
 42
0.25
 43
0.25
  0
INSERT
  5
110F
  8
0
  2
STDGX5
 10
268.30077423421938
 20
28.544423030308959
 30
0.0
 41
0.25
 42
0.25
 43
0.25
  0
INSERT
  5
1110
  8
0
  2
STDGX5
 10
199.5507742342194
 20
28.544423030308959
 30
0.0
 41
0.5
 42
0.5
 43
0.5
  0
INSERT
  5
1111
  8
0
  2
STDGX5
 10
199.5507742342194
 20
28.544423030308959
 30
0.0
 41
0.5
 42
0.5
 43
0.5
  0
INSERT
  5
1112
  8
0
  2
STDGX5
 10
337.05077423421938
 20
28.544423030308959
 30
0.0
 41
0.5
 42
0.5
 43
0.5
  0
INSERT
  5
1113
  8
0
  2
STDGX5
 10
337.05077423421938
 20
28.544423030308959
 30
0.0
 41
0.5
 42
0.5
 43
0.5
  0
INSERT
  5
1115
  8
0
  2
STDGX5
 10
164.5507742342194
 20
-71.455576969691023
 30
0.0
 41
0.3333333333333428
 42
0.3333333333333428
 43
0.3333333333333428
  0
INSERT
  5
1116
  8
0
  2
STDGX5
 10
164.5507742342194
 20
-71.455576969691023
 30
0.0
 41
0.3333333333333428
 42
0.3333333333333428
 43
0.3333333333333428
  0
INSERT
  5
1117
  8
0
  2
STDGX5
 10
256.21744090088612
 20
-71.455576969691023
 30
0.0
 41
0.3333333333333428
 42
0.3333333333333428
 43
0.3333333333333428
  0
INSERT
  5
1118
  8
0
  2
STDGX5
 10
256.21744090088612
 20
-71.455576969691023
 30
0.0
 41
0.3333333333333428
 42
0.3333333333333428
 43
0.3333333333333428
  0
INSERT
  5
111A
  8
0
  2
STDGX5
 10
164.5507742342194
 20
-71.455576969691023
 30
0.0
 41
0.3333333333333428
 42
0.3333333333333428
 43
0.3333333333333428
  0
INSERT
  5
111B
  8
0
  2
STDGX5
 10
164.5507742342194
 20
-71.455576969691023
 30
0.0
 41
0.3333333333333428
 42
0.3333333333333428
 43
0.3333333333333428
  0
INSERT
  5
111C
  8
0
  2
STDGX5
 10
256.21744090088612
 20
-71.455576969691023
 30
0.0
 41
0.3333333333333428
 42
0.3333333333333428
 43
0.3333333333333428
  0
INSERT
  5
111D
  8
0
  2
STDGX5
 10
256.21744090088612
 20
-71.455576969691023
 30
0.0
 41
0.3333333333333428
 42
0.3333333333333428
 43
0.3333333333333428
  0
INSERT
  5
111E
  8
0
  2
STDGX5
 10
199.5507742342194
 20
28.544423030308959
 30
0.0
  0
INSERT
  5
111F
  8
0
  2
STDGX5
 10
199.5507742342194
 20
28.544423030308959
 30
0.0
  0
INSERT
  5
1120
  8
0
  2
STDGX5
 10
474.55077423421938
 20
28.544423030308959
 30
0.0
  0
INSERT
  5
1121
  8
0
  2
STDGX5
 10
474.55077423421938
 20
28.544423030308959
 30
0.0
  0
LINE
  5
1122
  8
0
 10
49.46827265408114
 20
117.0423436698255
 30
0.0
 11
49.46827265408114
 21
49.54234366982547
 31
0.0
  0
LINE
  5
1123
  8
0
 10
61.468272654081147
 20
117.0423436698255
 30
0.0
 11
61.468272654081147
 21
49.54234366982547
 31
0.0
  0
LINE
  5
1124
  8
0
 10
49.46827265408114
 20
117.0423436698255
 30
0.0
 11
61.468272654081147
 21
117.0423436698255
 31
0.0
  0
LINE
  5
1125
  8
0
 10
49.46827265408114
 20
49.54234366982547
 30
0.0
 11
61.468272654081147
 21
49.54234366982547
 31
0.0
  0
LINE
  5
1126
  8
2
 10
49.46827265408114
 20
95.042343669825186
 30
0.0
 11
61.468272654081147
 21
95.042343669825186
 31
0.0
  0
LINE
  5
1127
  8
2
 10
49.46827265408114
 20
55.042343669825193
 30
0.0
 11
61.468272654081147
 21
55.042343669825193
 31
0.0
  0
LINE
  5
112B
  8
1
 10
56.96827265408114
 20
105.0423436698252
 30
0.0
 11
72.468272654081133
 21
105.0423436698252
 31
0.0
  0
LINE
  5
112F
  8
0
 10
66.968272654081034
 20
102.04234366982379
 30
0.0
 11
61.468272654081147
 21
102.04234366982379
 31
0.0
  0
LINE
  5
1130
  8
0
 10
67.468272654081133
 20
102.54234366982379
 30
0.0
 11
67.468272654081133
 21
107.542343669825
 31
0.0
  0
ARC
  5
1131
  8
0
 10
66.968272654081133
 20
102.54234366982379
 30
0.0
 40
0.5
 50
270.0
 51
0.0
  0
LINE
  5
1132
  8
0
 10
66.968272654081034
 20
108.042343669825
 30
0.0
 11
61.468272654081147
 21
108.042343669825
 31
0.0
  0
ARC
  5
1133
  8
0
 10
66.968272654081133
 20
107.542343669825
 30
0.0
 40
0.5
 50
0.0
 51
90.0
  0
LINE
  5
1143
  8
1
 10
44.46827265408114
 20
75.042343669825186
 30
0.0
 11
66.468272654081204
 21
75.0423436698252
 31
0.0
  0
LINE
  5
1153
  8
1
 10
137.4682726540812
 20
105.0423436698252
 30
0.0
 11
153.4682726540812
 21
105.0423436698252
 31
0.0
  0
CIRCLE
  5
1154
  8
0
 10
145.4682726540812
 20
105.0423436698252
 30
0.0
 40
3.0
  0
CIRCLE
  5
1155
  8
0
 10
145.4682726540812
 20
75.0423436698252
 30
0.0
 40
20.0
  0
ARC
  5
1156
  8
0
 10
165.4682726540812
 20
56.22113255053209
 30
0.0
 40
4.0
 50
285.2575232904552
 51
359.99999999999977
  0
ARC
  5
1157
  8
0
 10
165.4682726540812
 20
110.36355478911889
 30
0.0
 40
4.0
 50
0.0
 51
74.742476709544846
  0
ARC
  5
1158
  8
0
 10
125.4682726540812
 20
110.36355478911879
 30
0.0
 40
4.0
 50
105.2575232904568
 51
180.0
  0
ARC
  5
1159
  8
0
 10
125.4682726540812
 20
56.221132550532197
 30
0.0
 40
4.0
 50
180.0
 51
254.74247670954321
  0
LINE
  5
115A
  8
0
 10
169.4682726540812
 20
56.22113255053209
 30
0.0
 11
169.4682726540812
 21
110.36355478911889
 31
0.0
  0
ARC
  5
115B
  8
0
 10
145.4682726540812
 20
37.042343669825541
 30
0.0
 40
80.0
 50
74.742476709543212
 51
105.2575232904568
  0
ARC
  5
115C
  8
0
 10
145.4682726540812
 20
129.54234366982541
 30
0.0
 40
80.0
 50
254.74247670954321
 51
285.25752329045679
  0
LINE
  5
115D
  8
1
 10
145.4682726540812
 20
121.5423436698255
 30
0.0
 11
145.4682726540812
 21
44.542343669825513
 31
0.0
  0
LINE
  5
115E
  8
1
 10
174.4682726540812
 20
75.0423436698252
 30
0.0
 11
116.4682726540812
 21
75.0423436698252
 31
0.0
  0
LINE
  5
115F
  8
0
 10
121.4682726540812
 20
56.221132550532197
 30
0.0
 11
121.4682726540812
 21
110.36355478911879
 31
0.0
  0
INSERT
  5
1160
  8
0
  2
STDGX5
 10
558.6273083760243
 20
3.3580857178819201
 30
0.0
  0
INSERT
  5
1161
  8
0
  2
STDGX5
 10
558.6273083760243
 20
3.3580857178819201
 30
0.0
  0
INSERT
  5
1162
  8
0
  2
STDGX5
 10
833.6273083760243
 20
3.3580857178819201
 30
0.0
  0
INSERT
  5
1163
  8
0
  2
STDGX5
 10
833.6273083760243
 20
3.3580857178819201
 30
0.0
  0
INSERT
  5
1164
  8
0
  2
STDGX5
 10
558.6273083760243
 20
3.3580857178819201
 30
0.0
 41
2.0
 42
2.0
 43
2.0
  0
INSERT
  5
1165
  8
0
  2
STDGX5
 10
558.6273083760243
 20
3.3580857178819201
 30
0.0
 41
2.0
 42
2.0
 43
2.0
  0
INSERT
  5
1166
  8
0
  2
STDGX5
 10
1108.6273083760241
 20
3.3580857178819201
 30
0.0
 41
2.0
 42
2.0
 43
2.0
  0
INSERT
  5
1167
  8
0
  2
STDGX5
 10
1108.6273083760241
 20
3.3580857178819201
 30
0.0
 41
2.0
 42
2.0
 43
2.0
  0
INSERT
  5
1168
  8
0
  2
STDGX5
 10
558.6273083760243
 20
3.3580857178819201
 30
0.0
  0
INSERT
  5
1169
  8
0
  2
STDGX5
 10
558.6273083760243
 20
3.3580857178819201
 30
0.0
  0
INSERT
  5
116A
  8
0
  2
STDGX5
 10
833.6273083760243
 20
3.3580857178819201
 30
0.0
  0
INSERT
  5
116B
  8
0
  2
STDGX5
 10
833.6273083760243
 20
3.3580857178819201
 30
0.0
  0
INSERT
  5
116C
  8
0
  2
STDGX5
 10
955.70003927106586
 20
17.448197678827281
 30
0.0
  0
INSERT
  5
116D
  8
0
  2
STDGX5
 10
955.70003927106586
 20
17.448197678827281
 30
0.0
  0
INSERT
  5
116E
  8
0
  2
STDGX5
 10
1230.7000392710661
 20
17.448197678827281
 30
0.0
  0
INSERT
  5
116F
  8
0
  2
STDGX5
 10
1230.7000392710661
 20
17.448197678827281
 30
0.0
  0
INSERT
  5
1170
  8
0
  2
STDGX5
 10
955.70003927106586
 20
17.448197678827281
 30
0.0
 41
2.0
 42
2.0
 43
2.0
  0
INSERT
  5
1171
  8
0
  2
STDGX5
 10
955.70003927106586
 20
17.448197678827281
 30
0.0
 41
2.0
 42
2.0
 43
2.0
  0
INSERT
  5
1172
  8
0
  2
STDGX5
 10
1505.7000392710661
 20
17.448197678827281
 30
0.0
 41
2.0
 42
2.0
 43
2.0
  0
INSERT
  5
1173
  8
0
  2
STDGX5
 10
1505.7000392710661
 20
17.448197678827281
 30
0.0
 41
2.0
 42
2.0
 43
2.0
  0
INSERT
  5
1174
  8
0
  2
STDGX5
 10
955.70003927106586
 20
17.448197678827281
 30
0.0
  0
INSERT
  5
1175
  8
0
  2
STDGX5
 10
955.70003927106586
 20
17.448197678827281
 30
0.0
  0
INSERT
  5
1176
  8
0
  2
STDGX5
 10
1230.7000392710661
 20
17.448197678827281
 30
0.0
  0
INSERT
  5
1177
  8
0
  2
STDGX5
 10
1230.7000392710661
 20
17.448197678827281
 30
0.0
  0
INSERT
  5
1178
  8
0
  2
STDGX5
 10
558.6273083760243
 20
3.3580857178819201
 30
0.0
 41
0.25
 42
0.25
 43
0.25
  0
INSERT
  5
1179
  8
0
  2
STDGX5
 10
558.6273083760243
 20
3.3580857178819201
 30
0.0
 41
0.25
 42
0.25
 43
0.25
  0
INSERT
  5
117A
  8
0
  2
STDGX5
 10
627.3773083760243
 20
3.3580857178819201
 30
0.0
 41
0.25
 42
0.25
 43
0.25
  0
INSERT
  5
117B
  8
0
  2
STDGX5
 10
627.3773083760243
 20
3.3580857178819201
 30
0.0
 41
0.25
 42
0.25
 43
0.25
  0
INSERT
  5
117C
  8
0
  2
STDGX5
 10
558.6273083760243
 20
3.3580857178819201
 30
0.0
 41
0.5
 42
0.5
 43
0.5
  0
INSERT
  5
117D
  8
0
  2
STDGX5
 10
558.6273083760243
 20
3.3580857178819201
 30
0.0
 41
0.5
 42
0.5
 43
0.5
  0
INSERT
  5
117E
  8
0
  2
STDGX5
 10
696.1273083760243
 20
3.3580857178819201
 30
0.0
 41
0.5
 42
0.5
 43
0.5
  0
INSERT
  5
117F
  8
0
  2
STDGX5
 10
696.1273083760243
 20
3.3580857178819201
 30
0.0
 41
0.5
 42
0.5
 43
0.5
  0
INSERT
  5
1181
  8
0
  2
STDGX5
 10
523.62730837602419
 20
-96.641914282118066
 30
0.0
 41
0.3333333333333144
 42
0.3333333333333144
 43
0.3333333333333144
  0
INSERT
  5
1182
  8
0
  2
STDGX5
 10
523.62730837602419
 20
-96.641914282118066
 30
0.0
 41
0.3333333333333144
 42
0.3333333333333144
 43
0.3333333333333144
  0
INSERT
  5
1183
  8
0
  2
STDGX5
 10
615.29397504269082
 20
-96.641914282118066
 30
0.0
 41
0.3333333333333144
 42
0.3333333333333144
 43
0.3333333333333144
  0
INSERT
  5
1184
  8
0
  2
STDGX5
 10
615.29397504269082
 20
-96.641914282118066
 30
0.0
 41
0.3333333333333144
 42
0.3333333333333144
 43
0.3333333333333144
  0
INSERT
  5
1186
  8
0
  2
STDGX5
 10
523.62730837602419
 20
-96.641914282118066
 30
0.0
 41
0.3333333333333144
 42
0.3333333333333144
 43
0.3333333333333144
  0
INSERT
  5
1187
  8
0
  2
STDGX5
 10
523.62730837602419
 20
-96.641914282118066
 30
0.0
 41
0.3333333333333144
 42
0.3333333333333144
 43
0.3333333333333144
  0
INSERT
  5
1188
  8
0
  2
STDGX5
 10
615.29397504269082
 20
-96.641914282118066
 30
0.0
 41
0.3333333333333144
 42
0.3333333333333144
 43
0.3333333333333144
  0
INSERT
  5
1189
  8
0
  2
STDGX5
 10
615.29397504269082
 20
-96.641914282118066
 30
0.0
 41
0.3333333333333144
 42
0.3333333333333144
 43
0.3333333333333144
  0
INSERT
  5
118A
  8
0
  2
STDGX5
 10
558.6273083760243
 20
3.3580857178819201
 30
0.0
  0
INSERT
  5
118B
  8
0
  2
STDGX5
 10
558.6273083760243
 20
3.3580857178819201
 30
0.0
  0
INSERT
  5
118C
  8
0
  2
STDGX5
 10
833.6273083760243
 20
3.3580857178819201
 30
0.0
  0
INSERT
  5
118D
  8
0
  2
STDGX5
 10
833.6273083760243
 20
3.3580857178819201
 30
0.0
  0
INSERT
  5
118E
  8
0
  2
STDGX5
 10
956.10838872801082
 20
17.866202788736299
 30
0.0
  0
INSERT
  5
118F
  8
0
  2
STDGX5
 10
956.10838872801082
 20
17.866202788736299
 30
0.0
  0
INSERT
  5
1190
  8
0
  2
STDGX5
 10
1231.1083887280111
 20
17.866202788736299
 30
0.0
  0
INSERT
  5
1191
  8
0
  2
STDGX5
 10
1231.1083887280111
 20
17.866202788736299
 30
0.0
  0
INSERT
  5
1192
  8
0
  2
STDGX5
 10
956.10838872801082
 20
17.866202788736299
 30
0.0
 41
2.0
 42
2.0
 43
2.0
  0
INSERT
  5
1193
  8
0
  2
STDGX5
 10
956.10838872801082
 20
17.866202788736299
 30
0.0
 41
2.0
 42
2.0
 43
2.0
  0
INSERT
  5
1194
  8
0
  2
STDGX5
 10
1506.1083887280111
 20
17.866202788736299
 30
0.0
 41
2.0
 42
2.0
 43
2.0
  0
INSERT
  5
1195
  8
0
  2
STDGX5
 10
1506.1083887280111
 20
17.866202788736299
 30
0.0
 41
2.0
 42
2.0
 43
2.0
  0
INSERT
  5
1196
  8
0
  2
STDGX5
 10
956.10838872801082
 20
17.866202788736299
 30
0.0
  0
INSERT
  5
1197
  8
0
  2
STDGX5
 10
956.10838872801082
 20
17.866202788736299
 30
0.0
  0
INSERT
  5
1198
  8
0
  2
STDGX5
 10
1231.1083887280111
 20
17.866202788736299
 30
0.0
  0
INSERT
  5
1199
  8
0
  2
STDGX5
 10
1231.1083887280111
 20
17.866202788736299
 30
0.0
  0
INSERT
  5
119A
  8
0
  2
STDGX5
 10
1353.1811196230519
 20
31.95631474968167
 30
0.0
  0
INSERT
  5
119B
  8
0
  2
STDGX5
 10
1353.1811196230519
 20
31.95631474968167
 30
0.0
  0
INSERT
  5
119C
  8
0
  2
STDGX5
 10
1628.1811196230519
 20
31.95631474968167
 30
0.0
  0
INSERT
  5
119D
  8
0
  2
STDGX5
 10
1628.1811196230519
 20
31.95631474968167
 30
0.0
  0
INSERT
  5
119E
  8
0
  2
STDGX5
 10
1353.1811196230519
 20
31.95631474968167
 30
0.0
 41
2.0
 42
2.0
 43
2.0
  0
INSERT
  5
119F
  8
0
  2
STDGX5
 10
1353.1811196230519
 20
31.95631474968167
 30
0.0
 41
2.0
 42
2.0
 43
2.0
  0
INSERT
  5
11A0
  8
0
  2
STDGX5
 10
1903.1811196230519
 20
31.95631474968167
 30
0.0
 41
2.0
 42
2.0
 43
2.0
  0
INSERT
  5
11A1
  8
0
  2
STDGX5
 10
1903.1811196230519
 20
31.95631474968167
 30
0.0
 41
2.0
 42
2.0
 43
2.0
  0
INSERT
  5
11A2
  8
0
  2
STDGX5
 10
1353.1811196230519
 20
31.95631474968167
 30
0.0
  0
INSERT
  5
11A3
  8
0
  2
STDGX5
 10
1353.1811196230519
 20
31.95631474968167
 30
0.0
  0
INSERT
  5
11A4
  8
0
  2
STDGX5
 10
1628.1811196230519
 20
31.95631474968167
 30
0.0
  0
INSERT
  5
11A5
  8
0
  2
STDGX5
 10
1628.1811196230519
 20
31.95631474968167
 30
0.0
  0
INSERT
  5
11A6
  8
0
  2
STDGX5
 10
956.10838872801082
 20
17.866202788736299
 30
0.0
 41
0.25
 42
0.25
 43
0.25
  0
INSERT
  5
11A7
  8
0
  2
STDGX5
 10
956.10838872801082
 20
17.866202788736299
 30
0.0
 41
0.25
 42
0.25
 43
0.25
  0
INSERT
  5
11A8
  8
0
  2
STDGX5
 10
1024.8583887280111
 20
17.866202788736299
 30
0.0
 41
0.25
 42
0.25
 43
0.25
  0
INSERT
  5
11A9
  8
0
  2
STDGX5
 10
1024.8583887280111
 20
17.866202788736299
 30
0.0
 41
0.25
 42
0.25
 43
0.25
  0
INSERT
  5
11AA
  8
0
  2
STDGX5
 10
956.10838872801082
 20
17.866202788736299
 30
0.0
 41
0.5
 42
0.5
 43
0.5
  0
INSERT
  5
11AB
  8
0
  2
STDGX5
 10
956.10838872801082
 20
17.866202788736299
 30
0.0
 41
0.5
 42
0.5
 43
0.5
  0
INSERT
  5
11AC
  8
0
  2
STDGX5
 10
1093.6083887280111
 20
17.866202788736299
 30
0.0
 41
0.5
 42
0.5
 43
0.5
  0
INSERT
  5
11AD
  8
0
  2
STDGX5
 10
1093.6083887280111
 20
17.866202788736299
 30
0.0
 41
0.5
 42
0.5
 43
0.5
  0
INSERT
  5
11AF
  8
0
  2
STDGX5
 10
921.10838872801094
 20
-82.133797211263698
 30
0.0
 41
0.3333333333333144
 42
0.3333333333333144
 43
0.3333333333333144
  0
INSERT
  5
11B0
  8
0
  2
STDGX5
 10
921.10838872801094
 20
-82.133797211263698
 30
0.0
 41
0.3333333333333144
 42
0.3333333333333144
 43
0.3333333333333144
  0
INSERT
  5
11B1
  8
0
  2
STDGX5
 10
1012.775055394677
 20
-82.133797211263698
 30
0.0
 41
0.3333333333333144
 42
0.3333333333333144
 43
0.3333333333333144
  0
INSERT
  5
11B2
  8
0
  2
STDGX5
 10
1012.775055394677
 20
-82.133797211263698
 30
0.0
 41
0.3333333333333144
 42
0.3333333333333144
 43
0.3333333333333144
  0
INSERT
  5
11B4
  8
0
  2
STDGX5
 10
921.10838872801094
 20
-82.133797211263698
 30
0.0
 41
0.3333333333333144
 42
0.3333333333333144
 43
0.3333333333333144
  0
INSERT
  5
11B5
  8
0
  2
STDGX5
 10
921.10838872801094
 20
-82.133797211263698
 30
0.0
 41
0.3333333333333144
 42
0.3333333333333144
 43
0.3333333333333144
  0
INSERT
  5
11B6
  8
0
  2
STDGX5
 10
1012.775055394677
 20
-82.133797211263698
 30
0.0
 41
0.3333333333333144
 42
0.3333333333333144
 43
0.3333333333333144
  0
INSERT
  5
11B7
  8
0
  2
STDGX5
 10
1012.775055394677
 20
-82.133797211263698
 30
0.0
 41
0.3333333333333144
 42
0.3333333333333144
 43
0.3333333333333144
  0
INSERT
  5
11B8
  8
0
  2
STDGX5
 10
956.10838872801082
 20
17.866202788736299
 30
0.0
  0
INSERT
  5
11B9
  8
0
  2
STDGX5
 10
956.10838872801082
 20
17.866202788736299
 30
0.0
  0
INSERT
  5
11BA
  8
0
  2
STDGX5
 10
1231.1083887280111
 20
17.866202788736299
 30
0.0
  0
INSERT
  5
11BB
  8
0
  2
STDGX5
 10
1231.1083887280111
 20
17.866202788736299
 30
0.0
  0
INSERT
  5
11BC
  8
0
  2
STDGX5
 10
956.10130261271559
 20
12.71832955041458
 30
0.0
  0
INSERT
  5
11BD
  8
0
  2
STDGX5
 10
956.10130261271559
 20
12.71832955041458
 30
0.0
  0
INSERT
  5
11BE
  8
0
  2
STDGX5
 10
1231.101302612715
 20
12.71832955041458
 30
0.0
  0
INSERT
  5
11BF
  8
0
  2
STDGX5
 10
1231.101302612715
 20
12.71832955041458
 30
0.0
  0
INSERT
  5
11C0
  8
0
  2
STDGX5
 10
956.10130261271559
 20
12.71832955041458
 30
0.0
 41
2.0
 42
2.0
 43
2.0
  0
INSERT
  5
11C1
  8
0
  2
STDGX5
 10
956.10130261271559
 20
12.71832955041458
 30
0.0
 41
2.0
 42
2.0
 43
2.0
  0
INSERT
  5
11C2
  8
0
  2
STDGX5
 10
1506.101302612715
 20
12.71832955041458
 30
0.0
 41
2.0
 42
2.0
 43
2.0
  0
INSERT
  5
11C3
  8
0
  2
STDGX5
 10
1506.101302612715
 20
12.71832955041458
 30
0.0
 41
2.0
 42
2.0
 43
2.0
  0
INSERT
  5
11C4
  8
0
  2
STDGX5
 10
956.10130261271559
 20
12.71832955041458
 30
0.0
  0
INSERT
  5
11C5
  8
0
  2
STDGX5
 10
956.10130261271559
 20
12.71832955041458
 30
0.0
  0
INSERT
  5
11C6
  8
0
  2
STDGX5
 10
1231.101302612715
 20
12.71832955041458
 30
0.0
  0
INSERT
  5
11C7
  8
0
  2
STDGX5
 10
1231.101302612715
 20
12.71832955041458
 30
0.0
  0
INSERT
  5
11C8
  8
0
  2
STDGX5
 10
1353.174033507757
 20
26.808441511359948
 30
0.0
  0
INSERT
  5
11C9
  8
0
  2
STDGX5
 10
1353.174033507757
 20
26.808441511359948
 30
0.0
  0
INSERT
  5
11CA
  8
0
  2
STDGX5
 10
1628.174033507757
 20
26.808441511359948
 30
0.0
  0
INSERT
  5
11CB
  8
0
  2
STDGX5
 10
1628.174033507757
 20
26.808441511359948
 30
0.0
  0
INSERT
  5
11CC
  8
0
  2
STDGX5
 10
1353.174033507757
 20
26.808441511359948
 30
0.0
 41
2.0
 42
2.0
 43
2.0
  0
INSERT
  5
11CD
  8
0
  2
STDGX5
 10
1353.174033507757
 20
26.808441511359948
 30
0.0
 41
2.0
 42
2.0
 43
2.0
  0
INSERT
  5
11CE
  8
0
  2
STDGX5
 10
1903.174033507757
 20
26.808441511359948
 30
0.0
 41
2.0
 42
2.0
 43
2.0
  0
INSERT
  5
11CF
  8
0
  2
STDGX5
 10
1903.174033507757
 20
26.808441511359948
 30
0.0
 41
2.0
 42
2.0
 43
2.0
  0
INSERT
  5
11D0
  8
0
  2
STDGX5
 10
1353.174033507757
 20
26.808441511359948
 30
0.0
  0
INSERT
  5
11D1
  8
0
  2
STDGX5
 10
1353.174033507757
 20
26.808441511359948
 30
0.0
  0
INSERT
  5
11D2
  8
0
  2
STDGX5
 10
1628.174033507757
 20
26.808441511359948
 30
0.0
  0
INSERT
  5
11D3
  8
0
  2
STDGX5
 10
1628.174033507757
 20
26.808441511359948
 30
0.0
  0
INSERT
  5
11D4
  8
0
  2
STDGX5
 10
956.10130261271559
 20
12.71832955041458
 30
0.0
 41
0.25
 42
0.25
 43
0.25
  0
INSERT
  5
11D5
  8
0
  2
STDGX5
 10
956.10130261271559
 20
12.71832955041458
 30
0.0
 41
0.25
 42
0.25
 43
0.25
  0
INSERT
  5
11D6
  8
0
  2
STDGX5
 10
1024.851302612715
 20
12.71832955041458
 30
0.0
 41
0.25
 42
0.25
 43
0.25
  0
INSERT
  5
11D7
  8
0
  2
STDGX5
 10
1024.851302612715
 20
12.71832955041458
 30
0.0
 41
0.25
 42
0.25
 43
0.25
  0
INSERT
  5
11D8
  8
0
  2
STDGX5
 10
956.10130261271559
 20
12.71832955041458
 30
0.0
 41
0.5
 42
0.5
 43
0.5
  0
INSERT
  5
11D9
  8
0
  2
STDGX5
 10
956.10130261271559
 20
12.71832955041458
 30
0.0
 41
0.5
 42
0.5
 43
0.5
  0
INSERT
  5
11DA
  8
0
  2
STDGX5
 10
1093.601302612715
 20
12.71832955041458
 30
0.0
 41
0.5
 42
0.5
 43
0.5
  0
INSERT
  5
11DB
  8
0
  2
STDGX5
 10
1093.601302612715
 20
12.71832955041458
 30
0.0
 41
0.5
 42
0.5
 43
0.5
  0
INSERT
  5
11DD
  8
0
  2
STDGX5
 10
921.10130261271559
 20
-87.28167044958542
 30
0.0
 41
0.3333333333333144
 42
0.3333333333333144
 43
0.3333333333333144
  0
INSERT
  5
11DE
  8
0
  2
STDGX5
 10
921.10130261271559
 20
-87.28167044958542
 30
0.0
 41
0.3333333333333144
 42
0.3333333333333144
 43
0.3333333333333144
  0
INSERT
  5
11DF
  8
0
  2
STDGX5
 10
1012.767969279382
 20
-87.28167044958542
 30
0.0
 41
0.3333333333333144
 42
0.3333333333333144
 43
0.3333333333333144
  0
INSERT
  5
11E0
  8
0
  2
STDGX5
 10
1012.767969279382
 20
-87.28167044958542
 30
0.0
 41
0.3333333333333144
 42
0.3333333333333144
 43
0.3333333333333144
  0
INSERT
  5
11E2
  8
0
  2
STDGX5
 10
921.10130261271559
 20
-87.28167044958542
 30
0.0
 41
0.3333333333333144
 42
0.3333333333333144
 43
0.3333333333333144
  0
INSERT
  5
11E3
  8
0
  2
STDGX5
 10
921.10130261271559
 20
-87.28167044958542
 30
0.0
 41
0.3333333333333144
 42
0.3333333333333144
 43
0.3333333333333144
  0
INSERT
  5
11E4
  8
0
  2
STDGX5
 10
1012.767969279382
 20
-87.28167044958542
 30
0.0
 41
0.3333333333333144
 42
0.3333333333333144
 43
0.3333333333333144
  0
INSERT
  5
11E5
  8
0
  2
STDGX5
 10
1012.767969279382
 20
-87.28167044958542
 30
0.0
 41
0.3333333333333144
 42
0.3333333333333144
 43
0.3333333333333144
  0
INSERT
  5
11E6
  8
0
  2
STDGX5
 10
956.10130261271559
 20
12.71832955041458
 30
0.0
  0
INSERT
  5
11E7
  8
0
  2
STDGX5
 10
956.10130261271559
 20
12.71832955041458
 30
0.0
  0
INSERT
  5
11E8
  8
0
  2
STDGX5
 10
1231.101302612715
 20
12.71832955041458
 30
0.0
  0
INSERT
  5
11E9
  8
0
  2
STDGX5
 10
1231.101302612715
 20
12.71832955041458
 30
0.0
  0
LINE
  5
11EA
  8
1
 10
127.2182726540812
 20
97.0423436698252
 30
0.0
 11
127.2182726540812
 21
89.5423436698252
 31
0.0
  0
LINE
  5
11EB
  8
1
 10
130.9682726540812
 20
93.2923436698252
 30
0.0
 11
123.4682726540812
 21
93.2923436698252
 31
0.0
  0
CIRCLE
  5
11EC
  8
0
 10
127.2182726540812
 20
93.2923436698252
 30
0.0
 40
1.25
  0
LINE
  5
11ED
  8
1
 10
163.7182726540812
 20
97.0423436698252
 30
0.0
 11
163.7182726540812
 21
89.5423436698252
 31
0.0
  0
LINE
  5
11EE
  8
1
 10
167.4682726540812
 20
93.2923436698252
 30
0.0
 11
159.9682726540812
 21
93.2923436698252
 31
0.0
  0
CIRCLE
  5
11EF
  8
0
 10
163.7182726540812
 20
93.2923436698252
 30
0.0
 40
1.25
  0
LINE
  5
11F0
  8
1
 10
167.4682726540812
 20
56.7923436698252
 30
0.0
 11
159.9682726540812
 21
56.7923436698252
 31
0.0
  0
CIRCLE
  5
11F1
  8
0
 10
163.7182726540812
 20
56.7923436698252
 30
0.0
 40
1.25
  0
LINE
  5
11F2
  8
1
 10
130.91827265408119
 20
56.742343669825189
 30
0.0
 11
123.41827265408121
 21
56.742343669825189
 31
0.0
  0
CIRCLE
  5
11F3
  8
0
 10
127.16827265408121
 20
56.742343669825189
 30
0.0
 40
1.25
  0
LINE
  5
11F4
  8
1
 10
163.7182726540812
 20
60.5423436698252
 30
0.0
 11
163.7182726540812
 21
53.0423436698252
 31
0.0
  0
LINE
  5
11F5
  8
1
 10
127.16827265408121
 20
60.492343669825189
 30
0.0
 11
127.16827265408121
 21
52.992343669825189
 31
0.0
  0
CIRCLE
  5
11F6
  8
0
 10
145.4682726540812
 20
105.0423436698252
 30
0.0
 40
1.5
  0
TEXT
  5
12BF
  8
0
 62
     3
 10
0.0
 20
0.0
 30
0.0
 40
10.0
  1
SDP-09-CP
  7
STANDARD1
  0
ENDSEC
  0
EOF
