  0
SECTION
  2
HEADER
  9
$ACADVER
  1
AC1009
  9
$INSBASE
 10
0.0
 20
0.0
 30
0.0
  9
$EXTMIN
 10
0.0
 20
-2.960436562073669
 30
0.0
  9
$EXTMAX
 10
299.78908485079887
 20
224.0806003950444
 30
0.0
  9
$LIMMIN
 10
0.0
 20
0.0
  9
$LIMMAX
 10
375.0
 20
270.0
  9
$ORTHOMODE
 70
     1
  9
$REGENMODE
 70
     1
  9
$FILLMODE
 70
     1
  9
$QTEXTMODE
 70
     0
  9
$MIRRTEXT
 70
     0
  9
$DRAGMODE
 70
     2
  9
$LTSCALE
 40
10.0
  9
$OSMODE
 70
    55
  9
$ATTMODE
 70
     1
  9
$TEXTSIZE
 40
0.2
  9
$TRACEWID
 40
0.05
  9
$TEXTSTYLE
  7
STANDARD
  9
$CLAYER
  8
0
  9
$CELTYPE
  6
BYLAYER
  9
$CECOLOR
 62
   256
  9
$DIMSCALE
 40
1.0
  9
$DIMASZ
 40
3.0
  9
$DIMEXO
 40
2.0
  9
$DIMDLI
 40
0.38
  9
$DIMRND
 40
0.0
  9
$DIMDLE
 40
0.0
  9
$DIMEXE
 40
2.0
  9
$DIMTP
 40
0.0
  9
$DIMTM
 40
0.0
  9
$DIMTXT
 40
3.2000000000000002
  9
$DIMCEN
 40
0.0
  9
$DIMTSZ
 40
0.0
  9
$DIMTOL
 70
     0
  9
$DIMLIM
 70
     0
  9
$DIMTIH
 70
     0
  9
$DIMTOH
 70
     0
  9
$DIMSE1
 70
     0
  9
$DIMSE2
 70
     0
  9
$DIMTAD
 70
     1
  9
$DIMZIN
 70
     0
  9
$DIMBLK
  1

  9
$DIMASO
 70
     0
  9
$DIMSHO
 70
     0
  9
$DIMPOST
  1

  9
$DIMAPOST
  1

  9
$DIMALT
 70
     0
  9
$DIMALTD
 70
     2
  9
$DIMALTF
 40
25.399999999999999
  9
$DIMLFAC
 40
1.0
  9
$DIMTOFL
 70
     1
  9
$DIMTVP
 40
1.6000000000000001
  9
$DIMTIX
 70
     1
  9
$DIMSOXD
 70
     0
  9
$DIMSAH
 70
     0
  9
$DIMBLK1
  1

  9
$DIMBLK2
  1

  9
$DIMSTYLE
  2
STANDARD
  9
$DIMCLRD
 70
     0
  9
$DIMCLRE
 70
     0
  9
$DIMCLRT
 70
     0
  9
$DIMTFAC
 40
1.0
  9
$DIMGAP
 40
0.09
  9
$LUNITS
 70
     2
  9
$LUPREC
 70
     4
  9
$SKETCHINC
 40
0.1
  9
$FILLETRAD
 40
0.0
  9
$AUNITS
 70
     0
  9
$AUPREC
 70
     4
  9
$MENU
  1
E:\r13\win\SUPPORT\ACAD
  9
$ELEVATION
 40
0.0
  9
$PELEVATION
 40
0.0
  9
$THICKNESS
 40
0.0
  9
$LIMCHECK
 70
     0
  9
$BLIPMODE
 70
     0
  9
$CHAMFERA
 40
0.0
  9
$CHAMFERB
 40
0.0
  9
$SKPOLY
 70
     0
  9
$TDCREATE
 40
2449840.6455787038
  9
$TDUPDATE
 40
2456598.4840188888
  9
$TDINDWG
 40
0.0000877431
  9
$TDUSRTIMER
 40
0.0000877431
  9
$USRTIMER
 70
     1
  9
$ANGBASE
 50
0.0
  9
$ANGDIR
 70
     0
  9
$PDMODE
 70
     0
  9
$PDSIZE
 40
0.0
  9
$PLINEWID
 40
0.0
  9
$COORDS
 70
     1
  9
$SPLFRAME
 70
     0
  9
$SPLINETYPE
 70
     6
  9
$SPLINESEGS
 70
     8
  9
$ATTDIA
 70
     0
  9
$ATTREQ
 70
     1
  9
$HANDLING
 70
     1
  9
$HANDSEED
  5
232
  9
$SURFTAB1
 70
     6
  9
$SURFTAB2
 70
     6
  9
$SURFTYPE
 70
     6
  9
$SURFU
 70
     6
  9
$SURFV
 70
     6
  9
$UCSNAME
  2

  9
$UCSORG
 10
0.0
 20
0.0
 30
0.0
  9
$UCSXDIR
 10
1.0
 20
0.0
 30
0.0
  9
$UCSYDIR
 10
0.0
 20
1.0
 30
0.0
  9
$PUCSNAME
  2

  9
$PUCSORG
 10
0.0
 20
0.0
 30
0.0
  9
$PUCSXDIR
 10
1.0
 20
0.0
 30
0.0
  9
$PUCSYDIR
 10
0.0
 20
1.0
 30
0.0
  9
$USERI1
 70
     0
  9
$USERI2
 70
     1
  9
$USERI3
 70
     0
  9
$USERI4
 70
     0
  9
$USERI5
 70
     0
  9
$USERR1
 40
0.0
  9
$USERR2
 40
0.0
  9
$USERR3
 40
0.0
  9
$USERR4
 40
0.0
  9
$USERR5
 40
0.0
  9
$WORLDVIEW
 70
     1
  9
$SHADEDGE
 70
     3
  9
$SHADEDIF
 70
    70
  9
$TILEMODE
 70
     1
  9
$MAXACTVP
 70
    16
  9
$PLIMCHECK
 70
     0
  9
$PEXTMIN
 10
1.0000000000000000E+020
 20
1.0000000000000000E+020
 30
1.0000000000000000E+020
  9
$PEXTMAX
 10
-1.0000000000000000E+020
 20
-1.0000000000000000E+020
 30
-1.0000000000000000E+020
  9
$PLIMMIN
 10
0.0
 20
0.0
  9
$PLIMMAX
 10
12.0
 20
9.0
  9
$UNITMODE
 70
     0
  9
$VISRETAIN
 70
     0
  9
$PLINEGEN
 70
     0
  9
$PSLTSCALE
 70
     0
  0
ENDSEC
  0
SECTION
  2
TABLES
  0
TABLE
  2
VPORT
 70
     1
  0
VPORT
  2
*ACTIVE
 70
     0
 10
0.0
 20
0.0
 11
1.0
 21
1.0
 12
187.49427839065231
 22
174.91677254346851
 13
0.0
 23
0.0
 14
10.0
 24
10.0
 15
10.0
 25
10.0
 16
0.0
 26
0.0
 36
1.0
 17
0.0
 27
0.0
 37
0.0
 40
358.92027899574339
 41
1.7807262569832401
 42
50.0
 43
0.0
 44
0.0
 50
0.0
 51
0.0
 71
     0
 72
   500
 73
     1
 74
     0
 75
     0
 76
     0
 77
     0
 78
     2
  0
ENDTAB
  0
TABLE
  2
LTYPE
 70
     3
  0
LTYPE
  2
CONTINUOUS
 70
     0
  3
Solid Line
 72
    65
 73
     0
 40
0.0
  0
LTYPE
  2
CENTER
 70
     0
  3
____ _ ____ _ ____ _ ____ _ ____ _ ____ _ ____
 72
    65
 73
     4
 40
2.0
 49
1.25
 49
-0.25
 49
0.25
 49
-0.25
  0
LTYPE
  2
PHANTOM2
 70
     0
  3
___ _ _ ___ _ _ ___ _ _ ___ _ _
 72
    65
 73
     6
 40
1.25
 49
0.625
 49
-0.125
 49
0.125
 49
-0.125
 49
0.125
 49
-0.125
  0
ENDTAB
  0
TABLE
  2
LAYER
 70
     3
  0
LAYER
  2
0
 70
     0
 62
     7
  6
CONTINUOUS
  0
LAYER
  2
1
 70
     0
 62
     1
  6
CENTER
  0
LAYER
  2
3
 70
     0
 62
     3
  6
CONTINUOUS
  0
ENDTAB
  0
TABLE
  2
STYLE
 70
     2
  0
STYLE
  2
STANDARD
 70
     0
 40
0.0
 41
1.0
 50
0.0
 71
     0
 42
0.2
  3
TXT
  4
BIGFONT
  0
STYLE
  2
STANDARD1
 70
     0
 40
0.0
 41
1.0
 50
0.0
 71
     0
 42
3.0
  3
txt
  4

  0
ENDTAB
  0
TABLE
  2
VIEW
 70
     1
  0
VIEW
  2
ALL
 70
     0
 40
270.0
 10
220.99159663865549
 20
135.0
 41
0.0
 11
0.0
 21
0.0
 31
1.0
 12
0.0
 22
0.0
 32
0.0
 42
0.0
 43
0.0
 44
0.0
 50
0.0
 71
     0
  0
ENDTAB
  0
TABLE
  2
UCS
 70
     0
  0
ENDTAB
  0
TABLE
  2
APPID
 70
     3
  0
APPID
  2
ACAD
 70
     0
  0
APPID
  2
ACAD_MLEADERVER
 70
     0
  0
APPID
  2
ACAD_NAV_VCDISPLAY
 70
     0
  0
ENDTAB
  0
TABLE
  2
DIMSTYLE
 70
     1
  0
DIMSTYLE
  2
STANDARD
 70
     0
  3

  4

  5

  6

  7

 40
1.0
 41
0.18
 42
0.0625
 43
0.38
 44
0.18
 45
0.0
 46
0.0
 47
0.0
 48
0.0
140
0.18
141
0.09
142
0.0
143
25.399999999999999
144
1.0
145
0.0
146
1.0
147
0.09
 71
     0
 72
     0
 73
     1
 74
     1
 75
     0
 76
     0
 77
     0
 78
     0
170
     0
171
     2
172
     0
173
     0
174
     0
175
     0
176
     0
177
     0
178
     0
  0
ENDTAB
  0
ENDSEC
  0
SECTION
  2
BLOCKS
  0
BLOCK
  8
0
  2
$MODEL_SPACE
 70
     0
 10
0.0
 20
0.0
 30
0.0
  3
$MODEL_SPACE
  1

  0
ENDBLK
  5
E8
  8
0
  0
BLOCK
 67
     1
  8
0
  2
$PAPER_SPACE
 70
     0
 10
0.0
 20
0.0
 30
0.0
  3
$PAPER_SPACE
  1

  0
ENDBLK
  5
E6
 67
     1
  8
0
  0
BLOCK
  8
0
  2
*X0
 70
     1
 10
0.0
 20
0.0
 30
0.0
  3
*X0
  1

  0
LINE
  5
2D
  8
0
 62
     0
 10
128.49177770756009
 20
35.153682590935887
 30
0.0
 11
138.4917777075602
 21
45.153682590935901
 31
0.0
  0
LINE
  5
2E
  8
0
 62
     0
 10
128.49177770756009
 20
37.982109715682078
 30
0.0
 11
138.4917777075602
 21
47.982109715682093
 31
0.0
  0
LINE
  5
2F
  8
0
 62
     0
 10
128.49177770756009
 20
40.810536840428263
 30
0.0
 11
138.4917777075602
 21
50.81053684042827
 31
0.0
  0
LINE
  5
30
  8
0
 62
     0
 10
128.49177770756009
 20
43.638963965174447
 30
0.0
 11
135.90177495324059
 21
51.048961210854912
 31
0.0
  0
LINE
  5
31
  8
0
 62
     0
 10
128.49177770756009
 20
46.467391089920639
 30
0.0
 11
133.07334782849441
 21
51.048961210854898
 31
0.0
  0
LINE
  5
32
  8
0
 62
     0
 10
128.49177770756009
 20
49.295818214666831
 30
0.0
 11
130.24492070374819
 21
51.048961210854898
 31
0.0
  0
LINE
  5
33
  8
0
 62
     0
 10
128.49177770756009
 20
32.325255466189702
 30
0.0
 11
138.4917777075602
 21
42.325255466189709
 31
0.0
  0
LINE
  5
34
  8
0
 62
     0
 10
128.49177770756009
 20
29.496828341443511
 30
0.0
 11
138.4917777075602
 21
39.496828341443511
 31
0.0
  0
LINE
  5
35
  8
0
 62
     0
 10
128.49177770756009
 20
26.66840121669733
 30
0.0
 11
138.4917777075602
 21
36.668401216697333
 31
0.0
  0
LINE
  5
36
  8
0
 62
     0
 10
130.70076482646391
 20
26.04896121085488
 30
0.0
 11
138.4917777075602
 21
33.839974091951142
 31
0.0
  0
LINE
  5
37
  8
0
 62
     0
 10
133.52919195121009
 20
26.04896121085488
 30
0.0
 11
138.4917777075602
 21
31.011546967204939
 31
0.0
  0
LINE
  5
38
  8
0
 62
     0
 10
136.35761907595631
 20
26.04896121085488
 30
0.0
 11
138.4917777075602
 21
28.183119842458751
 31
0.0
  0
LINE
  5
39
  8
0
 62
     0
 10
138.4917777075602
 20
31.21384977721123
 30
0.0
 11
128.49177770756009
 21
41.21384977721123
 31
0.0
  0
LINE
  5
3A
  8
0
 62
     0
 10
138.4917777075602
 20
28.38542265246501
 30
0.0
 11
128.49177770756009
 21
38.385422652465039
 31
0.0
  0
LINE
  5
3B
  8
0
 62
     0
 10
137.9998120244241
 20
26.04896121085488
 30
0.0
 11
128.49177770756009
 21
35.556995527718861
 31
0.0
  0
LINE
  5
3C
  8
0
 62
     0
 10
135.17138489967789
 20
26.04896121085488
 30
0.0
 11
128.49177770756009
 21
32.728568402972662
 31
0.0
  0
LINE
  5
3D
  8
0
 62
     0
 10
132.3429577749317
 20
26.04896121085488
 30
0.0
 11
128.49177770756009
 21
29.900141278226471
 31
0.0
  0
LINE
  5
3E
  8
0
 62
     0
 10
129.51453065018561
 20
26.04896121085488
 30
0.0
 11
128.49177770756009
 21
27.071714153480261
 31
0.0
  0
LINE
  5
3F
  8
0
 62
     0
 10
138.4917777075602
 20
34.042276901957408
 30
0.0
 11
128.49177770756009
 21
44.042276901957422
 31
0.0
  0
LINE
  5
40
  8
0
 62
     0
 10
138.4917777075602
 20
36.870704026703599
 30
0.0
 11
128.49177770756009
 21
46.870704026703599
 31
0.0
  0
LINE
  5
41
  8
0
 62
     0
 10
138.4917777075602
 20
39.699131151449777
 30
0.0
 11
128.49177770756009
 21
49.699131151449791
 31
0.0
  0
LINE
  5
42
  8
0
 62
     0
 10
138.4917777075602
 20
42.527558276195968
 30
0.0
 11
129.97037477290121
 21
51.048961210854898
 31
0.0
  0
LINE
  5
43
  8
0
 62
     0
 10
138.4917777075602
 20
45.355985400942153
 30
0.0
 11
132.79880189764739
 21
51.048961210854898
 31
0.0
  0
LINE
  5
44
  8
0
 62
     0
 10
138.4917777075602
 20
48.184412525688352
 30
0.0
 11
135.62722902239361
 21
51.048961210854912
 31
0.0
  0
LINE
  5
45
  8
0
 62
     0
 10
138.4917777075602
 20
51.012839650434529
 30
0.0
 11
138.45565614713979
 21
51.048961210854912
 31
0.0
  0
ENDBLK
  5
46
  8
0
  0
BLOCK
  8
0
  2
*X1
 70
     1
 10
0.0
 20
0.0
 30
0.0
  3
*X1
  1

  0
LINE
  5
48
  8
0
 62
     0
 10
128.49177770756009
 20
139.80548620654491
 30
0.0
 11
132.850530561743
 21
144.16423906072779
 31
0.0
  0
LINE
  5
49
  8
0
 62
     0
 10
135.90813904187681
 20
147.22184754086149
 30
0.0
 11
138.49177770756009
 21
149.80548620654491
 31
0.0
  0
LINE
  5
4A
  8
0
 62
     0
 10
128.49177770756009
 20
142.6339133312911
 30
0.0
 11
131.27762813883299
 21
145.419763762564
 31
0.0
  0
LINE
  5
4B
  8
0
 62
     0
 10
134.6526143400406
 20
148.79474996377161
 30
0.0
 11
138.49177770756009
 21
152.6339133312911
 31
0.0
  0
LINE
  5
4C
  8
0
 62
     0
 10
128.49177770756009
 20
145.4623404560372
 30
0.0
 11
138.49177770756009
 21
155.46234045603731
 31
0.0
  0
LINE
  5
4D
  8
0
 62
     0
 10
128.49177770756009
 20
148.29076758078349
 30
0.0
 11
138.49177770756009
 21
158.29076758078349
 31
0.0
  0
LINE
  5
4E
  8
0
 62
     0
 10
128.49177770756009
 20
151.11919470552971
 30
0.0
 11
136.45318339707489
 21
159.0806003950444
 31
0.0
  0
LINE
  5
4F
  8
0
 62
     0
 10
128.49177770756009
 20
153.94762183027581
 30
0.0
 11
133.62475627232871
 21
159.0806003950444
 31
0.0
  0
LINE
  5
50
  8
0
 62
     0
 10
128.49177770756009
 20
156.77604895502199
 30
0.0
 11
130.7963291475825
 21
159.0806003950444
 31
0.0
  0
LINE
  5
51
  8
0
 62
     0
 10
128.49177770756009
 20
136.9770590817987
 30
0.0
 11
138.49177770756009
 21
146.9770590817987
 31
0.0
  0
LINE
  5
52
  8
0
 62
     0
 10
128.49177770756009
 20
134.14863195705249
 30
0.0
 11
138.49177770756009
 21
144.14863195705249
 31
0.0
  0
LINE
  5
53
  8
0
 62
     0
 10
131.25217327029819
 20
134.08060039504431
 30
0.0
 11
138.49177770756009
 21
141.3202048323063
 31
0.0
  0
LINE
  5
54
  8
0
 62
     0
 10
134.08060039504431
 20
134.08060039504431
 30
0.0
 11
138.49177770756009
 21
138.49177770756009
 31
0.0
  0
LINE
  5
55
  8
0
 62
     0
 10
136.9090275197905
 20
134.08060039504431
 30
0.0
 11
138.49177770756009
 21
135.66335058281391
 31
0.0
  0
LINE
  5
56
  8
0
 62
     0
 10
138.4917777075602
 20
141.52250764231269
 30
0.0
 11
135.23025963592639
 21
144.78402571394639
 31
0.0
  0
LINE
  5
57
  8
0
 62
     0
 10
131.69520302646211
 20
148.3190823234107
 30
0.0
 11
128.49177770756009
 21
151.52250764231269
 31
0.0
  0
LINE
  5
58
  8
0
 62
     0
 10
138.4917777075602
 20
138.69408051756639
 30
0.0
 11
133.0693021482254
 21
144.11655607690119
 31
0.0
  0
LINE
  5
59
  8
0
 62
     0
 10
131.02773338941691
 20
146.15812483570971
 30
0.0
 11
128.49177770756009
 21
148.69408051756639
 31
0.0
  0
LINE
  5
5A
  8
0
 62
     0
 10
138.4917777075602
 20
135.86565339282021
 30
0.0
 11
128.49177770756009
 21
145.86565339282021
 31
0.0
  0
LINE
  5
5B
  8
0
 62
     0
 10
137.44840358058991
 20
134.08060039504431
 30
0.0
 11
128.49177770756009
 21
143.03722626807411
 31
0.0
  0
LINE
  5
5C
  8
0
 62
     0
 10
134.6199764558437
 20
134.08060039504431
 30
0.0
 11
128.49177770756009
 21
140.20879914332789
 31
0.0
  0
LINE
  5
5D
  8
0
 62
     0
 10
131.79154933109751
 20
134.08060039504431
 30
0.0
 11
128.49177770756009
 21
137.38037201858171
 31
0.0
  0
LINE
  5
5E
  8
0
 62
     0
 10
128.9631222063513
 20
134.08060039504431
 30
0.0
 11
128.49177770756009
 21
134.5519448938355
 31
0.0
  0
LINE
  5
5F
  8
0
 62
     0
 10
138.4917777075602
 20
144.35093476705879
 30
0.0
 11
135.9752671899852
 21
146.86744528463379
 31
0.0
  0
LINE
  5
60
  8
0
 62
     0
 10
133.77862259714959
 20
149.06408987746931
 30
0.0
 11
128.49177770756009
 21
154.3509347670589
 31
0.0
  0
LINE
  5
61
  8
0
 62
     0
 10
138.4917777075602
 20
147.179361891805
 30
0.0
 11
128.49177770756009
 21
157.179361891805
 31
0.0
  0
LINE
  5
62
  8
0
 62
     0
 10
138.4917777075602
 20
150.00778901655119
 30
0.0
 11
129.41896632906699
 21
159.0806003950444
 31
0.0
  0
LINE
  5
63
  8
0
 62
     0
 10
138.4917777075602
 20
152.8362161412974
 30
0.0
 11
132.2473934538132
 21
159.0806003950444
 31
0.0
  0
LINE
  5
64
  8
0
 62
     0
 10
138.4917777075602
 20
155.66464326604361
 30
0.0
 11
135.0758205785593
 21
159.0806003950444
 31
0.0
  0
LINE
  5
65
  8
0
 62
     0
 10
138.4917777075602
 20
158.4930703907898
 30
0.0
 11
137.90424770330549
 21
159.0806003950444
 31
0.0
  0
ENDBLK
  5
66
  8
0
  0
ENDSEC
  0
SECTION
  2
ENTITIES
  0
LINE
  5
72
  8
1
 10
182.49177770756029
 20
132.86975221878009
 30
0.0
 11
204.49177770756
 21
132.86975221878009
 31
0.0
  0
LINE
  5
73
  8
1
 10
193.4917777075602
 20
150.36975221878009
 30
0.0
 11
193.4917777075602
 21
115.36975221878011
 31
0.0
  0
LINE
  5
74
  8
1
 10
282.28908485079887
 20
150.36975221878009
 30
0.0
 11
282.28908485079887
 21
115.36975221878011
 31
0.0
  0
LINE
  5
75
  8
1
 10
264.78908485079882
 20
132.86975221878009
 30
0.0
 11
299.78908485079887
 21
132.86975221878009
 31
0.0
  0
CIRCLE
  5
76
  8
0
 10
282.28908485079887
 20
132.86975221878009
 30
0.0
 40
12.5
  0
CIRCLE
  5
77
  8
0
 10
101.366725981513
 20
132.86975221878009
 30
0.0
 40
12.5
  0
LINE
  5
78
  8
1
 10
83.866725981512957
 20
132.86975221878009
 30
0.0
 11
118.866725981513
 21
132.86975221878009
 31
0.0
  0
LINE
  5
79
  8
1
 10
101.366725981513
 20
150.36975221878009
 30
0.0
 11
101.366725981513
 21
115.36975221878011
 31
0.0
  0
ARC
  5
7A
  8
0
 10
198.49177770756009
 20
47.048961210854877
 30
0.0
 40
1.0
 50
270.0
 51
0.0
  0
ARC
  5
7B
  8
0
 10
188.49177770756009
 20
47.048961210854877
 30
0.0
 40
1.0
 50
180.0
 51
269.99999999999989
  0
ARC
  5
7C
  8
0
 10
188.49177770756009
 20
70.048961210854884
 30
0.0
 40
1.0
 50
90.0
 51
179.99999999999989
  0
LINE
  5
7D
  8
0
 10
188.49177770756009
 20
71.048961210854898
 30
0.0
 11
188.49177770756009
 21
46.048961210854877
 31
0.0
  0
LINE
  5
7E
  8
0
 10
198.49177770756009
 20
46.048961210854877
 30
0.0
 11
198.49177770756009
 21
71.048961210854912
 31
0.0
  0
LINE
  5
7F
  8
0
 10
199.49177770756009
 20
47.048961210854877
 30
0.0
 11
199.49177770756009
 21
70.048961210854884
 31
0.0
  0
LINE
  5
80
  8
0
 10
188.49177770756009
 20
46.048961210854877
 30
0.0
 11
198.49177770756009
 21
46.048961210854877
 31
0.0
  0
LINE
  5
81
  8
0
 10
187.4917777075602
 20
70.048961210854884
 30
0.0
 11
187.4917777075602
 21
47.048961210854877
 31
0.0
  0
LINE
  5
82
  8
1
 10
182.49177770756029
 20
58.548961210854877
 30
0.0
 11
204.49177770756
 21
58.548961210854898
 31
0.0
  0
ARC
  5
83
  8
0
 10
198.49177770756009
 20
218.08060039504431
 30
0.0
 40
1.0
 50
0.0
 51
90.0
  0
ARC
  5
84
  8
0
 10
198.49177770756009
 20
195.08060039504431
 30
0.0
 40
1.0
 50
270.0
 51
0.0
  0
ARC
  5
85
  8
0
 10
188.49177770756009
 20
195.08060039504431
 30
0.0
 40
1.0
 50
180.0
 51
269.99999999999989
  0
LINE
  5
86
  8
0
 10
188.49177770756009
 20
219.0806003950444
 30
0.0
 11
188.49177770756009
 21
194.08060039504431
 31
0.0
  0
LINE
  5
87
  8
0
 10
198.49177770756009
 20
194.08060039504431
 30
0.0
 11
198.49177770756009
 21
219.08060039504451
 31
0.0
  0
LINE
  5
88
  8
0
 10
199.49177770756009
 20
195.08060039504431
 30
0.0
 11
199.49177770756009
 21
218.08060039504431
 31
0.0
  0
LINE
  5
89
  8
0
 10
188.49177770756009
 20
194.08060039504431
 30
0.0
 11
198.49177770756009
 21
194.08060039504431
 31
0.0
  0
LINE
  5
8A
  8
0
 10
187.4917777075602
 20
218.08060039504431
 30
0.0
 11
187.4917777075602
 21
195.08060039504431
 31
0.0
  0
LINE
  5
8B
  8
1
 10
182.49177770756029
 20
206.58060039504431
 30
0.0
 11
204.49177770756
 21
206.5806003950444
 31
0.0
  0
LINE
  5
8C
  8
0
 10
188.49177770756009
 20
71.048961210854898
 30
0.0
 11
198.49177770756009
 21
71.048961210854912
 31
0.0
  0
ARC
  5
8D
  8
0
 10
198.49177770756009
 20
70.048961210854912
 30
0.0
 40
1.0
 50
0.0000000000001158
 51
90.000000000000114
  0
INSERT
  5
8E
  8
3
  2
*X0
 10
60.0
 20
20.0
 30
0.0
  0
LINE
  5
8F
  8
1
 10
193.4917777075602
 20
76.048961210854941
 30
0.0
 11
193.4917777075602
 21
41.048961210854941
 31
0.0
  0
LINE
  5
90
  8
0
 10
188.49177770756009
 20
219.0806003950444
 30
0.0
 11
198.49177770756009
 21
219.0806003950444
 31
0.0
  0
ARC
  5
91
  8
0
 10
188.49177770756009
 20
218.0806003950444
 30
0.0
 40
1.0
 50
90.000000000000256
 51
180.0000000000002
  0
LINE
  5
92
  8
1
 10
193.4917777075602
 20
224.0806003950444
 30
0.0
 11
193.4917777075602
 21
189.0806003950444
 31
0.0
  0
LINE
  5
93
  8
0
 10
192.24177770857759
 20
205.8589125591443
 30
0.0
 11
192.24177770857759
 21
207.3022882321182
 31
0.0
  0
LINE
  5
94
  8
0
 10
192.2417777085785
 20
207.3022882309443
 30
0.0
 11
193.49177770857759
 21
208.02397606743131
 31
0.0
  0
LINE
  5
95
  8
0
 10
193.49177770755989
 20
208.02397606684309
 30
0.0
 11
194.74177770755989
 21
207.30228823035631
 31
0.0
  0
LINE
  5
96
  8
0
 10
194.7417777065431
 20
207.3022882309433
 30
0.0
 11
194.7417777065431
 21
205.85891255796949
 31
0.0
  0
LINE
  5
97
  8
0
 10
194.7417777065431
 20
205.8589125591443
 30
0.0
 11
193.4917777065431
 21
205.13722472265729
 31
0.0
  0
LINE
  5
98
  8
0
 10
193.49177770755989
 20
205.13722472324559
 30
0.0
 11
192.24177770755989
 21
205.8589125597324
 31
0.0
  0
CIRCLE
  5
99
  8
3
 10
193.4917777075602
 20
206.5806003950444
 30
0.0
 40
2.0669999999999988
  0
CIRCLE
  5
9A
  8
0
 10
193.4917777075602
 20
206.5806003950444
 30
0.0
 40
2.5
  0
INSERT
  5
9B
  8
3
  2
*X1
 10
60.0
 20
60.0
 30
0.0
  0
CIRCLE
  5
9C
  8
3
 10
282.28908485079887
 20
132.86975221878009
 30
0.0
 40
5.0
  0
CIRCLE
  5
9D
  8
0
 10
282.28908485079887
 20
132.86975221878009
 30
0.0
 40
4.1879999999999988
  0
CIRCLE
  5
9E
  8
3
 10
101.366725981513
 20
132.86975221878009
 30
0.0
 40
5.0
  0
CIRCLE
  5
9F
  8
0
 10
101.366725981513
 20
132.86975221878009
 30
0.0
 40
4.1879999999999988
  0
INSERT
  5
A0
  8
3
  2
*X0
 10
59.999999999999943
 20
94.320791007925223
 30
0.0
  0
ARC
  5
A1
  8
0
 10
198.49177770756009
 20
144.36975221878009
 30
0.0
 40
1.0
 50
0.0000000000001158
 51
90.000000000000114
  0
LINE
  5
A2
  8
0
 10
188.49177770756009
 20
145.36975221878009
 30
0.0
 11
198.49177770756009
 21
145.36975221878009
 31
0.0
  0
LINE
  5
A3
  8
0
 10
187.49177770756009
 20
144.36975221878009
 30
0.0
 11
187.49177770756009
 21
121.36975221878011
 31
0.0
  0
LINE
  5
A4
  8
0
 10
188.49177770756009
 20
120.36975221878011
 30
0.0
 11
198.49177770756009
 21
120.36975221878011
 31
0.0
  0
LINE
  5
A5
  8
0
 10
199.49177770756009
 20
121.36975221878011
 30
0.0
 11
199.49177770756009
 21
144.36975221878009
 31
0.0
  0
LINE
  5
A6
  8
0
 10
198.49177770756009
 20
120.36975221878011
 30
0.0
 11
198.49177770756009
 21
145.36975221878009
 31
0.0
  0
LINE
  5
A7
  8
0
 10
188.49177770756009
 20
145.36975221878009
 30
0.0
 11
188.49177770756009
 21
120.36975221878011
 31
0.0
  0
ARC
  5
A8
  8
0
 10
188.49177770756009
 20
144.36975221878009
 30
0.0
 40
1.0
 50
90.0
 51
179.99999999999989
  0
ARC
  5
A9
  8
0
 10
188.49177770756009
 20
121.36975221878011
 30
0.0
 40
1.0
 50
180.0
 51
269.99999999999989
  0
ARC
  5
AA
  8
0
 10
198.49177770756009
 20
121.36975221878011
 30
0.0
 40
1.0
 50
270.0
 51
0.0
  0
TEXT
  5
19B
  8
0
 62
     3
 10
0.0
 20
0.0
 30
0.0
 40
10.0
  1
SD25R-ST10
  7
STANDARD1
  0
ENDSEC
  0
EOF
