  0
SECTION
  2
HEADER
  9
$ACADVER
  1
AC1009
  9
$INSBASE
 10
0.0
 20
0.0
 30
0.0
  9
$EXTMIN
 10
0.0
 20
-2.960436562073669
 30
0.0
  9
$EXTMAX
 10
299.27330757554722
 20
224.8614335941318
 30
0.0
  9
$LIMMIN
 10
0.0
 20
0.0
  9
$LIMMAX
 10
375.0
 20
270.0
  9
$ORTHOMODE
 70
     1
  9
$REGENMODE
 70
     1
  9
$FILLMODE
 70
     1
  9
$QTEXTMODE
 70
     0
  9
$MIRRTEXT
 70
     0
  9
$DRAGMODE
 70
     2
  9
$LTSCALE
 40
10.0
  9
$OSMODE
 70
    55
  9
$ATTMODE
 70
     1
  9
$TEXTSIZE
 40
0.2
  9
$TRACEWID
 40
0.05
  9
$TEXTSTYLE
  7
STANDARD
  9
$CLAYER
  8
0
  9
$CELTYPE
  6
BYLAYER
  9
$CECOLOR
 62
   256
  9
$DIMSCALE
 40
1.0
  9
$DIMASZ
 40
3.0
  9
$DIMEXO
 40
2.0
  9
$DIMDLI
 40
0.38
  9
$DIMRND
 40
0.0
  9
$DIMDLE
 40
0.0
  9
$DIMEXE
 40
2.0
  9
$DIMTP
 40
0.0
  9
$DIMTM
 40
0.0
  9
$DIMTXT
 40
3.2000000000000002
  9
$DIMCEN
 40
0.0
  9
$DIMTSZ
 40
0.0
  9
$DIMTOL
 70
     0
  9
$DIMLIM
 70
     0
  9
$DIMTIH
 70
     0
  9
$DIMTOH
 70
     0
  9
$DIMSE1
 70
     0
  9
$DIMSE2
 70
     0
  9
$DIMTAD
 70
     1
  9
$DIMZIN
 70
     0
  9
$DIMBLK
  1

  9
$DIMASO
 70
     0
  9
$DIMSHO
 70
     0
  9
$DIMPOST
  1

  9
$DIMAPOST
  1

  9
$DIMALT
 70
     0
  9
$DIMALTD
 70
     2
  9
$DIMALTF
 40
25.399999999999999
  9
$DIMLFAC
 40
1.0
  9
$DIMTOFL
 70
     1
  9
$DIMTVP
 40
1.6000000000000001
  9
$DIMTIX
 70
     1
  9
$DIMSOXD
 70
     0
  9
$DIMSAH
 70
     0
  9
$DIMBLK1
  1

  9
$DIMBLK2
  1

  9
$DIMSTYLE
  2
STANDARD
  9
$DIMCLRD
 70
     0
  9
$DIMCLRE
 70
     0
  9
$DIMCLRT
 70
     0
  9
$DIMTFAC
 40
1.0
  9
$DIMGAP
 40
0.09
  9
$LUNITS
 70
     2
  9
$LUPREC
 70
     4
  9
$SKETCHINC
 40
0.1
  9
$FILLETRAD
 40
0.0
  9
$AUNITS
 70
     0
  9
$AUPREC
 70
     4
  9
$MENU
  1
E:\r13\win\SUPPORT\ACAD
  9
$ELEVATION
 40
0.0
  9
$PELEVATION
 40
0.0
  9
$THICKNESS
 40
0.0
  9
$LIMCHECK
 70
     0
  9
$BLIPMODE
 70
     0
  9
$CHAMFERA
 40
0.0
  9
$CHAMFERB
 40
0.0
  9
$SKPOLY
 70
     0
  9
$TDCREATE
 40
2449840.6455324069
  9
$TDUPDATE
 40
2456598.483957998
  9
$TDINDWG
 40
0.0000885417
  9
$TDUSRTIMER
 40
0.0000885417
  9
$USRTIMER
 70
     1
  9
$ANGBASE
 50
0.0
  9
$ANGDIR
 70
     0
  9
$PDMODE
 70
     0
  9
$PDSIZE
 40
0.0
  9
$PLINEWID
 40
0.0
  9
$COORDS
 70
     1
  9
$SPLFRAME
 70
     0
  9
$SPLINETYPE
 70
     6
  9
$SPLINESEGS
 70
     8
  9
$ATTDIA
 70
     0
  9
$ATTREQ
 70
     1
  9
$HANDLING
 70
     1
  9
$HANDSEED
  5
230
  9
$SURFTAB1
 70
     6
  9
$SURFTAB2
 70
     6
  9
$SURFTYPE
 70
     6
  9
$SURFU
 70
     6
  9
$SURFV
 70
     6
  9
$UCSNAME
  2

  9
$UCSORG
 10
0.0
 20
0.0
 30
0.0
  9
$UCSXDIR
 10
1.0
 20
0.0
 30
0.0
  9
$UCSYDIR
 10
0.0
 20
1.0
 30
0.0
  9
$PUCSNAME
  2

  9
$PUCSORG
 10
0.0
 20
0.0
 30
0.0
  9
$PUCSXDIR
 10
1.0
 20
0.0
 30
0.0
  9
$PUCSYDIR
 10
0.0
 20
1.0
 30
0.0
  9
$USERI1
 70
     0
  9
$USERI2
 70
     1
  9
$USERI3
 70
     0
  9
$USERI4
 70
     0
  9
$USERI5
 70
     0
  9
$USERR1
 40
0.0
  9
$USERR2
 40
0.0
  9
$USERR3
 40
0.0
  9
$USERR4
 40
0.0
  9
$USERR5
 40
0.0
  9
$WORLDVIEW
 70
     1
  9
$SHADEDGE
 70
     3
  9
$SHADEDIF
 70
    70
  9
$TILEMODE
 70
     1
  9
$MAXACTVP
 70
    16
  9
$PLIMCHECK
 70
     0
  9
$PEXTMIN
 10
1.0000000000000000E+020
 20
1.0000000000000000E+020
 30
1.0000000000000000E+020
  9
$PEXTMAX
 10
-1.0000000000000000E+020
 20
-1.0000000000000000E+020
 30
-1.0000000000000000E+020
  9
$PLIMMIN
 10
0.0
 20
0.0
  9
$PLIMMAX
 10
12.0
 20
9.0
  9
$UNITMODE
 70
     0
  9
$VISRETAIN
 70
     0
  9
$PLINEGEN
 70
     0
  9
$PSLTSCALE
 70
     0
  0
ENDSEC
  0
SECTION
  2
TABLES
  0
TABLE
  2
VPORT
 70
     1
  0
VPORT
  2
*ACTIVE
 70
     0
 10
0.0
 20
0.0
 11
1.0
 21
1.0
 12
187.49427839065231
 22
174.91677254346851
 13
0.0
 23
0.0
 14
10.0
 24
10.0
 15
10.0
 25
10.0
 16
0.0
 26
0.0
 36
1.0
 17
0.0
 27
0.0
 37
0.0
 40
358.92027899574339
 41
1.7807262569832401
 42
50.0
 43
0.0
 44
0.0
 50
0.0
 51
0.0
 71
     0
 72
   500
 73
     1
 74
     0
 75
     0
 76
     0
 77
     0
 78
     2
  0
ENDTAB
  0
TABLE
  2
LTYPE
 70
     3
  0
LTYPE
  2
CONTINUOUS
 70
     0
  3
Solid Line
 72
    65
 73
     0
 40
0.0
  0
LTYPE
  2
CENTER
 70
     0
  3
____ _ ____ _ ____ _ ____ _ ____ _ ____ _ ____
 72
    65
 73
     4
 40
2.0
 49
1.25
 49
-0.25
 49
0.25
 49
-0.25
  0
LTYPE
  2
PHANTOM2
 70
     0
  3
___ _ _ ___ _ _ ___ _ _ ___ _ _
 72
    65
 73
     6
 40
1.25
 49
0.625
 49
-0.125
 49
0.125
 49
-0.125
 49
0.125
 49
-0.125
  0
ENDTAB
  0
TABLE
  2
LAYER
 70
     3
  0
LAYER
  2
0
 70
     0
 62
     7
  6
CONTINUOUS
  0
LAYER
  2
1
 70
     0
 62
     1
  6
CENTER
  0
LAYER
  2
3
 70
     0
 62
     3
  6
CONTINUOUS
  0
ENDTAB
  0
TABLE
  2
STYLE
 70
     2
  0
STYLE
  2
STANDARD
 70
     0
 40
0.0
 41
1.0
 50
0.0
 71
     0
 42
0.2
  3
TXT
  4
BIGFONT
  0
STYLE
  2
STANDARD1
 70
     0
 40
0.0
 41
1.0
 50
0.0
 71
     0
 42
3.0
  3
txt
  4

  0
ENDTAB
  0
TABLE
  2
VIEW
 70
     1
  0
VIEW
  2
ALL
 70
     0
 40
270.0
 10
220.99159663865549
 20
135.0
 41
0.0
 11
0.0
 21
0.0
 31
1.0
 12
0.0
 22
0.0
 32
0.0
 42
0.0
 43
0.0
 44
0.0
 50
0.0
 71
     0
  0
ENDTAB
  0
TABLE
  2
UCS
 70
     0
  0
ENDTAB
  0
TABLE
  2
APPID
 70
     3
  0
APPID
  2
ACAD
 70
     0
  0
APPID
  2
ACAD_MLEADERVER
 70
     0
  0
APPID
  2
ACAD_NAV_VCDISPLAY
 70
     0
  0
ENDTAB
  0
TABLE
  2
DIMSTYLE
 70
     1
  0
DIMSTYLE
  2
STANDARD
 70
     0
  3

  4

  5

  6

  7

 40
1.0
 41
0.18
 42
0.0625
 43
0.38
 44
0.18
 45
0.0
 46
0.0
 47
0.0
 48
0.0
140
0.18
141
0.09
142
0.0
143
25.399999999999999
144
1.0
145
0.0
146
1.0
147
0.09
 71
     0
 72
     0
 73
     1
 74
     1
 75
     0
 76
     0
 77
     0
 78
     0
170
     0
171
     2
172
     0
173
     0
174
     0
175
     0
176
     0
177
     0
178
     0
  0
ENDTAB
  0
ENDSEC
  0
SECTION
  2
BLOCKS
  0
BLOCK
  8
0
  2
$MODEL_SPACE
 70
     0
 10
0.0
 20
0.0
 30
0.0
  3
$MODEL_SPACE
  1

  0
ENDBLK
  5
E6
  8
0
  0
BLOCK
 67
     1
  8
0
  2
$PAPER_SPACE
 70
     0
 10
0.0
 20
0.0
 30
0.0
  3
$PAPER_SPACE
  1

  0
ENDBLK
  5
E4
 67
     1
  8
0
  0
BLOCK
  8
0
  2
*X0
 70
     1
 10
0.0
 20
0.0
 30
0.0
  3
*X0
  1

  0
LINE
  5
2D
  8
0
 62
     0
 10
128.32464417596881
 20
34.98654905934454
 30
0.0
 11
138.32464417596881
 21
44.986549059344561
 31
0.0
  0
LINE
  5
2E
  8
0
 62
     0
 10
128.32464417596881
 20
37.814976184090732
 30
0.0
 11
138.32464417596881
 21
47.814976184090753
 31
0.0
  0
LINE
  5
2F
  8
0
 62
     0
 10
128.32464417596881
 20
40.643403308836923
 30
0.0
 11
137.5197513266516
 21
49.838510459519718
 31
0.0
  0
LINE
  5
30
  8
0
 62
     0
 10
128.32464417596881
 20
43.471830433583101
 30
0.0
 11
134.69132420190539
 21
49.838510459519718
 31
0.0
  0
LINE
  5
31
  8
0
 62
     0
 10
128.32464417596881
 20
46.300257558329299
 30
0.0
 11
131.8628970771592
 21
49.838510459519718
 31
0.0
  0
LINE
  5
32
  8
0
 62
     0
 10
128.32464417596881
 20
49.128684683075491
 30
0.0
 11
129.03446995241299
 21
49.838510459519711
 31
0.0
  0
LINE
  5
33
  8
0
 62
     0
 10
128.32464417596881
 20
32.158121934598363
 30
0.0
 11
138.32464417596881
 21
42.158121934598377
 31
0.0
  0
LINE
  5
34
  8
0
 62
     0
 10
128.32464417596881
 20
29.32969480985216
 30
0.0
 11
138.32464417596881
 21
39.329694809852178
 31
0.0
  0
LINE
  5
35
  8
0
 62
     0
 10
128.32464417596881
 20
26.501267685105979
 30
0.0
 11
138.32464417596881
 21
36.501267685105987
 31
0.0
  0
LINE
  5
36
  8
0
 62
     0
 10
129.49031407512871
 20
24.838510459519711
 30
0.0
 11
138.32464417596881
 21
33.672840560359802
 31
0.0
  0
LINE
  5
37
  8
0
 62
     0
 10
132.31874119987489
 20
24.838510459519711
 30
0.0
 11
138.32464417596881
 21
30.84441343561361
 31
0.0
  0
LINE
  5
38
  8
0
 62
     0
 10
135.14716832462111
 20
24.838510459519711
 30
0.0
 11
138.32464417596881
 21
28.015986310867419
 31
0.0
  0
LINE
  5
39
  8
0
 62
     0
 10
137.97559544936729
 20
24.838510459519711
 30
0.0
 11
138.32464417596881
 21
25.18755918612122
 31
0.0
  0
LINE
  5
3A
  8
0
 62
     0
 10
138.32464417596881
 20
31.380983308802591
 30
0.0
 11
128.32464417596881
 21
41.380983308802563
 31
0.0
  0
LINE
  5
3B
  8
0
 62
     0
 10
138.32464417596881
 20
28.5525561840564
 30
0.0
 11
128.32464417596881
 21
38.552556184056378
 31
0.0
  0
LINE
  5
3C
  8
0
 62
     0
 10
138.32464417596881
 20
25.72412905931019
 30
0.0
 11
128.32464417596881
 21
35.724129059310187
 31
0.0
  0
LINE
  5
3D
  8
0
 62
     0
 10
136.38183565101309
 20
24.838510459519711
 30
0.0
 11
128.32464417596881
 21
32.895701934564002
 31
0.0
  0
LINE
  5
3E
  8
0
 62
     0
 10
133.55340852626691
 20
24.838510459519711
 30
0.0
 11
128.32464417596881
 21
30.06727480981781
 31
0.0
  0
LINE
  5
3F
  8
0
 62
     0
 10
130.72498140152069
 20
24.838510459519711
 30
0.0
 11
128.32464417596881
 21
27.238847685071619
 31
0.0
  0
LINE
  5
40
  8
0
 62
     0
 10
138.32464417596881
 20
34.209410433548769
 30
0.0
 11
128.32464417596881
 21
44.209410433548747
 31
0.0
  0
LINE
  5
41
  8
0
 62
     0
 10
138.32464417596881
 20
37.03783755829496
 30
0.0
 11
128.32464417596881
 21
47.037837558294939
 31
0.0
  0
LINE
  5
42
  8
0
 62
     0
 10
138.32464417596881
 20
39.866264683041152
 30
0.0
 11
128.35239839949031
 21
49.838510459519718
 31
0.0
  0
LINE
  5
43
  8
0
 62
     0
 10
138.32464417596881
 20
42.694691807787343
 30
0.0
 11
131.18082552423641
 21
49.838510459519718
 31
0.0
  0
LINE
  5
44
  8
0
 62
     0
 10
138.32464417596881
 20
45.523118932533521
 30
0.0
 11
134.0092526489826
 21
49.838510459519718
 31
0.0
  0
LINE
  5
45
  8
0
 62
     0
 10
138.32464417596881
 20
48.351546057279712
 30
0.0
 11
136.83767977372881
 21
49.838510459519732
 31
0.0
  0
ENDBLK
  5
46
  8
0
  0
BLOCK
  8
0
  2
*X1
 70
     1
 10
0.0
 20
0.0
 30
0.0
  3
*X1
  1

  0
LINE
  5
48
  8
0
 62
     0
 10
128.32464417596881
 20
131.153071300715
 30
0.0
 11
133.5985550384261
 21
136.42698216317231
 31
0.0
  0
LINE
  5
49
  8
0
 62
     0
 10
135.8095934389188
 20
138.63802056366501
 30
0.0
 11
138.32464417596881
 21
141.153071300715
 31
0.0
  0
LINE
  5
4A
  8
0
 62
     0
 10
128.32464417596881
 20
133.98149842546121
 30
0.0
 11
131.5224359655557
 21
137.17929021504801
 31
0.0
  0
LINE
  5
4B
  8
0
 62
     0
 10
135.05728538704321
 20
140.71413963653549
 30
0.0
 11
138.32464417596881
 21
143.98149842546121
 31
0.0
  0
LINE
  5
4C
  8
0
 62
     0
 10
128.32464417596881
 20
136.8099255502074
 30
0.0
 11
130.86302304044551
 21
139.34830441468401
 31
0.0
  0
LINE
  5
4D
  8
0
 62
     0
 10
132.8882711874071
 20
141.37355256164571
 30
0.0
 11
138.32464417596881
 21
146.8099255502074
 31
0.0
  0
LINE
  5
4E
  8
0
 62
     0
 10
128.32464417596881
 20
139.63835267495361
 30
0.0
 11
138.32464417596881
 21
149.63835267495361
 31
0.0
  0
LINE
  5
4F
  8
0
 62
     0
 10
128.32464417596881
 20
142.46677979969971
 30
0.0
 11
137.2697958023914
 21
151.41193142612229
 31
0.0
  0
LINE
  5
50
  8
0
 62
     0
 10
128.32464417596881
 20
145.29520692444589
 30
0.0
 11
134.4413686776451
 21
151.41193142612221
 31
0.0
  0
LINE
  5
51
  8
0
 62
     0
 10
128.32464417596881
 20
148.12363404919211
 30
0.0
 11
131.61294155289889
 21
151.41193142612221
 31
0.0
  0
LINE
  5
52
  8
0
 62
     0
 10
128.32464417596881
 20
150.95206117393829
 30
0.0
 11
128.7845144281527
 21
151.41193142612221
 31
0.0
  0
LINE
  5
53
  8
0
 62
     0
 10
128.32464417596881
 20
128.32464417596881
 30
0.0
 11
138.32464417596881
 21
138.32464417596881
 31
0.0
  0
LINE
  5
54
  8
0
 62
     0
 10
129.24035855086851
 20
126.41193142612219
 30
0.0
 11
138.32464417596881
 21
135.4962170512226
 31
0.0
  0
LINE
  5
55
  8
0
 62
     0
 10
132.06878567561461
 20
126.41193142612219
 30
0.0
 11
138.32464417596881
 21
132.66778992647639
 31
0.0
  0
LINE
  5
56
  8
0
 62
     0
 10
134.89721280036079
 20
126.41193142612219
 30
0.0
 11
138.32464417596881
 21
129.8393628017302
 31
0.0
  0
LINE
  5
57
  8
0
 62
     0
 10
137.725639925107
 20
126.41193142612219
 30
0.0
 11
138.32464417596881
 21
127.0109356769841
 31
0.0
  0
LINE
  5
58
  8
0
 62
     0
 10
138.3246441759689
 20
133.20435979966541
 30
0.0
 11
134.7028617109932
 21
136.82614226464099
 31
0.0
  0
LINE
  5
59
  8
0
 62
     0
 10
131.2388550144876
 20
140.2901489611466
 30
0.0
 11
128.32464417596881
 21
143.20435979966541
 31
0.0
  0
LINE
  5
5A
  8
0
 62
     0
 10
138.3246441759689
 20
130.3759326749192
 30
0.0
 11
128.32464417596881
 21
140.3759326749192
 31
0.0
  0
LINE
  5
5B
  8
0
 62
     0
 10
138.3246441759689
 20
127.547505550173
 30
0.0
 11
128.32464417596881
 21
137.54750555017301
 31
0.0
  0
LINE
  5
5C
  8
0
 62
     0
 10
136.63179117527341
 20
126.41193142612219
 30
0.0
 11
128.32464417596881
 21
134.7190784254268
 31
0.0
  0
LINE
  5
5D
  8
0
 62
     0
 10
133.80336405052719
 20
126.41193142612219
 30
0.0
 11
128.32464417596881
 21
131.89065130068059
 31
0.0
  0
LINE
  5
5E
  8
0
 62
     0
 10
130.97493692578101
 20
126.41193142612219
 30
0.0
 11
128.32464417596881
 21
129.0622241759344
 31
0.0
  0
LINE
  5
5F
  8
0
 62
     0
 10
138.3246441759689
 20
136.0327869244116
 30
0.0
 11
135.79945977462609
 21
138.55797132575429
 31
0.0
  0
LINE
  5
60
  8
0
 62
     0
 10
132.9706840756007
 20
141.38674702477971
 30
0.0
 11
128.32464417596881
 21
146.0327869244116
 31
0.0
  0
LINE
  5
61
  8
0
 62
     0
 10
138.3246441759689
 20
138.86121404915781
 30
0.0
 11
128.32464417596881
 21
148.86121404915781
 31
0.0
  0
LINE
  5
62
  8
0
 62
     0
 10
138.3246441759689
 20
141.68964117390391
 30
0.0
 11
128.60235392375051
 21
151.41193142612221
 31
0.0
  0
LINE
  5
63
  8
0
 62
     0
 10
138.3246441759689
 20
144.51806829865009
 30
0.0
 11
131.4307810484967
 21
151.41193142612221
 31
0.0
  0
LINE
  5
64
  8
0
 62
     0
 10
138.3246441759689
 20
147.34649542339631
 30
0.0
 11
134.25920817324291
 21
151.41193142612221
 31
0.0
  0
LINE
  5
65
  8
0
 62
     0
 10
138.3246441759689
 20
150.17492254814249
 30
0.0
 11
137.0876352979891
 21
151.41193142612221
 31
0.0
  0
ENDBLK
  5
66
  8
0
  0
ENDSEC
  0
SECTION
  2
ENTITIES
  0
LINE
  5
72
  8
1
 10
182.32464417596901
 20
129.42583433386281
 30
0.0
 11
204.3246441759687
 21
129.42583433386281
 31
0.0
  0
LINE
  5
73
  8
1
 10
193.32464417596881
 20
146.92583433386281
 30
0.0
 11
193.32464417596881
 21
111.9258343338628
 31
0.0
  0
LINE
  5
74
  8
1
 10
264.27330757554711
 20
129.42583433386281
 30
0.0
 11
299.27330757554722
 21
129.42583433386281
 31
0.0
  0
LINE
  5
75
  8
1
 10
281.77330757554711
 20
146.92583433386281
 30
0.0
 11
281.77330757554711
 21
111.9258343338628
 31
0.0
  0
CIRCLE
  5
76
  8
0
 10
281.77330757554722
 20
129.42583433386281
 30
0.0
 40
12.5
  0
CIRCLE
  5
77
  8
0
 10
105.77294697121771
 20
129.42583433386281
 30
0.0
 40
12.5
  0
LINE
  5
78
  8
1
 10
105.77294697121771
 20
146.92583433386281
 30
0.0
 11
105.77294697121771
 21
111.9258343338628
 31
0.0
  0
LINE
  5
79
  8
1
 10
88.272946971217607
 20
129.42583433386281
 30
0.0
 11
123.27294697121781
 21
129.42583433386281
 31
0.0
  0
LINE
  5
7A
  8
1
 10
193.32464417596881
 20
65.788035207373696
 30
0.0
 11
193.32464417596881
 21
30.788035207373699
 31
0.0
  0
ARC
  5
7B
  8
0
 10
198.32464417596881
 20
59.788035207373639
 30
0.0
 40
1.0
 50
0.0
 51
90.0
  0
ARC
  5
7C
  8
0
 10
198.32464417596881
 20
36.788035207373639
 30
0.0
 40
1.0
 50
270.0
 51
0.0
  0
ARC
  5
7D
  8
0
 10
188.32464417596881
 20
36.788035207373639
 30
0.0
 40
1.0
 50
180.0
 51
269.99999999999989
  0
ARC
  5
7E
  8
0
 10
188.32464417596881
 20
59.788035207373639
 30
0.0
 40
1.0
 50
90.0
 51
179.99999999999989
  0
LINE
  5
7F
  8
0
 10
188.32464417596881
 20
60.788035207373639
 30
0.0
 11
188.32464417596881
 21
35.788035207373639
 31
0.0
  0
LINE
  5
80
  8
0
 10
198.32464417596881
 20
35.788035207373639
 30
0.0
 11
198.32464417596881
 21
60.78803520737366
 31
0.0
  0
LINE
  5
81
  8
0
 10
199.32464417596881
 20
36.788035207373639
 30
0.0
 11
199.32464417596881
 21
59.788035207373639
 31
0.0
  0
LINE
  5
82
  8
0
 10
188.32464417596881
 20
35.788035207373639
 30
0.0
 11
198.32464417596881
 21
35.788035207373639
 31
0.0
  0
LINE
  5
83
  8
0
 10
187.32464417596881
 20
59.788035207373639
 30
0.0
 11
187.32464417596881
 21
36.788035207373639
 31
0.0
  0
LINE
  5
84
  8
1
 10
182.32464417596901
 20
48.288035207373639
 30
0.0
 11
204.3246441759687
 21
48.288035207373653
 31
0.0
  0
LINE
  5
85
  8
0
 10
188.32464417596881
 20
60.788035207373639
 30
0.0
 11
198.32464417596881
 21
60.78803520737366
 31
0.0
  0
INSERT
  5
86
  8
3
  2
*X0
 10
60.0
 20
10.94952474785393
 30
0.0
  0
LINE
  5
87
  8
1
 10
193.32464417596881
 20
224.8614335941318
 30
0.0
 11
193.32464417596881
 21
189.8614335941318
 31
0.0
  0
ARC
  5
88
  8
0
 10
198.32464417596881
 20
195.86143359413171
 30
0.0
 40
1.0
 50
270.0
 51
0.0
  0
ARC
  5
89
  8
0
 10
188.32464417596881
 20
195.86143359413171
 30
0.0
 40
1.0
 50
180.0
 51
269.99999999999989
  0
LINE
  5
8A
  8
0
 10
188.32464417596881
 20
219.8614335941318
 30
0.0
 11
188.32464417596881
 21
194.8614335941318
 31
0.0
  0
LINE
  5
8B
  8
0
 10
198.32464417596881
 20
194.8614335941318
 30
0.0
 11
198.32464417596881
 21
219.8614335941318
 31
0.0
  0
LINE
  5
8C
  8
0
 10
199.32464417596881
 20
195.86143359413171
 30
0.0
 11
199.32464417596881
 21
218.8614335941318
 31
0.0
  0
LINE
  5
8D
  8
0
 10
188.32464417596881
 20
194.8614335941318
 30
0.0
 11
198.32464417596881
 21
194.8614335941318
 31
0.0
  0
LINE
  5
8E
  8
0
 10
187.32464417596881
 20
218.8614335941318
 30
0.0
 11
187.32464417596881
 21
195.86143359413171
 31
0.0
  0
LINE
  5
8F
  8
1
 10
182.32464417596901
 20
207.36143359413171
 30
0.0
 11
204.3246441759687
 21
207.3614335941318
 31
0.0
  0
LINE
  5
90
  8
0
 10
188.32464417596881
 20
219.8614335941318
 30
0.0
 11
198.32464417596881
 21
219.8614335941318
 31
0.0
  0
ARC
  5
91
  8
0
 10
188.32464417596881
 20
218.8614335941318
 30
0.0
 40
1.0
 50
90.000000000000256
 51
180.0000000000002
  0
ARC
  5
92
  8
0
 10
198.32464417596881
 20
218.8614335941318
 30
0.0
 40
1.0
 50
0.0000000000002685
 51
90.000000000000256
  0
LINE
  5
93
  8
0
 10
192.07464417698631
 20
206.63974575823181
 30
0.0
 11
192.07464417698631
 21
208.0831214312056
 31
0.0
  0
LINE
  5
94
  8
0
 10
192.07464417698711
 20
208.0831214300317
 30
0.0
 11
193.32464417698631
 21
208.8048092665187
 31
0.0
  0
LINE
  5
95
  8
0
 10
193.3246441759685
 20
208.80480926593049
 30
0.0
 11
194.57464417596859
 21
208.08312142944371
 31
0.0
  0
LINE
  5
96
  8
0
 10
194.57464417495169
 20
208.08312143003079
 30
0.0
 11
194.57464417495169
 21
206.63974575705689
 31
0.0
  0
LINE
  5
97
  8
0
 10
194.57464417495169
 20
206.63974575823181
 30
0.0
 11
193.32464417495169
 21
205.91805792174469
 31
0.0
  0
LINE
  5
98
  8
0
 10
193.3246441759685
 20
205.91805792233299
 30
0.0
 11
192.0746441759685
 21
206.6397457588198
 31
0.0
  0
CIRCLE
  5
99
  8
3
 10
193.32464417596881
 20
207.3614335941318
 30
0.0
 40
2.0669999999999988
  0
CIRCLE
  5
9A
  8
0
 10
193.32464417596881
 20
207.3614335941318
 30
0.0
 40
2.5
  0
INSERT
  5
9B
  8
3
  2
*X1
 10
60.0
 20
68.449502168009502
 30
0.0
  0
CIRCLE
  5
9C
  8
0
 10
281.77330757554711
 20
129.42583433386281
 30
0.0
 40
5.0
  0
CIRCLE
  5
9D
  8
0
 10
105.77294697121771
 20
129.42583433386281
 30
0.0
 40
5.0
  0
INSERT
  5
9E
  8
3
  2
*X0
 10
59.999999999999972
 20
92.087323874343085
 30
0.0
  0
LINE
  5
9F
  8
0
 10
188.32464417596881
 20
141.92583433386281
 30
0.0
 11
198.32464417596881
 21
141.92583433386281
 31
0.0
  0
LINE
  5
A0
  8
0
 10
187.32464417596881
 20
140.92583433386281
 30
0.0
 11
187.32464417596881
 21
117.9258343338628
 31
0.0
  0
LINE
  5
A1
  8
0
 10
188.32464417596881
 20
116.9258343338628
 30
0.0
 11
198.32464417596881
 21
116.9258343338628
 31
0.0
  0
LINE
  5
A2
  8
0
 10
199.32464417596881
 20
117.9258343338628
 30
0.0
 11
199.32464417596881
 21
140.92583433386281
 31
0.0
  0
LINE
  5
A3
  8
0
 10
198.32464417596881
 20
116.9258343338628
 30
0.0
 11
198.32464417596881
 21
141.92583433386281
 31
0.0
  0
LINE
  5
A4
  8
0
 10
188.32464417596881
 20
141.92583433386281
 30
0.0
 11
188.32464417596881
 21
116.9258343338628
 31
0.0
  0
ARC
  5
A5
  8
0
 10
188.32464417596881
 20
140.92583433386281
 30
0.0
 40
1.0
 50
90.0
 51
179.99999999999989
  0
ARC
  5
A6
  8
0
 10
188.32464417596881
 20
117.9258343338628
 30
0.0
 40
1.0
 50
180.0
 51
269.99999999999989
  0
ARC
  5
A7
  8
0
 10
198.32464417596881
 20
117.9258343338628
 30
0.0
 40
1.0
 50
270.0
 51
0.0
  0
ARC
  5
A8
  8
0
 10
198.32464417596881
 20
140.92583433386281
 30
0.0
 40
1.0
 50
0.0
 51
90.0
  0
TEXT
  5
199
  8
0
 62
     3
 10
0.0
 20
0.0
 30
0.0
 40
10.0
  1
SD25R-SR10
  7
STANDARD1
  0
ENDSEC
  0
EOF
