  0
SECTION
  2
HEADER
  9
$ACADVER
  1
AC1009
  9
$INSBASE
 10
0.0
 20
0.0
 30
0.0
  9
$EXTMIN
 10
0.0
 20
-2.960436562073669
 30
0.0
  9
$EXTMAX
 10
304.2089030799483
 20
222.6878819422148
 30
0.0
  9
$LIMMIN
 10
0.0
 20
0.0
  9
$LIMMAX
 10
375.0
 20
270.0
  9
$ORTHOMODE
 70
     1
  9
$REGENMODE
 70
     1
  9
$FILLMODE
 70
     1
  9
$QTEXTMODE
 70
     0
  9
$MIRRTEXT
 70
     0
  9
$DRAGMODE
 70
     2
  9
$LTSCALE
 40
10.0
  9
$OSMODE
 70
    55
  9
$ATTMODE
 70
     1
  9
$TEXTSIZE
 40
0.2
  9
$TRACEWID
 40
0.05
  9
$TEXTSTYLE
  7
STANDARD
  9
$CLAYER
  8
0
  9
$CELTYPE
  6
BYLAYER
  9
$CECOLOR
 62
   256
  9
$DIMSCALE
 40
1.0
  9
$DIMASZ
 40
3.0
  9
$DIMEXO
 40
2.0
  9
$DIMDLI
 40
0.38
  9
$DIMRND
 40
0.0
  9
$DIMDLE
 40
0.0
  9
$DIMEXE
 40
2.0
  9
$DIMTP
 40
0.0
  9
$DIMTM
 40
0.0
  9
$DIMTXT
 40
3.2000000000000002
  9
$DIMCEN
 40
0.0
  9
$DIMTSZ
 40
0.0
  9
$DIMTOL
 70
     0
  9
$DIMLIM
 70
     0
  9
$DIMTIH
 70
     0
  9
$DIMTOH
 70
     0
  9
$DIMSE1
 70
     0
  9
$DIMSE2
 70
     0
  9
$DIMTAD
 70
     1
  9
$DIMZIN
 70
     0
  9
$DIMBLK
  1

  9
$DIMASO
 70
     0
  9
$DIMSHO
 70
     0
  9
$DIMPOST
  1

  9
$DIMAPOST
  1

  9
$DIMALT
 70
     0
  9
$DIMALTD
 70
     2
  9
$DIMALTF
 40
25.399999999999999
  9
$DIMLFAC
 40
1.0
  9
$DIMTOFL
 70
     1
  9
$DIMTVP
 40
1.6000000000000001
  9
$DIMTIX
 70
     1
  9
$DIMSOXD
 70
     0
  9
$DIMSAH
 70
     0
  9
$DIMBLK1
  1

  9
$DIMBLK2
  1

  9
$DIMSTYLE
  2
STANDARD
  9
$DIMCLRD
 70
     0
  9
$DIMCLRE
 70
     0
  9
$DIMCLRT
 70
     0
  9
$DIMTFAC
 40
1.0
  9
$DIMGAP
 40
0.09
  9
$LUNITS
 70
     2
  9
$LUPREC
 70
     4
  9
$SKETCHINC
 40
0.1
  9
$FILLETRAD
 40
0.0
  9
$AUNITS
 70
     0
  9
$AUPREC
 70
     4
  9
$MENU
  1
E:\r13\win\SUPPORT\ACAD
  9
$ELEVATION
 40
0.0
  9
$PELEVATION
 40
0.0
  9
$THICKNESS
 40
0.0
  9
$LIMCHECK
 70
     0
  9
$BLIPMODE
 70
     0
  9
$CHAMFERA
 40
0.0
  9
$CHAMFERB
 40
0.0
  9
$SKPOLY
 70
     0
  9
$TDCREATE
 40
2449840.6456249999
  9
$TDUPDATE
 40
2456598.483827766
  9
$TDINDWG
 40
0.0000911111
  9
$TDUSRTIMER
 40
0.0000911111
  9
$USRTIMER
 70
     1
  9
$ANGBASE
 50
0.0
  9
$ANGDIR
 70
     0
  9
$PDMODE
 70
     0
  9
$PDSIZE
 40
0.0
  9
$PLINEWID
 40
0.0
  9
$COORDS
 70
     1
  9
$SPLFRAME
 70
     0
  9
$SPLINETYPE
 70
     6
  9
$SPLINESEGS
 70
     8
  9
$ATTDIA
 70
     0
  9
$ATTREQ
 70
     1
  9
$HANDLING
 70
     1
  9
$HANDSEED
  5
1F9
  9
$SURFTAB1
 70
     6
  9
$SURFTAB2
 70
     6
  9
$SURFTYPE
 70
     6
  9
$SURFU
 70
     6
  9
$SURFV
 70
     6
  9
$UCSNAME
  2

  9
$UCSORG
 10
0.0
 20
0.0
 30
0.0
  9
$UCSXDIR
 10
1.0
 20
0.0
 30
0.0
  9
$UCSYDIR
 10
0.0
 20
1.0
 30
0.0
  9
$PUCSNAME
  2

  9
$PUCSORG
 10
0.0
 20
0.0
 30
0.0
  9
$PUCSXDIR
 10
1.0
 20
0.0
 30
0.0
  9
$PUCSYDIR
 10
0.0
 20
1.0
 30
0.0
  9
$USERI1
 70
     0
  9
$USERI2
 70
     1
  9
$USERI3
 70
     0
  9
$USERI4
 70
     0
  9
$USERI5
 70
     0
  9
$USERR1
 40
0.0
  9
$USERR2
 40
0.0
  9
$USERR3
 40
0.0
  9
$USERR4
 40
0.0
  9
$USERR5
 40
0.0
  9
$WORLDVIEW
 70
     1
  9
$SHADEDGE
 70
     3
  9
$SHADEDIF
 70
    70
  9
$TILEMODE
 70
     1
  9
$MAXACTVP
 70
    16
  9
$PLIMCHECK
 70
     0
  9
$PEXTMIN
 10
1.0000000000000000E+020
 20
1.0000000000000000E+020
 30
1.0000000000000000E+020
  9
$PEXTMAX
 10
-1.0000000000000000E+020
 20
-1.0000000000000000E+020
 30
-1.0000000000000000E+020
  9
$PLIMMIN
 10
0.0
 20
0.0
  9
$PLIMMAX
 10
12.0
 20
9.0
  9
$UNITMODE
 70
     0
  9
$VISRETAIN
 70
     0
  9
$PLINEGEN
 70
     0
  9
$PSLTSCALE
 70
     0
  0
ENDSEC
  0
SECTION
  2
TABLES
  0
TABLE
  2
VPORT
 70
     1
  0
VPORT
  2
*ACTIVE
 70
     0
 10
0.0
 20
0.0
 11
1.0
 21
1.0
 12
187.49427839065231
 22
174.91677254346851
 13
0.0
 23
0.0
 14
10.0
 24
10.0
 15
10.0
 25
10.0
 16
0.0
 26
0.0
 36
1.0
 17
0.0
 27
0.0
 37
0.0
 40
358.92027899574339
 41
1.7807262569832401
 42
50.0
 43
0.0
 44
0.0
 50
0.0
 51
0.0
 71
     0
 72
   500
 73
     1
 74
     0
 75
     0
 76
     0
 77
     0
 78
     2
  0
ENDTAB
  0
TABLE
  2
LTYPE
 70
     3
  0
LTYPE
  2
CONTINUOUS
 70
     0
  3
Solid Line
 72
    65
 73
     0
 40
0.0
  0
LTYPE
  2
CENTER
 70
     0
  3
____ _ ____ _ ____ _ ____ _ ____ _ ____ _ ____
 72
    65
 73
     4
 40
2.0
 49
1.25
 49
-0.25
 49
0.25
 49
-0.25
  0
LTYPE
  2
PHANTOM2
 70
     0
  3
___ _ _ ___ _ _ ___ _ _ ___ _ _
 72
    65
 73
     6
 40
1.25
 49
0.625
 49
-0.125
 49
0.125
 49
-0.125
 49
0.125
 49
-0.125
  0
ENDTAB
  0
TABLE
  2
LAYER
 70
     3
  0
LAYER
  2
0
 70
     0
 62
     7
  6
CONTINUOUS
  0
LAYER
  2
1
 70
     0
 62
     1
  6
CENTER
  0
LAYER
  2
3
 70
     0
 62
     3
  6
CONTINUOUS
  0
ENDTAB
  0
TABLE
  2
STYLE
 70
     2
  0
STYLE
  2
STANDARD
 70
     0
 40
0.0
 41
1.0
 50
0.0
 71
     0
 42
0.2
  3
TXT
  4
BIGFONT
  0
STYLE
  2
STANDARD1
 70
     0
 40
0.0
 41
1.0
 50
0.0
 71
     0
 42
3.0
  3
txt
  4

  0
ENDTAB
  0
TABLE
  2
VIEW
 70
     1
  0
VIEW
  2
ALL
 70
     0
 40
270.0
 10
220.99159663865549
 20
135.0
 41
0.0
 11
0.0
 21
0.0
 31
1.0
 12
0.0
 22
0.0
 32
0.0
 42
0.0
 43
0.0
 44
0.0
 50
0.0
 71
     0
  0
ENDTAB
  0
TABLE
  2
UCS
 70
     0
  0
ENDTAB
  0
TABLE
  2
APPID
 70
     3
  0
APPID
  2
ACAD
 70
     0
  0
APPID
  2
ACAD_MLEADERVER
 70
     0
  0
APPID
  2
ACAD_NAV_VCDISPLAY
 70
     0
  0
ENDTAB
  0
TABLE
  2
DIMSTYLE
 70
     1
  0
DIMSTYLE
  2
STANDARD
 70
     0
  3

  4

  5

  6

  7

 40
1.0
 41
0.18
 42
0.0625
 43
0.38
 44
0.18
 45
0.0
 46
0.0
 47
0.0
 48
0.0
140
0.18
141
0.09
142
0.0
143
25.399999999999999
144
1.0
145
0.0
146
1.0
147
0.09
 71
     0
 72
     0
 73
     1
 74
     1
 75
     0
 76
     0
 77
     0
 78
     0
170
     0
171
     2
172
     0
173
     0
174
     0
175
     0
176
     0
177
     0
178
     0
  0
ENDTAB
  0
ENDSEC
  0
SECTION
  2
BLOCKS
  0
BLOCK
  8
0
  2
$MODEL_SPACE
 70
     0
 10
0.0
 20
0.0
 30
0.0
  3
$MODEL_SPACE
  1

  0
ENDBLK
  5
AF
  8
0
  0
BLOCK
 67
     1
  8
0
  2
$PAPER_SPACE
 70
     0
 10
0.0
 20
0.0
 30
0.0
  3
$PAPER_SPACE
  1

  0
ENDBLK
  5
AD
 67
     1
  8
0
  0
ENDSEC
  0
SECTION
  2
ENTITIES
  0
LINE
  5
35
  8
1
 10
181.0504264443058
 20
148.67206235012009
 30
0.0
 11
181.05042644430571
 21
113.67206235012
 31
0.0
  0
LINE
  5
36
  8
1
 10
170.0504264443058
 20
131.17206235011989
 30
0.0
 11
198.0504264443058
 21
131.17206235011989
 31
0.0
  0
LINE
  5
37
  8
1
 10
269.2089030799483
 20
131.17206235011989
 30
0.0
 11
304.2089030799483
 21
131.17206235011989
 31
0.0
  0
LINE
  5
38
  8
1
 10
286.7089030799483
 20
148.67206235012009
 30
0.0
 11
286.7089030799483
 21
113.67206235012
 31
0.0
  0
CIRCLE
  5
39
  8
0
 10
286.7089030799483
 20
131.17206235011989
 30
0.0
 40
6.5000000000000284
  0
CIRCLE
  5
3A
  8
0
 10
286.7089030799483
 20
131.17206235011989
 30
0.0
 40
5.0
  0
CIRCLE
  5
3B
  8
0
 10
286.7089030799483
 20
131.17206235011989
 30
0.0
 40
12.5
  0
CIRCLE
  5
3C
  8
0
 10
88.582732593878688
 20
131.17206235011989
 30
0.0
 40
12.5
  0
CIRCLE
  5
3D
  8
0
 10
88.582732593878688
 20
131.17206235011989
 30
0.0
 40
5.0
  0
LINE
  5
3E
  8
1
 10
88.582732593878688
 20
148.67206235012009
 30
0.0
 11
88.58273259387866
 21
113.67206235012
 31
0.0
  0
LINE
  5
3F
  8
1
 10
71.082732593878688
 20
131.17206235011989
 30
0.0
 11
106.0827325938787
 21
131.17206235011989
 31
0.0
  0
LINE
  5
40
  8
0
 10
187.0504264443058
 20
192.95734277884009
 30
0.0
 11
187.0504264443058
 21
217.4184211055881
 31
0.0
  0
LINE
  5
41
  8
0
 10
176.0504264443058
 20
217.68788194221469
 30
0.0
 11
176.0504264443058
 21
192.6878819422146
 31
0.0
  0
LINE
  5
42
  8
0
 10
185.80778575718651
 20
217.6878819422146
 30
0.0
 11
176.0504264443058
 21
217.6878819422146
 31
0.0
  0
LINE
  5
43
  8
0
 10
176.0504264443058
 20
192.6878819422146
 30
0.0
 11
185.80778575718651
 21
192.6878819422146
 31
0.0
  0
LINE
  5
44
  8
0
 10
175.0504264443058
 20
216.68788194221469
 30
0.0
 11
175.0504264443058
 21
193.6878819422146
 31
0.0
  0
LINE
  5
45
  8
0
 10
178.5504264443058
 20
217.62088194221471
 30
0.0
 11
178.5504264443058
 21
217.6878819422146
 31
0.0
  0
LINE
  5
46
  8
0
 10
183.5504264443058
 20
217.62088194221471
 30
0.0
 11
183.5504264443058
 21
217.6878819422146
 31
0.0
  0
LINE
  5
47
  8
0
 10
187.92910610074611
 20
216.80920228577421
 30
0.0
 11
193.0504264443058
 21
211.68788194221469
 31
0.0
  0
LINE
  5
48
  8
0
 10
187.92910610074611
 20
193.566561598655
 30
0.0
 11
193.0504264443058
 21
198.6878819422146
 31
0.0
  0
LINE
  5
49
  8
0
 10
193.0504264443058
 20
198.6878819422146
 30
0.0
 11
193.0504264443058
 21
211.68788194221469
 31
0.0
  0
ARC
  5
4A
  8
0
 10
185.80778575718651
 20
214.6878819422146
 30
0.0
 40
3.0
 50
45.000000000000199
 51
90.0
  0
ARC
  5
4B
  8
0
 10
185.80778575718651
 20
195.6878819422146
 30
0.0
 40
3.0
 50
270.0
 51
314.99999999999989
  0
LINE
  5
4C
  8
1
 10
170.0504264443058
 20
205.1878819422146
 30
0.0
 11
198.0504264443058
 21
205.1878819422146
 31
0.0
  0
LINE
  5
4D
  8
1
 10
181.0504264443058
 20
222.6878819422148
 30
0.0
 11
181.05042644430571
 21
187.68788194221469
 31
0.0
  0
LINE
  5
4E
  8
0
 10
175.0504264443058
 20
216.68788194221469
 30
0.0
 11
176.0504264443058
 21
217.6878819422146
 31
0.0
  0
LINE
  5
4F
  8
0
 10
175.0504264443058
 20
193.6878819422146
 30
0.0
 11
176.0504264443058
 21
192.6878819422146
 31
0.0
  0
LINE
  5
50
  8
0
 10
187.0504264443058
 20
41.310895342306907
 30
0.0
 11
187.0504264443058
 21
65.771973669054887
 31
0.0
  0
LINE
  5
51
  8
0
 10
176.0504264443058
 20
66.041434505681423
 30
0.0
 11
176.0504264443058
 21
41.041434505681401
 31
0.0
  0
LINE
  5
52
  8
0
 10
185.80778575718651
 20
66.041434505681394
 30
0.0
 11
176.0504264443058
 21
66.041434505681423
 31
0.0
  0
LINE
  5
53
  8
0
 10
176.0504264443058
 20
41.041434505681401
 30
0.0
 11
185.80778575718651
 21
41.041434505681401
 31
0.0
  0
LINE
  5
54
  8
0
 10
175.0504264443058
 20
65.041434505681423
 30
0.0
 11
175.0504264443058
 21
42.041434505681401
 31
0.0
  0
LINE
  5
55
  8
0
 10
178.5504264443058
 20
65.974434505681444
 30
0.0
 11
178.5504264443058
 21
66.041434505681394
 31
0.0
  0
LINE
  5
56
  8
0
 10
183.5504264443058
 20
65.974434505681444
 30
0.0
 11
183.5504264443058
 21
66.041434505681394
 31
0.0
  0
LINE
  5
57
  8
0
 10
187.92910610074611
 20
65.162754849241054
 30
0.0
 11
193.0504264443058
 21
60.041434505681451
 31
0.0
  0
LINE
  5
58
  8
0
 10
187.92910610074611
 20
41.920114162121749
 30
0.0
 11
193.0504264443058
 21
47.041434505681387
 31
0.0
  0
LINE
  5
59
  8
0
 10
193.0504264443058
 20
47.041434505681387
 30
0.0
 11
193.0504264443058
 21
60.041434505681451
 31
0.0
  0
ARC
  5
5A
  8
0
 10
185.80778575718651
 20
63.041434505681387
 30
0.0
 40
3.0
 50
45.000000000000199
 51
90.0
  0
ARC
  5
5B
  8
0
 10
185.80778575718651
 20
44.041434505681387
 30
0.0
 40
3.0
 50
270.0
 51
314.99999999999989
  0
LINE
  5
5C
  8
1
 10
170.0504264443058
 20
53.541434505681387
 30
0.0
 11
198.0504264443058
 21
53.541434505681387
 31
0.0
  0
LINE
  5
5D
  8
1
 10
181.0504264443058
 20
71.041434505681622
 30
0.0
 11
181.05042644430571
 21
36.041434505681529
 31
0.0
  0
LINE
  5
5E
  8
0
 10
175.0504264443058
 20
65.041434505681423
 30
0.0
 11
176.0504264443058
 21
66.041434505681423
 31
0.0
  0
LINE
  5
5F
  8
0
 10
175.0504264443058
 20
42.041434505681401
 30
0.0
 11
176.0504264443058
 21
41.041434505681401
 31
0.0
  0
LINE
  5
60
  8
0
 10
179.80042644532321
 20
204.46619410631459
 30
0.0
 11
179.80042644532321
 21
205.9095697792884
 31
0.0
  0
LINE
  5
61
  8
0
 10
179.80042644532409
 20
205.9095697781145
 30
0.0
 11
181.05042644532321
 21
206.63125761460159
 31
0.0
  0
LINE
  5
62
  8
0
 10
181.05042644430549
 20
206.63125761401341
 30
0.0
 11
182.30042644430549
 21
205.90956977752651
 31
0.0
  0
LINE
  5
63
  8
0
 10
182.3004264432887
 20
205.90956977811359
 30
0.0
 11
182.3004264432887
 21
204.46619410513981
 31
0.0
  0
LINE
  5
64
  8
0
 10
182.3004264432887
 20
204.46619410631459
 30
0.0
 11
181.0504264432887
 21
203.74450626982761
 31
0.0
  0
LINE
  5
65
  8
0
 10
181.05042644430549
 20
203.7445062704158
 30
0.0
 11
179.80042644430549
 21
204.46619410690261
 31
0.0
  0
CIRCLE
  5
66
  8
3
 10
181.05042644430571
 20
205.18788194221469
 30
0.0
 40
2.0669999999999988
  0
CIRCLE
  5
67
  8
0
 10
181.05042644430571
 20
205.18788194221469
 30
0.0
 40
2.5
  0
LINE
  5
68
  8
0
 10
175.0504264443058
 20
119.6720623501199
 30
0.0
 11
176.0504264443058
 21
118.6720623501199
 31
0.0
  0
LINE
  5
69
  8
0
 10
175.0504264443058
 20
142.67206235011989
 30
0.0
 11
176.0504264443058
 21
143.67206235011989
 31
0.0
  0
ARC
  5
6A
  8
0
 10
185.80778575718651
 20
121.6720623501199
 30
0.0
 40
3.0
 50
270.0
 51
314.99999999999989
  0
ARC
  5
6B
  8
0
 10
185.80778575718651
 20
140.67206235011989
 30
0.0
 40
3.0
 50
45.000000000000199
 51
90.0
  0
LINE
  5
6C
  8
0
 10
193.0504264443058
 20
124.6720623501199
 30
0.0
 11
193.0504264443058
 21
137.67206235011989
 31
0.0
  0
LINE
  5
6D
  8
0
 10
187.92910610074611
 20
119.5507420065602
 30
0.0
 11
193.0504264443058
 21
124.6720623501199
 31
0.0
  0
LINE
  5
6E
  8
0
 10
187.92910610074611
 20
142.7933826936796
 30
0.0
 11
193.0504264443058
 21
137.67206235011989
 31
0.0
  0
LINE
  5
6F
  8
0
 10
175.0504264443058
 20
142.67206235011989
 30
0.0
 11
175.0504264443058
 21
119.6720623501199
 31
0.0
  0
LINE
  5
70
  8
0
 10
176.0504264443058
 20
118.6720623501199
 30
0.0
 11
185.80778575718651
 21
118.6720623501199
 31
0.0
  0
LINE
  5
71
  8
0
 10
185.80778575718651
 20
143.67206235011989
 30
0.0
 11
176.0504264443058
 21
143.67206235011989
 31
0.0
  0
LINE
  5
72
  8
0
 10
176.0504264443058
 20
143.67206235011989
 30
0.0
 11
176.0504264443058
 21
118.6720623501199
 31
0.0
  0
LINE
  5
73
  8
0
 10
187.0504264443058
 20
118.9415231867454
 30
0.0
 11
187.0504264443058
 21
143.40260151349341
 31
0.0
  0
TEXT
  5
162
  8
0
 62
     3
 10
0.0
 20
0.0
 30
0.0
 40
10.0
  1
SD25C45SR10
  7
STANDARD1
  0
ENDSEC
  0
EOF
