  0
SECTION
  2
HEADER
  9
$ACADVER
  1
AC1009
  9
$INSBASE
 10
0.0
 20
0.0
 30
0.0
  9
$EXTMIN
 10
0.0
 20
-2.960436562073669
 30
0.0
  9
$EXTMAX
 10
1065.100005567074
 20
932.99999766051735
 30
0.0
  9
$LIMMIN
 10
0.0
 20
0.0
  9
$LIMMAX
 10
187.5
 20
135.0
  9
$ORTHOMODE
 70
     1
  9
$REGENMODE
 70
     1
  9
$FILLMODE
 70
     1
  9
$QTEXTMODE
 70
     0
  9
$MIRRTEXT
 70
     0
  9
$DRAGMODE
 70
     2
  9
$LTSCALE
 40
5.0
  9
$OSMODE
 70
    37
  9
$ATTMODE
 70
     1
  9
$TEXTSIZE
 40
4.0
  9
$TRACEWID
 40
0.05
  9
$TEXTSTYLE
  7
K80
  9
$CLAYER
  8
0
  9
$CELTYPE
  6
BYLAYER
  9
$CECOLOR
 62
   256
  9
$DIMSCALE
 40
2.0
  9
$DIMASZ
 40
3.0
  9
$DIMEXO
 40
2.0
  9
$DIMDLI
 40
10.0
  9
$DIMRND
 40
0.0
  9
$DIMDLE
 40
0.0
  9
$DIMEXE
 40
2.0
  9
$DIMTP
 40
0.0
  9
$DIMTM
 40
0.0
  9
$DIMTXT
 40
3.2000000000000002
  9
$DIMCEN
 40
0.0
  9
$DIMTSZ
 40
0.0
  9
$DIMTOL
 70
     0
  9
$DIMLIM
 70
     0
  9
$DIMTIH
 70
     0
  9
$DIMTOH
 70
     0
  9
$DIMSE1
 70
     0
  9
$DIMSE2
 70
     0
  9
$DIMTAD
 70
     1
  9
$DIMZIN
 70
     8
  9
$DIMBLK
  1

  9
$DIMASO
 70
     0
  9
$DIMSHO
 70
     0
  9
$DIMPOST
  1

  9
$DIMAPOST
  1

  9
$DIMALT
 70
     0
  9
$DIMALTD
 70
     2
  9
$DIMALTF
 40
25.399999999999999
  9
$DIMLFAC
 40
1.0
  9
$DIMTOFL
 70
     1
  9
$DIMTVP
 40
1.6000000000000001
  9
$DIMTIX
 70
     1
  9
$DIMSOXD
 70
     0
  9
$DIMSAH
 70
     0
  9
$DIMBLK1
  1

  9
$DIMBLK2
  1

  9
$DIMSTYLE
  2
STANDARD
  9
$DIMCLRD
 70
     0
  9
$DIMCLRE
 70
     0
  9
$DIMCLRT
 70
     0
  9
$DIMTFAC
 40
1.0
  9
$DIMGAP
 40
1.0
  9
$LUNITS
 70
     2
  9
$LUPREC
 70
     1
  9
$SKETCHINC
 40
0.1
  9
$FILLETRAD
 40
0.0
  9
$AUNITS
 70
     0
  9
$AUPREC
 70
     1
  9
$MENU
  1
E:\r13\win\SUPPORT\ACAD
  9
$ELEVATION
 40
0.0
  9
$PELEVATION
 40
0.0
  9
$THICKNESS
 40
0.0
  9
$LIMCHECK
 70
     0
  9
$BLIPMODE
 70
     0
  9
$CHAMFERA
 40
0.0
  9
$CHAMFERB
 40
0.0
  9
$SKPOLY
 70
     0
  9
$TDCREATE
 40
2455505.3813724308
  9
$TDUPDATE
 40
2458452.4492303361
  9
$TDINDWG
 40
0.3416327662
  9
$TDUSRTIMER
 40
0.341632581
  9
$USRTIMER
 70
     1
  9
$ANGBASE
 50
0.0
  9
$ANGDIR
 70
     0
  9
$PDMODE
 70
    35
  9
$PDSIZE
 40
0.0
  9
$PLINEWID
 40
0.0
  9
$COORDS
 70
     1
  9
$SPLFRAME
 70
     0
  9
$SPLINETYPE
 70
     6
  9
$SPLINESEGS
 70
     8
  9
$ATTDIA
 70
     0
  9
$ATTREQ
 70
     1
  9
$HANDLING
 70
     1
  9
$HANDSEED
  5
8DCF
  9
$SURFTAB1
 70
     6
  9
$SURFTAB2
 70
     6
  9
$SURFTYPE
 70
     6
  9
$SURFU
 70
     6
  9
$SURFV
 70
     6
  9
$UCSNAME
  2

  9
$UCSORG
 10
0.0
 20
0.0
 30
0.0
  9
$UCSXDIR
 10
1.0
 20
0.0
 30
0.0
  9
$UCSYDIR
 10
0.0
 20
1.0
 30
0.0
  9
$PUCSNAME
  2

  9
$PUCSORG
 10
0.0
 20
0.0
 30
0.0
  9
$PUCSXDIR
 10
1.0
 20
0.0
 30
0.0
  9
$PUCSYDIR
 10
0.0
 20
1.0
 30
0.0
  9
$USERI1
 70
     0
  9
$USERI2
 70
     1
  9
$USERI3
 70
     0
  9
$USERI4
 70
     0
  9
$USERI5
 70
     0
  9
$USERR1
 40
0.0
  9
$USERR2
 40
0.0
  9
$USERR3
 40
0.0
  9
$USERR4
 40
0.0
  9
$USERR5
 40
0.0
  9
$WORLDVIEW
 70
     1
  9
$SHADEDGE
 70
     3
  9
$SHADEDIF
 70
    70
  9
$TILEMODE
 70
     1
  9
$MAXACTVP
 70
    16
  9
$PLIMCHECK
 70
     0
  9
$PEXTMIN
 10
1.0000000000000000E+020
 20
1.0000000000000000E+020
 30
1.0000000000000000E+020
  9
$PEXTMAX
 10
-1.0000000000000000E+020
 20
-1.0000000000000000E+020
 30
-1.0000000000000000E+020
  9
$PLIMMIN
 10
0.0
 20
0.0
  9
$PLIMMAX
 10
12.0
 20
9.0
  9
$UNITMODE
 70
     0
  9
$VISRETAIN
 70
     0
  9
$PLINEGEN
 70
     0
  9
$PSLTSCALE
 70
     0
  0
ENDSEC
  0
SECTION
  2
TABLES
  0
TABLE
  2
VPORT
 70
     1
  0
VPORT
  2
*ACTIVE
 70
     0
 10
0.0
 20
0.0
 11
1.0
 21
1.0
 12
1379.7577854671281
 22
500.0
 13
0.0
 23
0.0
 14
5.0
 24
5.0
 15
5.0
 25
5.0
 16
0.0
 26
0.0
 36
1.0
 17
0.0
 27
0.0
 37
0.0
 40
1000.0
 41
2.7595155709342558
 42
50.0
 43
0.0
 44
0.0
 50
0.0
 51
0.0
 71
     0
 72
   100
 73
     1
 74
     0
 75
     0
 76
     0
 77
     0
 78
     2
  0
ENDTAB
  0
TABLE
  2
LTYPE
 70
     3
  0
LTYPE
  2
CONTINUOUS
 70
     0
  3
Solid Line
 72
    65
 73
     0
 40
0.0
  0
LTYPE
  2
CENTER
 70
     0
  3
____ _ ____ _ ____ _ ____ _ ____ _ ____ _ ____
 72
    65
 73
     4
 40
2.0
 49
1.25
 49
-0.25
 49
0.25
 49
-0.25
  0
LTYPE
  2
PHANTOM2
 70
     0
  3
___ _ _ ___ _ _ ___ _ _ ___ _ _
 72
    65
 73
     6
 40
1.25
 49
0.625
 49
-0.125
 49
0.125
 49
-0.125
 49
0.125
 49
-0.125
  0
ENDTAB
  0
TABLE
  2
LAYER
 70
     3
  0
LAYER
  2
0
 70
     0
 62
     7
  6
CONTINUOUS
  0
LAYER
  2
1
 70
     0
 62
     1
  6
CENTER
  0
LAYER
  2
3
 70
     0
 62
     3
  6
CONTINUOUS
  0
ENDTAB
  0
TABLE
  2
STYLE
 70
     3
  0
STYLE
  2
STANDARD
 70
     0
 40
0.0
 41
1.0
 50
0.0
 71
     0
 42
4.0
  3
ROMANS
  4

  0
STYLE
  2
K80
 70
     0
 40
0.0
 41
1.0
 50
0.0
 71
     0
 42
4.0
  3
romans.shx
  4

  0
STYLE
  2
STANDARD1
 70
     0
 40
0.0
 41
1.0
 50
0.0
 71
     0
 42
3.0
  3
txt
  4

  0
ENDTAB
  0
TABLE
  2
VIEW
 70
     1
  0
VIEW
  2
ALL
 70
     0
 40
175.0
 10
143.23529400000001
 20
87.5
 41
0.0
 11
0.0
 21
0.0
 31
1.0
 12
0.0
 22
0.0
 32
0.0
 42
0.0
 43
0.0
 44
0.0
 50
0.0
 71
     0
  0
ENDTAB
  0
TABLE
  2
UCS
 70
     0
  0
ENDTAB
  0
TABLE
  2
APPID
 70
     6
  0
APPID
  2
ACAD
 70
     0
  0
APPID
  2
ACAD_MLEADERVER
 70
     0
  0
APPID
  2
ACAD_NAV_VCDISPLAY
 70
     0
  0
APPID
  2
ACAD_EXEMPT_FROM_CAD_STANDARDS
 70
     0
  0
APPID
  2
ACAD_DSTYLE_DIMJAG
 70
     0
  0
APPID
  2
ACAD_DSTYLE_DIMTALN
 70
     0
  0
ENDTAB
  0
TABLE
  2
DIMSTYLE
 70
     1
  0
DIMSTYLE
  2
STANDARD
 70
     0
  3

  4

  5

  6

  7

 40
1.0
 41
0.18
 42
0.0625
 43
0.38
 44
0.18
 45
0.0
 46
0.0
 47
0.0
 48
0.0
140
0.18
141
0.09
142
0.0
143
25.399999999999999
144
1.0
145
0.0
146
1.0
147
0.09
 71
     0
 72
     0
 73
     1
 74
     1
 75
     0
 76
     0
 77
     0
 78
     0
170
     0
171
     2
172
     0
173
     0
174
     0
175
     0
176
     0
177
     0
178
     0
  0
ENDTAB
  0
ENDSEC
  0
SECTION
  2
BLOCKS
  0
BLOCK
  8
0
  2
$MODEL_SPACE
 70
     0
 10
0.0
 20
0.0
 30
0.0
  3
$MODEL_SPACE
  1

  0
ENDBLK
  5
1EF
  8
0
  0
BLOCK
 67
     1
  8
0
  2
$PAPER_SPACE
 70
     0
 10
0.0
 20
0.0
 30
0.0
  3
$PAPER_SPACE
  1

  0
ENDBLK
  5
1ED
 67
     1
  8
0
  0
ENDSEC
  0
SECTION
  2
ENTITIES
  0
LINE
  5
1C79
  8
1
 10
427.00000870227848
 20
837.99999766051758
 30
0.0
 11
738.10000988841102
 21
837.99999766051758
 31
0.0
  0
LINE
  5
26F8
  8
1
 10
653.10000787538445
 20
589.99999061888786
 30
0.0
 11
498.80000898539993
 21
589.99999061888786
 31
0.0
  0
LINE
  5
26F9
  8
1
 10
516.00000898539975
 20
607.19999061888802
 30
0.0
 11
516.00000898539975
 21
572.7999906188877
 31
0.0
  0
LINE
  5
26FA
  8
1
 10
641.1000074148177
 20
603.85640190553875
 30
0.0
 11
641.1000074148177
 21
576.14359675335663
 31
0.0
  0
LINE
  5
2D00
  8
1
 10
453.99999856948898
 20
494.89935912160541
 30
0.0
 11
453.99999856948853
 21
399.9999993294478
 31
0.0
  0
LINE
  5
2D09
  8
1
 10
486.00000381469738
 20
494.89935912160541
 30
0.0
 11
486.00000381469732
 21
399.9999993294478
 31
0.0
  0
LINE
  5
2D0E
  8
1
 10
637.10000744089496
 20
494.89935912160541
 30
0.0
 11
637.10000744089484
 21
399.9999993294478
 31
0.0
  0
LINE
  5
2D13
  8
1
 10
711.10000699758552
 20
494.89935912160541
 30
0.0
 11
711.1000069975853
 21
399.9999993294478
 31
0.0
  0
LINE
  5
2DEE
  8
1
 10
454.00001230239968
 20
141.54999999999899
 30
0.0
 11
454.00001230239968
 21
123.2500000000003
 31
0.0
  0
LINE
  5
2DEF
  8
1
 10
444.45000741481772
 20
132.00000000000031
 30
0.0
 11
463.55000741481808
 21
132.00000000000031
 31
0.0
  0
LINE
  5
2DF0
  8
1
 10
437.0000074148179
 20
114.9999999999999
 30
0.0
 11
466.5000074148179
 21
114.9999999999999
 31
0.0
  0
LINE
  5
2DF1
  8
1
 10
454.0000074148179
 20
123.7500000000004
 30
0.0
 11
454.0000074148179
 21
98.000000000002359
 31
0.0
  0
LINE
  5
2DF3
  8
1
 10
476.45000741481772
 20
132.00000000000031
 30
0.0
 11
495.55000741481803
 21
132.00000000000031
 31
0.0
  0
LINE
  5
2DF4
  8
1
 10
473.5000074148179
 20
114.9999999999999
 30
0.0
 11
503.00000741481898
 21
114.9999999999999
 31
0.0
  0
LINE
  5
2DF5
  8
1
 10
486.00000741481801
 20
141.54999999999899
 30
0.0
 11
486.00000741481767
 21
98.000000000002359
 31
0.0
  0
LINE
  5
2DF6
  8
1
 10
637.1000074148177
 20
141.5499999999987
 30
0.0
 11
637.1000074148177
 21
123.25
 31
0.0
  0
LINE
  5
2DF7
  8
1
 10
627.55000252723585
 20
132.0
 30
0.0
 11
646.6500025272361
 21
132.0
 31
0.0
  0
LINE
  5
2DF8
  8
1
 10
624.60000252723603
 20
114.9999999999997
 30
0.0
 11
649.60000252723603
 21
114.9999999999997
 31
0.0
  0
LINE
  5
2DF9
  8
1
 10
637.10000252723603
 20
123.7500000000001
 30
0.0
 11
637.1000025272358
 21
98.000000000002359
 31
0.0
  0
LINE
  5
2DFA
  8
1
 10
624.60000741481804
 20
275.00000000000023
 30
0.0
 11
649.60000741481804
 21
275.0
 31
0.0
  0
LINE
  5
2DFB
  8
1
 10
627.55000741481786
 20
258.0
 30
0.0
 11
646.65000741481776
 21
258.0
 31
0.0
  0
LINE
  5
2DFC
  8
1
 10
637.10000741481758
 20
292.0
 30
0.0
 11
637.1000074148177
 21
248.44999999999999
 31
0.0
  0
LINE
  5
2DFD
  8
1
 10
701.55000741481763
 20
258.0
 30
0.0
 11
720.65000741481754
 21
258.0
 31
0.0
  0
LINE
  5
2DFE
  8
1
 10
698.60000741481804
 20
275.0
 30
0.0
 11
723.60000741481781
 21
275.00000000000023
 31
0.0
  0
LINE
  5
2DFF
  8
1
 10
711.10000741481758
 20
292.00000000000011
 30
0.0
 11
711.10000741481758
 21
248.44999999999999
 31
0.0
  0
LINE
  5
2E00
  8
1
 10
476.45000741481738
 20
258.0
 30
0.0
 11
495.5500074148174
 21
258.0
 31
0.0
  0
LINE
  5
2E01
  8
1
 10
427.00000870227848
 20
195.0
 30
0.0
 11
738.10000988841102
 21
195.0
 31
0.0
  0
LINE
  5
2E02
  8
1
 10
701.55000741481786
 20
132.0000000000002
 30
0.0
 11
720.65000741481799
 21
132.0000000000002
 31
0.0
  0
LINE
  5
2E03
  8
1
 10
711.10001230239959
 20
141.5499999999987
 30
0.0
 11
711.10001230239959
 21
123.2500000000001
 31
0.0
  0
LINE
  5
2E04
  8
1
 10
711.10000741481781
 20
123.7500000000001
 30
0.0
 11
711.1000074148177
 21
98.000000000002373
 31
0.0
  0
LINE
  5
2E05
  8
1
 10
698.60000741481781
 20
114.9999999999997
 30
0.0
 11
723.60000741481781
 21
114.9999999999997
 31
0.0
  0
LINE
  5
2E06
  8
1
 10
437.0000074148179
 20
275.00000000000023
 30
0.0
 11
503.0000074148187
 21
274.99999999999989
 31
0.0
  0
LINE
  5
2E07
  8
1
 10
454.0000074148179
 20
292.00000000000011
 30
0.0
 11
454.0000074148179
 21
248.44999999999999
 31
0.0
  0
LINE
  5
2E08
  8
1
 10
486.00000741481739
 20
292.00000000000011
 30
0.0
 11
486.00000741481739
 21
248.44999999999999
 31
0.0
  0
LINE
  5
2E0A
  8
1
 10
444.45000741481789
 20
258.0
 30
0.0
 11
463.5500074148178
 21
258.0
 31
0.0
  0
LINE
  5
2E23
  8
1
 10
272.25000363588327
 20
589.99999932944752
 30
0.0
 11
117.7500036358829
 21
589.99999932944775
 31
0.0
  0
LINE
  5
2E24
  8
1
 10
195.0
 20
637.99999600622425
 30
0.0
 11
195.0
 21
420.9999993294478
 31
0.0
  0
LINE
  5
2E25
  8
1
 10
274.99999618949369
 20
494.89935916630662
 30
0.0
 11
274.99999618949369
 21
399.9999993294478
 31
0.0
  0
LINE
  5
2E26
  8
1
 10
114.999992315192
 20
494.89935916630662
 30
0.0
 11
114.99999231519151
 21
399.9999993294478
 31
0.0
  0
LINE
  5
3883
  8
0
 10
646.60000760108232
 20
476.99999980628502
 30
0.0
 11
646.60000760108232
 21
477.59999878704559
 31
0.0
  0
LINE
  5
3884
  8
0
 10
627.60000728070725
 20
477.59999878704559
 30
0.0
 11
627.60000728070725
 21
476.99999980628502
 31
0.0
  0
LINE
  5
3889
  8
0
 10
627.60000728070725
 20
485.0000011175872
 30
0.0
 11
626.1303523182869
 21
484.15149174630648
 31
0.0
  0
LINE
  5
388A
  8
0
 10
648.06966256350279
 20
484.15149174630648
 30
0.0
 11
646.60000760108232
 21
485.0000011175872
 31
0.0
  0
LINE
  5
388B
  8
0
 10
463.50001037120819
 20
476.99999980628502
 30
0.0
 11
463.50001037120819
 21
477.59999878704559
 31
0.0
  0
LINE
  5
388C
  8
0
 10
444.50000166893
 20
477.59999878704559
 30
0.0
 11
444.50000166893
 21
476.99999980628502
 31
0.0
  0
LINE
  5
3891
  8
0
 10
444.50000166893
 20
485.0000011175872
 30
0.0
 11
443.03035974502558
 21
484.15149174630648
 31
0.0
  0
LINE
  5
3892
  8
0
 10
464.9696671962738
 20
484.15149174630648
 30
0.0
 11
463.50001037120819
 21
485.0000011175872
 31
0.0
  0
LINE
  5
38A5
  8
0
 10
646.10000751912594
 20
475.9999977797271
 30
0.0
 11
646.10000751912594
 21
476.99999980628502
 31
0.0
  0
LINE
  5
38A6
  8
0
 10
628.10000736266375
 20
476.99999980628502
 30
0.0
 11
628.10000736266375
 21
475.9999977797271
 31
0.0
  0
LINE
  5
38A9
  8
0
 10
463.00000190734858
 20
475.9999977797271
 30
0.0
 11
463.00000190734858
 21
476.99999980628502
 31
0.0
  0
LINE
  5
38AA
  8
0
 10
445.00001013278961
 20
476.99999980628502
 30
0.0
 11
445.00001013278961
 21
475.9999977797271
 31
0.0
  0
LINE
  5
38AB
  8
0
 10
520.00000566244125
 20
475.9999977797271
 30
0.0
 11
520.00000566244125
 21
544.30384360253811
 31
0.0
  0
LINE
  5
38AC
  8
0
 10
514.00000840425491
 20
544.30384360253811
 30
0.0
 11
514.00000840425491
 21
475.9999977797271
 31
0.0
  0
LINE
  5
38AD
  8
0
 10
520.00000566244125
 20
544.30384360253811
 30
0.0
 11
517.00000703334808
 21
549.49999772012234
 31
0.0
  0
LINE
  5
38AE
  8
0
 10
517.00000703334808
 20
549.49999772012234
 30
0.0
 11
514.00000840425491
 21
544.30384360253811
 31
0.0
  0
LINE
  5
38AF
  8
0
 10
562.00000882148743
 20
576.19999520480633
 30
0.0
 11
565.50000846385944
 21
576.19999520480633
 31
0.0
  0
LINE
  5
38B0
  8
0
 10
565.50000846385944
 20
603.80000047385693
 30
0.0
 11
562.00000882148743
 21
603.80000047385693
 31
0.0
  0
LINE
  5
38B1
  8
0
 10
565.50000846385944
 20
576.19999520480633
 30
0.0
 11
566.00000947713852
 21
576.70000366866589
 31
0.0
  0
LINE
  5
38B2
  8
0
 10
566.00000947713852
 20
603.29999200999737
 30
0.0
 11
565.50000846385944
 21
603.80000047385693
 31
0.0
  0
LINE
  5
38B3
  8
0
 10
625.60000695288181
 20
608.99999909102917
 30
0.0
 11
625.100007802248
 21
608.5000055283308
 31
0.0
  0
LINE
  5
38B4
  8
0
 10
625.100007802248
 20
571.50000505149364
 30
0.0
 11
625.60000695288181
 21
570.99999658763409
 31
0.0
  0
LINE
  5
38B5
  8
0
 10
568.63206118345261
 20
581.00000195205212
 30
0.0
 11
617.10000649094582
 21
581.00000195205212
 31
0.0
  0
LINE
  5
38B6
  8
0
 10
617.10000649094582
 20
598.99999372661114
 30
0.0
 11
568.63206118345261
 21
598.99999372661114
 31
0.0
  0
LINE
  5
38B7
  8
0
 10
566.00000947713852
 20
581.48038558661938
 30
0.0
 11
566.90000981092453
 21
582.00000397861004
 31
0.0
  0
LINE
  5
38B8
  8
0
 10
566.90000981092453
 20
598.00000660121441
 30
0.0
 11
566.00000947713852
 21
598.51961009204388
 31
0.0
  0
LINE
  5
38B9
  8
0
 10
568.63206118345261
 20
598.99999372661114
 30
0.0
 11
566.90000981092453
 21
598.00000660121441
 31
0.0
  0
LINE
  5
38BA
  8
0
 10
566.90000981092453
 20
582.00000397861004
 30
0.0
 11
568.63206118345261
 21
581.00000195205212
 31
0.0
  0
LINE
  5
38BB
  8
0
 10
548.0000102519989
 20
573.00000064074993
 30
0.0
 11
561.50000780820847
 21
573.00000064074993
 31
0.0
  0
LINE
  5
38BC
  8
0
 10
561.50000780820847
 20
606.99999503791332
 30
0.0
 11
548.0000102519989
 21
606.99999503791332
 31
0.0
  0
LINE
  5
38BD
  8
0
 10
561.50000780820847
 20
573.00000064074993
 30
0.0
 11
562.00000882148743
 21
573.4999942034483
 31
0.0
  0
LINE
  5
38BE
  8
0
 10
562.00000882148743
 20
606.50000147521496
 30
0.0
 11
561.50000780820847
 21
606.99999503791332
 31
0.0
  0
LINE
  5
38BF
  8
0
 10
532.00000762939453
 20
573.00000064074993
 30
0.0
 11
533.00000965595245
 21
574.00000266730785
 31
0.0
  0
LINE
  5
38C0
  8
0
 10
533.00000965595245
 20
605.9999930113554
 30
0.0
 11
532.00000762939453
 21
606.99999503791332
 31
0.0
  0
LINE
  5
38C1
  8
0
 10
495.2500039339065
 20
603.49999539554119
 30
0.0
 11
494.00000512599939
 21
602.24999658763409
 31
0.0
  0
LINE
  5
38C2
  8
0
 10
495.50000071525568
 20
603.49999539554119
 30
0.0
 11
495.2500039339065
 21
603.49999539554119
 31
0.0
  0
ARC
  5
38C3
  8
0
 10
533.80000741481786
 20
603.04999932944759
 30
0.0
 40
0.799999999999983
 50
180.0
 51
270.0
  0
ARC
  5
38C4
  8
0
 10
533.80000741481786
 20
576.94999932944779
 30
0.0
 40
0.799999999999983
 50
90.0
 51
180.0
  0
LINE
  5
38C5
  8
0
 10
534.36210989952087
 20
602.24999658763409
 30
0.0
 11
533.80000829696655
 21
602.24999658763409
 31
0.0
  0
LINE
  5
38C6
  8
0
 10
540.00000894069672
 20
602.24999658763409
 30
0.0
 11
537.63789921998978
 21
602.24999658763409
 31
0.0
  0
LINE
  5
38C7
  8
0
 10
533.80000829696655
 20
577.74999909102917
 30
0.0
 11
540.00000894069672
 21
577.74999909102917
 31
0.0
  0
ARC
  5
38C8
  8
0
 10
616.60000741481781
 20
461.49999932944769
 30
0.0
 40
1.000000000000085
 50
90.0
 51
179.99999999999611
  0
ARC
  5
38C9
  8
0
 10
616.60000741481781
 20
450.4999993294478
 30
0.0
 40
1.000000000000085
 50
180.0
 51
270.0
  0
LINE
  5
38CA
  8
0
 10
617.10000649094582
 20
462.50000022351747
 30
0.0
 11
616.600007340312
 21
462.50000022351747
 31
0.0
  0
LINE
  5
38CB
  8
0
 10
616.600007340312
 20
449.499999023974
 30
0.0
 11
617.10000649094582
 21
449.499999023974
 31
0.0
  0
ARC
  5
38CC
  8
0
 10
548.5000074148179
 20
450.4999993294478
 30
0.0
 40
1.000000000000085
 50
270.0
 51
0.0
  0
ARC
  5
38CD
  8
0
 10
548.5000074148179
 20
461.49999932944769
 30
0.0
 40
1.000000000000085
 50
0.0000000000038676
 51
90.0
  0
LINE
  5
38CE
  8
0
 10
548.0000102519989
 20
449.499999023974
 30
0.0
 11
548.50000381469727
 21
449.499999023974
 31
0.0
  0
LINE
  5
38CF
  8
0
 10
548.50000381469727
 20
462.50000022351747
 30
0.0
 11
548.0000102519989
 21
462.50000022351747
 31
0.0
  0
LINE
  5
38D0
  8
0
 10
535.0000062584877
 20
622.75000087916851
 30
0.0
 11
532.50000864267349
 21
622.75000087916851
 31
0.0
  0
LINE
  5
38D1
  8
0
 10
532.50000864267349
 20
615.24999313056469
 30
0.0
 11
535.0000062584877
 21
615.24999313056469
 31
0.0
  0
LINE
  5
38D2
  8
0
 10
535.0000062584877
 20
615.24999313056469
 30
0.0
 11
535.50000727176655
 21
615.75000159442425
 31
0.0
  0
LINE
  5
38D3
  8
0
 10
535.50000727176655
 20
622.24999241530895
 30
0.0
 11
535.0000062584877
 21
622.75000087916851
 31
0.0
  0
LINE
  5
38D4
  8
0
 10
535.50000727176655
 20
616.61715976893902
 30
0.0
 11
535.74142843484879
 21
616.85857348144054
 31
0.0
  0
LINE
  5
38D5
  8
0
 10
535.74142843484879
 20
621.14142052829266
 30
0.0
 11
535.50000727176655
 21
621.38284914195538
 31
0.0
  0
ARC
  5
38D6
  8
0
 10
535.60000741481804
 20
620.99999932944729
 30
0.0
 40
0.2000000000000313
 50
0.0
 51
45.000000000015412
  0
ARC
  5
38D7
  8
0
 10
535.60000741481804
 20
616.99999932944729
 30
0.0
 40
0.2000000000000313
 50
314.99999999998693
 51
0.0
  0
LINE
  5
38D8
  8
0
 10
535.8000048995018
 20
617.00000040233135
 30
0.0
 11
535.8000048995018
 21
621.0010023848788
 31
0.0
  0
LINE
  5
38D9
  8
0
 10
622.60000739246607
 20
615.24999313056469
 30
0.0
 11
625.100007802248
 21
615.24999313056469
 31
0.0
  0
LINE
  5
38DA
  8
0
 10
625.100007802248
 20
622.75000087916851
 30
0.0
 11
622.60000739246607
 21
622.75000087916851
 31
0.0
  0
LINE
  5
38DB
  8
0
 10
622.60000739246607
 20
622.75000087916851
 30
0.0
 11
622.10000731050968
 21
622.24999241530895
 31
0.0
  0
LINE
  5
38DC
  8
0
 10
622.10000731050968
 20
615.75000159442425
 30
0.0
 11
622.60000739246607
 21
615.24999313056469
 31
0.0
  0
LINE
  5
38DD
  8
0
 10
622.10000731050968
 20
621.38284914195538
 30
0.0
 11
621.85858614742745
 21
621.14142052829266
 31
0.0
  0
LINE
  5
38DE
  8
0
 10
621.85858614742745
 20
616.85857348144054
 30
0.0
 11
622.10000731050968
 21
616.61715976893902
 31
0.0
  0
ARC
  5
38DF
  8
0
 10
622.00000741481779
 20
616.99999932944843
 30
0.0
 40
0.1999999999999695
 50
180.0
 51
225.0000000000008
  0
ARC
  5
38E0
  8
0
 10
622.00000741481779
 20
620.99999932944843
 30
0.0
 40
0.1999999999999695
 50
134.9999999999992
 51
180.0
  0
LINE
  5
38E1
  8
0
 10
621.80000782012939
 20
620.99999360740185
 30
0.0
 11
621.80000782012939
 21
617.00000040233135
 31
0.0
  0
LINE
  5
38E2
  8
0
 10
521.30000531673431
 20
445.99999938160192
 30
0.0
 11
522.30000734329224
 21
450.99999926984322
 31
0.0
  0
LINE
  5
38E3
  8
0
 10
522.30000734329224
 20
450.99999926984322
 30
0.0
 11
520.30001074075699
 21
450.99999926984322
 31
0.0
  0
LINE
  5
38E4
  8
0
 10
520.30001074075699
 20
450.99999926984322
 30
0.0
 11
521.30000531673431
 21
445.99999938160192
 31
0.0
  0
LINE
  5
38E8
  8
0
 10
524.68912541866302
 20
439.9999993294478
 30
0.0
 11
524.78912711143494
 21
440.49999935319659
 31
0.0
  0
LINE
  5
38EB
  8
0
 10
442.00000405311579
 20
474.99999947845947
 30
0.0
 11
443.00000607967382
 21
475.9999977797271
 31
0.0
  0
LINE
  5
38EC
  8
0
 10
522.30000734329224
 20
455.49999907612812
 30
0.0
 11
520.30001074075699
 21
455.49999907612812
 31
0.0
  0
ARC
  5
38ED
  8
0
 10
520.30000741481786
 20
450.99999932944769
 30
0.0
 40
4.5000000000000986
 50
90.0
 51
191.3099324740212
  0
LINE
  5
38EE
  8
0
 10
515.88739693164825
 20
450.11747706681501
 30
0.0
 11
517.81089097261429
 21
440.49999935319659
 31
0.0
  0
LINE
  5
38F3
  8
0
 10
524.78912711143494
 20
440.49999935319659
 30
0.0
 11
526.71262115240097
 21
450.11747706681501
 31
0.0
  0
ARC
  5
38F4
  8
0
 10
522.30000741481786
 20
450.99999932944769
 30
0.0
 40
4.5000000000000986
 50
348.69006752598023
 51
90.0
  0
LINE
  5
38F5
  8
0
 10
443.00000607967382
 20
475.9999977797271
 30
0.0
 11
539.00000691413879
 21
475.9999977797271
 31
0.0
  0
LINE
  5
38F7
  8
0
 10
539.00000691413879
 20
475.9999977797271
 30
0.0
 11
540.00000894069672
 21
474.99999947845947
 31
0.0
  0
LINE
  5
38FA
  8
0
 10
539.50000792741776
 20
439.9999993294478
 30
0.0
 11
540.00000894069672
 21
440.49999935319659
 31
0.0
  0
LINE
  5
38FB
  8
0
 10
539.50000792741776
 20
439.99999932944769
 30
0.0
 11
442.5000125169754
 21
439.9999993294478
 31
0.0
  0
LINE
  5
38FD
  8
0
 10
517.81089097261429
 20
440.49999935319659
 30
0.0
 11
517.9108926653862
 21
439.9999993294478
 31
0.0
  0
LINE
  5
38FE
  8
0
 10
442.00000405311579
 20
440.49999935319659
 30
0.0
 11
442.00000405311579
 21
474.99999947845947
 31
0.0
  0
LINE
  5
38FF
  8
0
 10
442.00000405311579
 20
440.49999935319659
 30
0.0
 11
442.5000125169754
 21
439.9999993294478
 31
0.0
  0
LINE
  5
3903
  8
0
 10
722.60000795125961
 20
439.9999993294478
 30
0.0
 11
625.60000695288159
 21
439.99999932944769
 31
0.0
  0
LINE
  5
3904
  8
0
 10
640.18912479281425
 20
439.9999993294478
 30
0.0
 11
640.2891250886023
 21
440.49999935319659
 31
0.0
  0
LINE
  5
3907
  8
0
 10
625.60000695288181
 20
475.9999977797271
 30
0.0
 11
722.10000693798065
 21
475.9999977797271
 31
0.0
  0
LINE
  5
390C
  8
0
 10
625.100007802248
 20
440.49999935319659
 30
0.0
 11
625.60000695288181
 21
439.9999993294478
 31
0.0
  0
LINE
  5
390E
  8
0
 10
636.80000748485327
 20
445.99999938160192
 30
0.0
 11
637.8000074159354
 21
450.99999926984322
 31
0.0
  0
LINE
  5
390F
  8
0
 10
635.80000743735582
 20
450.99999926984322
 30
0.0
 11
636.80000748485327
 21
445.99999938160192
 31
0.0
  0
LINE
  5
3910
  8
0
 10
637.8000074159354
 20
450.99999926984322
 30
0.0
 11
635.80000743735582
 21
450.99999926984322
 31
0.0
  0
LINE
  5
3912
  8
0
 10
640.2891250886023
 20
440.49999935319659
 30
0.0
 11
642.2126205265522
 21
450.11747706681501
 31
0.0
  0
ARC
  5
3913
  8
0
 10
637.80000741481786
 20
450.9999993294478
 30
0.0
 40
4.5000000000000311
 50
348.69006752597949
 51
90.0
  0
LINE
  5
3914
  8
0
 10
637.8000074159354
 20
455.49999907612812
 30
0.0
 11
635.80000743735582
 21
455.49999907612812
 31
0.0
  0
ARC
  5
3915
  8
0
 10
635.80000741481786
 20
450.9999993294478
 30
0.0
 40
4.5000000000000311
 50
90.0
 51
191.30993247402179
  0
LINE
  5
3917
  8
0
 10
631.38739444315434
 20
450.11747706681501
 30
0.0
 11
633.31088988110423
 21
440.49999935319659
 31
0.0
  0
LINE
  5
3919
  8
0
 10
723.10000896453857
 20
474.99999947845947
 30
0.0
 11
723.10000896453857
 21
440.49999935319659
 31
0.0
  0
LINE
  5
391A
  8
0
 10
722.60000795125961
 20
439.9999993294478
 30
0.0
 11
723.10000896453857
 21
440.49999935319659
 31
0.0
  0
LINE
  5
391B
  8
0
 10
723.10000896453857
 20
474.99999947845947
 30
0.0
 11
722.10000693798065
 21
475.9999977797271
 31
0.0
  0
LINE
  5
391C
  8
0
 10
626.1000070348382
 20
475.9999977797271
 30
0.0
 11
625.100007802248
 21
474.99999947845947
 31
0.0
  0
LINE
  5
391E
  8
0
 10
633.31088988110423
 20
440.49999935319659
 30
0.0
 11
633.41088982764632
 21
439.9999993294478
 31
0.0
  0
POLYLINE
  5
3966
  8
0
 66
     1
 10
0.0
 20
0.0
 30
0.0
 70
   128
  0
VERTEX
  5
8A9D
  8
0
 10
637.10000744089484
 20
485.0000011175872
 30
0.0
  0
VERTEX
  5
8A9E
  8
0
 10
639.84242133796215
 20
484.77603666484367
 30
0.0
  0
VERTEX
  5
8A9F
  8
0
 10
642.58483476936817
 20
484.15149174630648
 30
0.0
  0
SEQEND
  5
8AA0
  8
0
  0
LINE
  5
3967
  8
0
 10
642.58483476936817
 20
477.59999878704559
 30
0.0
 11
642.58483476936817
 21
484.15149174630648
 31
0.0
  0
LINE
  5
396A
  8
0
 10
631.61517987959087
 20
484.15149174630648
 30
0.0
 11
631.61517987959087
 21
477.59999878704559
 31
0.0
  0
POLYLINE
  5
396B
  8
0
 66
     1
 10
0.0
 20
0.0
 30
0.0
 70
   128
  0
VERTEX
  5
8AA1
  8
0
 10
631.61517987959087
 20
484.15149174630648
 30
0.0
  0
VERTEX
  5
8AA2
  8
0
 10
634.30235188337974
 20
484.7671108692885
 30
0.0
  0
VERTEX
  5
8AA3
  8
0
 10
637.10000744089484
 20
485.0000011175872
 30
0.0
  0
SEQEND
  5
8AA4
  8
0
  0
POLYLINE
  5
396C
  8
0
 66
     1
 10
0.0
 20
0.0
 30
0.0
 70
   128
  0
VERTEX
  5
8AA5
  8
0
 10
628.8727662153542
 20
485.0000011175872
 30
0.0
  0
VERTEX
  5
8AA6
  8
0
 10
630.24397293105721
 20
484.77603666484367
 30
0.0
  0
VERTEX
  5
8AA7
  8
0
 10
631.61517987959087
 20
484.15149174630648
 30
0.0
  0
SEQEND
  5
8AA8
  8
0
  0
LINE
  5
396F
  8
0
 10
626.1303523182869
 20
484.15149174630648
 30
0.0
 11
626.1303523182869
 21
477.59999878704559
 31
0.0
  0
POLYLINE
  5
3970
  8
0
 66
     1
 10
0.0
 20
0.0
 30
0.0
 70
   128
  0
VERTEX
  5
8AA9
  8
0
 10
626.1303523182869
 20
484.15149174630648
 30
0.0
  0
VERTEX
  5
8AAA
  8
0
 10
627.47393833473325
 20
484.7671108692885
 30
0.0
  0
VERTEX
  5
8AAB
  8
0
 10
628.8727662153542
 20
485.0000011175872
 30
0.0
  0
SEQEND
  5
8AAC
  8
0
  0
POLYLINE
  5
3971
  8
0
 66
     1
 10
0.0
 20
0.0
 30
0.0
 70
   128
  0
VERTEX
  5
8AAD
  8
0
 10
645.32724913209677
 20
485.0000011175872
 30
0.0
  0
VERTEX
  5
8AAE
  8
0
 10
646.69845584779978
 20
484.77603666484367
 30
0.0
  0
VERTEX
  5
8AAF
  8
0
 10
648.06966256350279
 20
484.15149174630648
 30
0.0
  0
SEQEND
  5
8AB0
  8
0
  0
LINE
  5
3972
  8
0
 10
648.06966256350279
 20
477.59999878704559
 30
0.0
 11
648.06966256350279
 21
484.15149174630648
 31
0.0
  0
LINE
  5
3973
  8
0
 10
648.06966256350279
 20
477.59999878704559
 30
0.0
 11
626.1303523182869
 21
477.59999878704559
 31
0.0
  0
POLYLINE
  5
3974
  8
0
 66
     1
 10
0.0
 20
0.0
 30
0.0
 70
   128
  0
VERTEX
  5
8AB1
  8
0
 10
642.58483476936817
 20
484.15149174630648
 30
0.0
  0
VERTEX
  5
8AB2
  8
0
 10
643.92842125147581
 20
484.7671108692885
 30
0.0
  0
VERTEX
  5
8AB3
  8
0
 10
645.32724913209677
 20
485.0000011175872
 30
0.0
  0
SEQEND
  5
8AB4
  8
0
  0
LINE
  5
3978
  8
0
 10
646.60000760108244
 20
476.99999980628502
 30
0.0
 11
627.60000728070725
 21
476.99999980628502
 31
0.0
  0
LINE
  5
397C
  8
0
 10
646.60000760108232
 20
485.0000011175872
 30
0.0
 11
627.60000728070736
 21
485.0000011175872
 31
0.0
  0
POLYLINE
  5
397D
  8
0
 66
     1
 10
0.0
 20
0.0
 30
0.0
 70
   128
  0
VERTEX
  5
8AB5
  8
0
 10
454.00001347064972
 20
485.0000011175872
 30
0.0
  0
VERTEX
  5
8AB6
  8
0
 10
456.74242317676539
 20
484.77603666484367
 30
0.0
  0
VERTEX
  5
8AB7
  8
0
 10
459.48483288288122
 20
484.15149174630648
 30
0.0
  0
SEQEND
  5
8AB8
  8
0
  0
LINE
  5
397E
  8
0
 10
459.48483288288122
 20
477.59999878704559
 30
0.0
 11
459.48483288288122
 21
484.15149174630648
 31
0.0
  0
LINE
  5
3981
  8
0
 10
448.51517915725708
 20
484.15149174630648
 30
0.0
 11
448.51517915725708
 21
477.59999878704559
 31
0.0
  0
POLYLINE
  5
3982
  8
0
 66
     1
 10
0.0
 20
0.0
 30
0.0
 70
   128
  0
VERTEX
  5
8AB9
  8
0
 10
448.51517915725708
 20
484.15149174630648
 30
0.0
  0
VERTEX
  5
8ABA
  8
0
 10
451.20235025882721
 20
484.7671108692885
 30
0.0
  0
VERTEX
  5
8ABB
  8
0
 10
454.00001347064972
 20
485.0000011175872
 30
0.0
  0
SEQEND
  5
8ABC
  8
0
  0
POLYLINE
  5
3983
  8
0
 66
     1
 10
0.0
 20
0.0
 30
0.0
 70
   128
  0
VERTEX
  5
8ABD
  8
0
 10
445.7727694511413
 20
485.0000011175872
 30
0.0
  0
VERTEX
  5
8ABE
  8
0
 10
447.14397430419922
 20
484.77603666484367
 30
0.0
  0
VERTEX
  5
8ABF
  8
0
 10
448.51517915725708
 20
484.15149174630648
 30
0.0
  0
SEQEND
  5
8AC0
  8
0
  0
LINE
  5
3986
  8
0
 10
443.03035974502558
 20
484.15149174630648
 30
0.0
 11
443.03035974502558
 21
477.59999878704559
 31
0.0
  0
POLYLINE
  5
3987
  8
0
 66
     1
 10
0.0
 20
0.0
 30
0.0
 70
   128
  0
VERTEX
  5
8AC1
  8
0
 10
443.03035974502558
 20
484.15149174630648
 30
0.0
  0
VERTEX
  5
8AC2
  8
0
 10
444.3739378452301
 20
484.7671108692885
 30
0.0
  0
VERTEX
  5
8AC3
  8
0
 10
445.7727694511413
 20
485.0000011175872
 30
0.0
  0
SEQEND
  5
8AC4
  8
0
  0
POLYLINE
  5
3988
  8
0
 66
     1
 10
0.0
 20
0.0
 30
0.0
 70
   128
  0
VERTEX
  5
8AC5
  8
0
 10
462.22724258899689
 20
485.0000011175872
 30
0.0
  0
VERTEX
  5
8AC6
  8
0
 10
463.59846234321589
 20
484.77603666484367
 30
0.0
  0
VERTEX
  5
8AC7
  8
0
 10
464.9696671962738
 20
484.15149174630648
 30
0.0
  0
SEQEND
  5
8AC8
  8
0
  0
LINE
  5
3989
  8
0
 10
464.9696671962738
 20
477.59999878704559
 30
0.0
 11
464.9696671962738
 21
484.15149174630648
 31
0.0
  0
LINE
  5
398A
  8
0
 10
464.9696671962738
 20
477.59999878704559
 30
0.0
 11
443.03035974502558
 21
477.59999878704559
 31
0.0
  0
POLYLINE
  5
398C
  8
0
 66
     1
 10
0.0
 20
0.0
 30
0.0
 70
   128
  0
VERTEX
  5
8AC9
  8
0
 10
459.48483288288122
 20
484.15149174630648
 30
0.0
  0
VERTEX
  5
8ACA
  8
0
 10
460.82842588424683
 20
484.7671108692885
 30
0.0
  0
VERTEX
  5
8ACB
  8
0
 10
462.22724258899689
 20
485.0000011175872
 30
0.0
  0
SEQEND
  5
8ACC
  8
0
  0
LINE
  5
3990
  8
0
 10
463.50001037120819
 20
476.99999980628502
 30
0.0
 11
444.50000166893
 21
476.99999980628502
 31
0.0
  0
LINE
  5
3993
  8
0
 10
463.50001037120819
 20
485.0000011175872
 30
0.0
 11
444.50000166893
 21
485.0000011175872
 31
0.0
  0
LINE
  5
39C3
  8
0
 10
625.100007802248
 20
610.00000111758709
 30
0.0
 11
625.100007802248
 21
440.49999935319659
 31
0.0
  0
LINE
  5
39C4
  8
0
 10
621.10000714659691
 20
505.99999897181999
 30
0.0
 11
625.100007802248
 21
505.99999897181999
 31
0.0
  0
LINE
  5
39C5
  8
0
 10
621.10000714659691
 20
505.99999897181999
 30
0.0
 11
621.10000714659691
 21
475.9999977797271
 31
0.0
  0
LINE
  5
39C6
  8
0
 10
621.10000714659691
 20
475.9999977797271
 30
0.0
 11
625.100007802248
 21
475.9999977797271
 31
0.0
  0
LINE
  5
39C7
  8
0
 10
625.100007802248
 20
444.99999921768909
 30
0.0
 11
621.10000714659691
 21
444.99999921768909
 31
0.0
  0
LINE
  5
39C8
  8
0
 10
621.10000714659691
 20
444.99999921768909
 30
0.0
 11
621.10000714659691
 21
439.9999993294478
 31
0.0
  0
LINE
  5
39C9
  8
0
 10
621.10000714659691
 20
610.00000111758709
 30
0.0
 11
625.100007802248
 21
610.00000111758709
 31
0.0
  0
LINE
  5
39CA
  8
0
 10
617.10000649094582
 20
614.99999634921551
 30
0.0
 11
621.10000714659691
 21
614.99999634921551
 31
0.0
  0
LINE
  5
39CB
  8
0
 10
621.10000714659691
 20
614.99999634921551
 30
0.0
 11
621.10000714659691
 21
610.00000111758709
 31
0.0
  0
LINE
  5
39CC
  8
0
 10
617.10000649094582
 20
614.99999634921551
 30
0.0
 11
617.10000649094582
 21
439.9999993294478
 31
0.0
  0
LINE
  5
39CD
  8
0
 10
617.10000649094582
 20
439.9999993294478
 30
0.0
 11
621.10000714659691
 21
439.9999993294478
 31
0.0
  0
LINE
  5
39CE
  8
0
 10
621.10000714659691
 20
483.0000007897616
 30
0.0
 11
625.100007802248
 21
483.0000007897616
 31
0.0
  0
LINE
  5
39D0
  8
0
 10
621.10000714659691
 20
498.99999968707567
 30
0.0
 11
625.100007802248
 21
498.99999968707567
 31
0.0
  0
LINE
  5
39D3
  8
0
 10
544.00000959634781
 20
505.99999897181999
 30
0.0
 11
540.00000894069672
 21
505.99999897181999
 31
0.0
  0
LINE
  5
39D4
  8
0
 10
540.00000894069672
 20
610.00000111758709
 30
0.0
 11
540.00000894069672
 21
440.49999935319647
 31
0.0
  0
LINE
  5
39D5
  8
0
 10
544.00000959634781
 20
610.00000111758709
 30
0.0
 11
540.00000894069672
 21
610.00000111758709
 31
0.0
  0
LINE
  5
39D6
  8
0
 10
544.00000959634781
 20
614.99999634921551
 30
0.0
 11
544.00000959634781
 21
610.00000111758709
 31
0.0
  0
LINE
  5
39D7
  8
0
 10
548.0000102519989
 20
439.99999932944769
 30
0.0
 11
544.00000959634781
 21
439.99999932944769
 31
0.0
  0
LINE
  5
39D8
  8
0
 10
544.00000959634781
 20
444.99999921768909
 30
0.0
 11
544.00000959634781
 21
439.99999932944769
 31
0.0
  0
LINE
  5
39D9
  8
0
 10
540.00000894069672
 20
444.99999921768909
 30
0.0
 11
544.00000959634781
 21
444.99999921768909
 31
0.0
  0
LINE
  5
39DB
  8
0
 10
544.00000959634781
 20
475.9999977797271
 30
0.0
 11
540.00000894069672
 21
475.9999977797271
 31
0.0
  0
LINE
  5
39DC
  8
0
 10
544.00000959634781
 20
475.9999977797271
 30
0.0
 11
544.00000959634781
 21
505.99999897181999
 31
0.0
  0
LINE
  5
39DD
  8
0
 10
548.0000102519989
 20
614.99999634921551
 30
0.0
 11
548.0000102519989
 21
439.99999932944769
 31
0.0
  0
LINE
  5
39DE
  8
0
 10
548.0000102519989
 20
614.99999634921551
 30
0.0
 11
544.00000959634781
 21
614.99999634921551
 31
0.0
  0
LINE
  5
39DF
  8
0
 10
544.00000959634781
 20
498.99999968707567
 30
0.0
 11
540.00000894069672
 21
498.99999968707567
 31
0.0
  0
LINE
  5
39E1
  8
0
 10
544.00000959634781
 20
483.0000007897616
 30
0.0
 11
540.00000894069672
 21
483.0000007897616
 31
0.0
  0
LINE
  5
39E4
  8
0
 10
516.66834443807602
 20
544.30384360253811
 30
0.0
 11
514.00000840425491
 21
544.30384360253811
 31
0.0
  0
LINE
  5
39E5
  8
0
 10
520.00000566244125
 20
544.30384360253811
 30
0.0
 11
516.66834443807602
 21
544.30384360253811
 31
0.0
  0
CIRCLE
  5
39E6
  8
0
 10
516.0000074148179
 20
589.99999932944775
 30
0.0
 40
5.3999999999999906
  0
CIRCLE
  5
39E7
  8
0
 10
516.0000074148179
 20
589.99999932944775
 30
0.0
 40
6.9000000000000483
  0
CIRCLE
  5
39E8
  8
0
 10
516.0000074148179
 20
589.99999932944775
 30
0.0
 40
7.8999999999999906
  0
LINE
  5
39E9
  8
0
 10
521.4848318696022
 20
580.49999348819256
 30
0.0
 11
510.51517814397812
 21
580.49999348819256
 31
0.0
  0
LINE
  5
39EC
  8
0
 10
510.51517814397812
 20
599.5000021904707
 30
0.0
 11
521.4848318696022
 21
599.5000021904707
 31
0.0
  0
CIRCLE
  5
39EF
  8
0
 10
516.0000074148179
 20
589.99999932944775
 30
0.0
 40
9.4696551146029151
  0
CIRCLE
  5
39F0
  8
0
 10
641.10000629745878
 20
589.999999257485
 30
0.0
 40
5.4000000000000092
  0
CIRCLE
  5
39F1
  8
0
 10
641.10000629745878
 20
589.999999257485
 30
0.0
 40
6.8999999999999311
  0
CIRCLE
  5
39F2
  8
0
 10
641.10000629745878
 20
589.999999257485
 30
0.0
 40
7.8999999999998538
  0
POLYLINE
  5
39F3
  8
0
 66
     1
 10
0.0
 20
0.0
 30
0.0
 70
   128
  0
VERTEX
  5
8ACD
  8
0
 10
630.9749053830659
 20
594.22085924163412
 30
0.0
  0
VERTEX
  5
8ACE
  8
0
 10
632.51457794457781
 20
595.39676043557415
 30
0.0
  0
VERTEX
  5
8ACF
  8
0
 10
633.98598244309744
 20
596.52052484947012
 30
0.0
  0
VERTEX
  5
8AD0
  8
0
 10
635.49966325916876
 20
597.67656370280974
 30
0.0
  0
VERTEX
  5
8AD1
  8
0
 10
637.07823936592831
 20
598.88217645419866
 30
0.0
  0
VERTEX
  5
8AD2
  8
0
 10
638.60097933306281
 20
600.04514403127359
 30
0.0
  0
VERTEX
  5
8AD3
  8
0
 10
639.69282816368195
 20
600.87901960295881
 30
0.0
  0
SEQEND
  5
8AD4
  8
0
  0
POLYLINE
  5
39F5
  8
0
 66
     1
 10
0.0
 20
0.0
 30
0.0
 70
   128
  0
VERTEX
  5
8AD5
  8
0
 10
649.81792952718024
 20
596.65816557925859
 30
0.0
  0
VERTEX
  5
8AD6
  8
0
 10
650.11122257648105
 20
594.39069034463398
 30
0.0
  0
VERTEX
  5
8AD7
  8
0
 10
650.43316282777107
 20
591.90173815107482
 30
0.0
  0
VERTEX
  5
8AD8
  8
0
 10
650.65870181762375
 20
590.15807090011845
 30
0.0
  0
VERTEX
  5
8AD9
  8
0
 10
650.88724071945899
 20
588.39121733761363
 30
0.0
  0
VERTEX
  5
8ADA
  8
0
 10
651.22510787671195
 20
585.77913629308046
 30
0.0
  0
SEQEND
  5
8ADB
  8
0
  0
POLYLINE
  5
39F7
  8
0
 66
     1
 10
0.0
 20
0.0
 30
0.0
 70
   128
  0
VERTEX
  5
8ADC
  8
0
 10
642.50718486326548
 20
579.12097593176395
 30
0.0
  0
VERTEX
  5
8ADD
  8
0
 10
640.39684373868215
 20
580.00070984585807
 30
0.0
  0
VERTEX
  5
8ADE
  8
0
 10
638.08037924811083
 20
580.96638595167235
 30
0.0
  0
VERTEX
  5
8ADF
  8
0
 10
636.45755558037115
 20
581.64289571287304
 30
0.0
  0
VERTEX
  5
8AE0
  8
0
 10
634.81313957060956
 20
582.3283916279936
 30
0.0
  0
VERTEX
  5
8AE1
  8
0
 10
632.3820834997673
 20
583.34182995546405
 30
0.0
  0
SEQEND
  5
8AE2
  8
0
  0
CIRCLE
  5
39F9
  8
0
 10
641.10000629745878
 20
589.999999257485
 30
0.0
 40
9.4696551146028032
  0
LINE
  5
39FA
  8
0
 10
565.50000846385944
 20
576.19999520480633
 30
0.0
 11
565.50000846385944
 21
603.80000047385693
 31
0.0
  0
LINE
  5
39FB
  8
0
 10
566.00000947713852
 20
603.29999200999737
 30
0.0
 11
566.00000947713852
 21
576.70000366866589
 31
0.0
  0
LINE
  5
39FC
  8
0
 10
568.63206118345261
 20
581.00000195205189
 30
0.0
 11
568.63206118345261
 21
598.99999372661114
 31
0.0
  0
LINE
  5
39FE
  8
0
 10
566.90000981092453
 20
582.00000397860981
 30
0.0
 11
566.90000981092453
 21
598.00000660121441
 31
0.0
  0
LINE
  5
3A00
  8
0
 10
668.9000079035759
 20
599.52627293765545
 30
0.0
 11
668.57372835278511
 21
599.52627293765545
 31
0.0
  0
LINE
  5
3A01
  8
0
 10
668.9000079035759
 20
599.52627293765545
 30
0.0
 11
668.9000079035759
 21
599.19999711215496
 31
0.0
  0
POLYLINE
  5
3A02
  8
0
 66
     1
 10
0.0
 20
0.0
 30
0.0
 70
   128
  0
VERTEX
  5
8AE3
  8
0
 10
551.56605184078217
 20
573.8378482311964
 30
0.0
  0
VERTEX
  5
8AE4
  8
0
 10
552.25878447294235
 20
573.74005191028118
 30
0.0
  0
VERTEX
  5
8AE5
  8
0
 10
552.77390271425247
 20
573.59674744307995
 30
0.0
  0
VERTEX
  5
8AE6
  8
0
 10
553.07816952466965
 20
573.43854181468487
 30
0.0
  0
VERTEX
  5
8AE7
  8
0
 10
553.14409226179123
 20
573.29601220786572
 30
0.0
  0
VERTEX
  5
8AE8
  8
0
 10
552.9797026515007
 20
573.18563930690289
 30
0.0
  0
VERTEX
  5
8AE9
  8
0
 10
552.60724067687988
 20
573.11041824519634
 30
0.0
  0
VERTEX
  5
8AEA
  8
0
 10
552.05612123012543
 20
573.06640021502972
 30
0.0
  0
VERTEX
  5
8AEB
  8
0
 10
551.56605184078217
 20
573.05008344352245
 30
0.0
  0
SEQEND
  5
8AEC
  8
0
  0
POLYLINE
  5
3A03
  8
0
 66
     1
 10
0.0
 20
0.0
 30
0.0
 70
   128
  0
VERTEX
  5
8AED
  8
0
 10
550.43395847082138
 20
573.8378482311964
 30
0.0
  0
VERTEX
  5
8AEE
  8
0
 10
551.130490899086
 20
573.86101953685284
 30
0.0
  0
VERTEX
  5
8AEF
  8
0
 10
551.56605184078217
 20
573.8378482311964
 30
0.0
  0
SEQEND
  5
8AF0
  8
0
  0
POLYLINE
  5
3A04
  8
0
 66
     1
 10
0.0
 20
0.0
 30
0.0
 70
   128
  0
VERTEX
  5
8AF1
  8
0
 10
550.43395847082138
 20
573.05008344352245
 30
0.0
  0
VERTEX
  5
8AF2
  8
0
 10
549.74123328924179
 20
573.07811252772808
 30
0.0
  0
VERTEX
  5
8AF3
  8
0
 10
549.22611504793167
 20
573.13542239367962
 30
0.0
  0
VERTEX
  5
8AF4
  8
0
 10
548.9218407869339
 20
573.22925500571728
 30
0.0
  0
VERTEX
  5
8AF5
  8
0
 10
548.85592550039291
 20
573.35652582347393
 30
0.0
  0
VERTEX
  5
8AF6
  8
0
 10
549.02030766010284
 20
573.5040920227766
 30
0.0
  0
VERTEX
  5
8AF7
  8
0
 10
549.39276963472355
 20
573.65273110568523
 30
0.0
  0
VERTEX
  5
8AF8
  8
0
 10
549.94389653205872
 20
573.77763263881207
 30
0.0
  0
VERTEX
  5
8AF9
  8
0
 10
550.43395847082138
 20
573.8378482311964
 30
0.0
  0
SEQEND
  5
8AFA
  8
0
  0
POLYLINE
  5
3A05
  8
0
 66
     1
 10
0.0
 20
0.0
 30
0.0
 70
   128
  0
VERTEX
  5
8AFB
  8
0
 10
551.56605184078217
 20
573.05008344352245
 30
0.0
  0
VERTEX
  5
8AFC
  8
0
 10
550.86952686309814
 20
573.04455511271954
 30
0.0
  0
VERTEX
  5
8AFD
  8
0
 10
550.43395847082138
 20
573.05008344352245
 30
0.0
  0
SEQEND
  5
8AFE
  8
0
  0
POLYLINE
  5
3A07
  8
0
 66
     1
 10
0.0
 20
0.0
 30
0.0
 70
   128
  0
VERTEX
  5
8AFF
  8
0
 10
551.56605184078217
 20
591.30405060946941
 30
0.0
  0
VERTEX
  5
8B00
  8
0
 10
550.86952686309814
 20
591.23003654181957
 30
0.0
  0
VERTEX
  5
8B01
  8
0
 10
550.43395847082138
 20
591.30405060946941
 30
0.0
  0
SEQEND
  5
8B02
  8
0
  0
POLYLINE
  5
3A09
  8
0
 66
     1
 10
0.0
 20
0.0
 30
0.0
 70
   128
  0
VERTEX
  5
8B03
  8
0
 10
550.43395847082138
 20
595.27114205062389
 30
0.0
  0
VERTEX
  5
8B04
  8
0
 10
551.130490899086
 20
595.34163944423199
 30
0.0
  0
VERTEX
  5
8B05
  8
0
 10
551.56605184078217
 20
595.27114205062389
 30
0.0
  0
SEQEND
  5
8B06
  8
0
  0
LINE
  5
3A0A
  8
0
 10
561.50000780820847
 20
573.00000064074993
 30
0.0
 11
561.50000780820847
 21
606.99999503791332
 31
0.0
  0
LINE
  5
3A0B
  8
0
 10
562.00000882148743
 20
606.50000147521496
 30
0.0
 11
562.00000882148743
 21
573.4999942034483
 31
0.0
  0
ARC
  5
3A0C
  8
0
 10
551.04517600806821
 20
593.28759633004665
 30
0.0
 40
2.0507962499297179
 50
284.71357553577133
 51
75.286424464228745
  0
ARC
  5
3A0D
  8
0
 10
550.95484493781669
 20
593.28759633004665
 30
0.0
 40
2.0507989509259881
 50
104.7138628964837
 51
255.2861371035188
  0
ARC
  5
3A0E
  8
0
 10
551.00000888109207
 20
592.93786251974336
 30
0.0
 40
2.1024612822093438
 50
5.2138822305732937
 51
174.78611776942611
  0
LINE
  5
3A11
  8
0
 10
533.00000965595245
 20
605.9999930113554
 30
0.0
 11
533.00000965595245
 21
574.00000266730785
 31
0.0
  0
LINE
  5
3A12
  8
0
 10
494.00000512599939
 20
601.9999998062849
 30
0.0
 11
494.00000512599939
 21
602.24999658763409
 31
0.0
  0
LINE
  5
3A13
  8
0
 10
495.2500039339065
 20
603.49999539554119
 30
0.0
 11
495.2500039339065
 21
603.24999861419201
 31
0.0
  0
ARC
  5
3A14
  8
0
 10
536.00000828504562
 20
617.04818347429841
 30
0.0
 40
14.90309488868777
 50
266.36935664912988
 51
273.63064335087012
  0
POLYLINE
  5
3A15
  8
0
 66
     1
 10
0.0
 20
0.0
 30
0.0
 70
   128
  0
VERTEX
  5
8B07
  8
0
 10
537.63789921998978
 20
602.24840216338634
 30
0.0
  0
VERTEX
  5
8B08
  8
0
 10
537.64785319566727
 20
602.2497134655714
 30
0.0
  0
VERTEX
  5
8B09
  8
0
 10
537.52877801656723
 20
602.23426096141338
 30
0.0
  0
VERTEX
  5
8B0A
  8
0
 10
537.24017232656479
 20
602.20155291259289
 30
0.0
  0
VERTEX
  5
8B0B
  8
0
 10
536.94373607635498
 20
602.17499904334545
 30
0.0
  0
SEQEND
  5
8B0C
  8
0
  0
ARC
  5
3A16
  8
0
 10
536.01745523966247
 20
614.58386749429792
 30
0.0
 40
12.446038451059501
 50
262.356911323644
 51
265.57078781284571
  0
LINE
  5
3A17
  8
0
 10
615.60000717639923
 20
450.49999918788677
 30
0.0
 11
615.60000717639923
 21
461.5000000596047
 31
0.0
  0
LINE
  5
3A18
  8
0
 10
549.50000584125519
 20
461.49822531614922
 30
0.0
 11
549.50000584125519
 21
450.49999918788677
 31
0.0
  0
LINE
  5
3A1A
  8
0
 10
535.0000062584877
 20
622.75000087916817
 30
0.0
 11
535.0000062584877
 21
615.24999313056469
 31
0.0
  0
LINE
  5
3A1C
  8
0
 10
535.50000727176655
 20
622.24999241530895
 30
0.0
 11
535.50000727176655
 21
615.75000159442425
 31
0.0
  0
LINE
  5
3A1E
  8
0
 10
622.60000739246607
 20
615.24999313056469
 30
0.0
 11
622.60000739246607
 21
622.75000087916851
 31
0.0
  0
LINE
  5
3A1F
  8
0
 10
622.10000731050968
 20
615.75000159442425
 30
0.0
 11
622.10000731050968
 21
622.24999241530895
 31
0.0
  0
LINE
  5
3A20
  8
0
 10
625.100007802248
 20
615.99999837577343
 30
0.0
 11
645.10000735521317
 21
615.99999837577343
 31
0.0
  0
LINE
  5
3A22
  8
0
 10
645.10000735521317
 20
621.99999563395977
 30
0.0
 11
625.100007802248
 21
621.99999563395977
 31
0.0
  0
LINE
  5
3A24
  8
0
 10
625.100007802248
 20
614.99999634921551
 30
0.0
 11
625.100007802248
 21
622.99999766051769
 31
0.0
  0
LINE
  5
3A25
  8
0
 10
625.100007802248
 20
622.99999766051769
 30
0.0
 11
645.10000735521317
 21
622.99999766051769
 31
0.0
  0
LINE
  5
3A26
  8
0
 10
645.10000735521317
 20
622.99999766051769
 30
0.0
 11
645.10000735521317
 21
614.99999634921551
 31
0.0
  0
LINE
  5
3A27
  8
0
 10
653.10000680387031
 20
614.99999634921551
 30
0.0
 11
625.100007802248
 21
614.99999634921551
 31
0.0
  0
LINE
  5
3A2A
  8
0
 10
532.50000864267349
 20
614.99999634921551
 30
0.0
 11
507.00000166893011
 21
614.99999634921551
 31
0.0
  0
LINE
  5
3A2B
  8
0
 10
512.50000536441803
 20
615.99999837577343
 30
0.0
 11
532.50000864267349
 21
615.99999837577343
 31
0.0
  0
LINE
  5
3A2C
  8
0
 10
532.50000864267349
 20
622.99999766051769
 30
0.0
 11
532.50000864267349
 21
614.99999634921551
 31
0.0
  0
LINE
  5
3A2D
  8
0
 10
512.50000536441803
 20
614.99999634921551
 30
0.0
 11
512.50000536441803
 21
622.99999766051769
 31
0.0
  0
LINE
  5
3A2E
  8
0
 10
532.50000864267349
 20
621.99999563395977
 30
0.0
 11
512.50000536441803
 21
621.99999563395977
 31
0.0
  0
LINE
  5
3A31
  8
0
 10
512.50000536441803
 20
622.99999766051769
 30
0.0
 11
532.50000864267349
 21
622.99999766051769
 31
0.0
  0
ARC
  5
3A34
  8
0
 10
516.0000074148179
 20
589.99999932944775
 30
0.0
 40
15.500000000000069
 50
14.592550602034979
 51
345.40744939796582
  0
POLYLINE
  5
3A35
  8
0
 66
     1
 10
0.0
 20
0.0
 30
0.0
 70
   128
  0
VERTEX
  5
8B0D
  8
0
 10
531.00000560283661
 20
593.90512280166149
 30
0.0
  0
VERTEX
  5
8B0E
  8
0
 10
531.24994277954102
 20
590.0640057772398
 30
0.0
  0
VERTEX
  5
8B0F
  8
0
 10
531.00000560283661
 20
586.09487287700176
 30
0.0
  0
SEQEND
  5
8B10
  8
0
  0
CIRCLE
  5
3A36
  8
0
 10
516.0000074148179
 20
589.99999932944775
 30
0.0
 40
14.49999999999995
  0
LINE
  5
3A38
  8
0
 10
532.00000762939453
 20
614.99999634921551
 30
0.0
 11
532.00000762939453
 21
496.99999935925018
 31
0.0
  0
LINE
  5
3A40
  8
0
 10
486.00000381469732
 20
593.99999849498272
 30
0.0
 11
507.00000166893
 21
614.99999634921551
 31
0.0
  0
LINE
  5
3A46
  8
0
 10
520.50000667572021
 20
475.9999977797271
 30
0.0
 11
520.50000667572021
 21
499.6458979696036
 31
0.0
  0
ARC
  5
3A47
  8
0
 10
521.5000074148179
 20
502.9999993294478
 30
0.0
 40
3.5000000000000142
 50
253.39845040098109
 51
0.0
  0
LINE
  5
3A48
  8
0
 10
525.00000834465027
 20
503.00000034272682
 30
0.0
 11
525.00000834465027
 21
549.9999987334013
 31
0.0
  0
ARC
  5
3A49
  8
0
 10
521.5000074148179
 20
549.99999932944775
 30
0.0
 40
3.5000000000000142
 50
0.0
 51
180.0
  0
LINE
  5
3A4A
  8
0
 10
518.00000905990601
 20
549.9999987334013
 30
0.0
 11
516.00000500679005
 21
549.9999987334013
 31
0.0
  0
ARC
  5
3A4B
  8
0
 10
512.5000074148179
 20
549.99999932944775
 30
0.0
 40
3.5000000000000142
 50
0.0000000000006107
 51
180.0
  0
LINE
  5
3A4C
  8
0
 10
509.0000057220459
 20
549.9999987334013
 30
0.0
 11
509.0000057220459
 21
503.00000034272682
 31
0.0
  0
ARC
  5
3A4D
  8
0
 10
512.5000074148179
 20
502.9999993294478
 30
0.0
 40
3.5000000000000142
 50
180.0
 51
286.60154959901888
  0
LINE
  5
3A4E
  8
0
 10
513.50000739097595
 20
499.6458979696036
 30
0.0
 11
513.50000739097595
 21
475.9999977797271
 31
0.0
  0
ARC
  5
3A52
  8
0
 10
507.0000074148179
 20
480.99999932944792
 30
0.0
 40
5.0000000000000302
 50
325.7729582264738
 51
0.0
  0
ARC
  5
3A55
  8
0
 10
507.00000167733242
 20
481.00000733115633
 30
0.0
 40
5.0000095514294021
 50
269.99999990371822
 51
325.77290554997097
  0
ARC
  5
3A58
  8
0
 10
527.00000741481779
 20
480.99999932944792
 30
0.0
 40
4.9999999999999947
 50
180.0
 51
213.5573097619228
  0
ARC
  5
3A5A
  8
0
 10
527.00001727376207
 20
481.00001276078513
 30
0.0
 40
5.0000149810732948
 50
213.55739540492371
 51
269.99985874826211
  0
LINE
  5
3A5C
  8
0
 10
486.00000381469732
 20
516.99999891221523
 30
0.0
 11
486.00000381469732
 21
593.99999849498272
 31
0.0
  0
LINE
  5
3A5F
  8
0
 10
501.00000441074371
 20
502.1097118407489
 30
0.0
 11
501.00000441074371
 21
546.07757352292538
 31
0.0
  0
LINE
  5
3A62
  8
0
 10
486.00000381469732
 20
547.0472963899374
 30
0.0
 11
487.13109135627752
 21
545.99999807775021
 31
0.0
  0
LINE
  5
3A63
  8
0
 10
501.00000441074371
 20
545.99999807775021
 30
0.0
 11
487.13109135627752
 21
545.99999807775021
 31
0.0
  0
LINE
  5
3A65
  8
0
 10
507.00000166893
 20
496.0000010579825
 30
0.0
 11
486.00000381469732
 21
516.99999891221523
 31
0.0
  0
LINE
  5
3A66
  8
0
 10
501.00000441074371
 20
501.9999983161689
 30
0.0
 11
501.00000441074371
 21
502.1097118407489
 31
0.0
  0
ARC
  5
3A68
  8
0
 10
507.0000074148179
 20
490.9999993294478
 30
0.0
 40
5.0
 50
0.0
 51
90.0
  0
LINE
  5
3A69
  8
0
 10
512.00000435113907
 20
481.00000046193611
 30
0.0
 11
512.00000435113907
 21
490.99999837577349
 31
0.0
  0
LINE
  5
3A6A
  8
0
 10
532.00000762939453
 20
496.99999935925018
 30
0.0
 11
531.00000560283661
 21
496.0000010579825
 31
0.0
  0
LINE
  5
3A6C
  8
0
 10
531.00000560283661
 20
496.0000010579825
 30
0.0
 11
527.00000494718552
 21
496.0000010579825
 31
0.0
  0
LINE
  5
3A6F
  8
0
 10
522.0000097155571
 20
490.99999837577349
 30
0.0
 11
522.0000097155571
 21
481.00000046193611
 31
0.0
  0
ARC
  5
3A70
  8
0
 10
527.00000741481779
 20
490.9999993294478
 30
0.0
 40
5.0
 50
90.0
 51
180.0
  0
LINE
  5
3A79
  8
0
 10
667.4467945098877
 20
547.00000010430813
 30
0.0
 11
667.4467945098877
 21
475.9999977797271
 31
0.0
  0
LINE
  5
3A7F
  8
0
 10
700.10000705718994
 20
501.00000001490127
 30
0.0
 11
696.10000640153885
 21
501.00000001490127
 31
0.0
  0
LINE
  5
3A80
  8
0
 10
696.10000640153885
 20
475.9999977797271
 30
0.0
 11
696.10000640153885
 21
501.00000001490127
 31
0.0
  0
CIRCLE
  5
3A81
  8
0
 10
641.1000074148177
 20
560.99999932944775
 30
0.0
 40
5.0
  0
CIRCLE
  5
3A82
  8
0
 10
676.10000741481804
 20
525.99999932944775
 30
0.0
 40
5.0
  0
CIRCLE
  5
3A83
  8
0
 10
663.60000741481781
 20
579.99999932944775
 30
0.0
 40
5.0
  0
CIRCLE
  5
3A84
  8
0
 10
629.60000741481781
 20
577.99999932944775
 30
0.0
 40
0.9999999999999431
  0
CIRCLE
  5
3A85
  8
0
 10
630.2092392795247
 20
573.2875777593224
 30
0.0
 40
0.9999999999999431
  0
LINE
  5
3A87
  8
0
 10
653.1000068038702
 20
614.99999634921551
 30
0.0
 11
701.10000908374775
 21
567.00000338256359
 31
0.0
  0
LINE
  5
3A8A
  8
0
 10
667.4467945098877
 20
547.00000010430813
 30
0.0
 11
666.86944529414177
 21
545.99999807775021
 31
0.0
  0
LINE
  5
3A8B
  8
0
 10
701.10000908374775
 20
567.00000338256359
 30
0.0
 11
701.10000908374775
 21
484.7113245107895
 31
0.0
  0
LINE
  5
3A8C
  8
0
 10
700.10000705718994
 20
501.00000001490127
 30
0.0
 11
701.10000908374775
 21
501.00000001490127
 31
0.0
  0
LINE
  5
3A8D
  8
0
 10
666.86944529414177
 20
545.99999807775021
 30
0.0
 11
626.60000758245587
 21
545.99999807775021
 31
0.0
  0
LINE
  5
3A8F
  8
0
 10
626.60000758245587
 20
545.99999807775021
 30
0.0
 11
625.60000695288181
 21
547.00000010430813
 31
0.0
  0
CIRCLE
  5
3A92
  8
0
 10
663.60000741481781
 20
579.99999932944775
 30
0.0
 40
3.4000000000000341
  0
CIRCLE
  5
3A93
  8
0
 10
676.10000741481804
 20
525.99999932944775
 30
0.0
 40
3.3999999999998911
  0
CIRCLE
  5
3A94
  8
0
 10
641.1000074148177
 20
560.99999932944775
 30
0.0
 40
3.4000000000000341
  0
LINE
  5
3A96
  8
0
 10
701.10000908374775
 20
477.59999878704559
 30
0.0
 11
701.10000908374775
 21
475.9999977797271
 31
0.0
  0
LINE
  5
3A98
  8
0
 10
626.60000758245587
 20
477.59999878704559
 30
0.0
 11
626.60000758245587
 21
475.9999977797271
 31
0.0
  0
LINE
  5
3A99
  8
0
 10
625.60000695288181
 20
475.9999977797271
 30
0.0
 11
625.60000695288181
 21
614.99999634921551
 31
0.0
  0
LINE
  5
3A9B
  8
0
 10
533.80000829696655
 20
602.24999658763409
 30
0.0
 11
533.80000829696655
 21
577.74999909102917
 31
0.0
  0
LINE
  5
3A9C
  8
0
 10
616.600007340312
 20
462.50000022351747
 30
0.0
 11
616.600007340312
 21
449.499999023974
 31
0.0
  0
LINE
  5
3A9E
  8
0
 10
548.50000381469727
 20
449.499999023974
 30
0.0
 11
548.50000381469727
 21
462.49999932944132
 31
0.0
  0
LINE
  5
3A9F
  8
0
 10
535.74142843484879
 20
621.14142052829277
 30
0.0
 11
535.74142843484879
 21
616.85857348144054
 31
0.0
  0
LINE
  5
3AA1
  8
0
 10
621.85858614742745
 20
616.85857348144054
 30
0.0
 11
621.85858614742745
 21
621.14142052829266
 31
0.0
  0
LINE
  5
3AA5
  8
0
 10
506.5303523002151
 20
887.24999766051735
 30
0.0
 11
506.18158439378021
 21
886.90122975408235
 31
0.0
  0
ARC
  5
3AA6
  8
0
 10
508.1000074148177
 20
888.24999766051724
 30
0.0
 40
1.000000000000085
 50
270.0
 51
0.0
  0
POLYLINE
  5
3AA7
  8
0
 66
     1
 10
0.0
 20
0.0
 30
0.0
 70
   128
  0
VERTEX
  5
8B11
  8
0
 10
522.93176157826611
 20
887.99999766051735
 30
0.0
  0
VERTEX
  5
8B12
  8
0
 10
522.91922213441455
 20
888.05490733850104
 30
0.0
  0
VERTEX
  5
8B13
  8
0
 10
522.90000741481799
 20
888.24999766051724
 30
0.0
  0
SEQEND
  5
8B14
  8
0
  0
LINE
  5
3AA8
  8
0
 10
522.90000741481799
 20
888.24999766051724
 30
0.0
 11
522.90000741481799
 21
894.74999766051724
 31
0.0
  0
LINE
  5
3AA9
  8
0
 10
509.10000741481781
 20
894.74999766051724
 30
0.0
 11
509.10000741481781
 21
888.24999766051724
 31
0.0
  0
LINE
  5
3AAA
  8
0
 10
522.90000741481799
 20
894.74999766051724
 30
0.0
 11
521.40000741481799
 21
896.24999766051735
 31
0.0
  0
LINE
  5
3AAB
  8
0
 10
510.60000741481781
 20
896.24999766051735
 30
0.0
 11
509.10000741481781
 21
894.74999766051724
 31
0.0
  0
LINE
  5
3AAC
  8
0
 10
505.28035230021499
 20
789.99999766051724
 30
0.0
 11
506.5303523002151
 21
788.74999766051724
 31
0.0
  0
POLYLINE
  5
3AAD
  8
0
 66
     1
 10
0.0
 20
0.0
 30
0.0
 70
   128
  0
VERTEX
  5
8B15
  8
0
 10
522.90000741481799
 20
787.74999766051701
 30
0.0
  0
VERTEX
  5
8B16
  8
0
 10
522.91922213441478
 20
787.94508798253332
 30
0.0
  0
VERTEX
  5
8B17
  8
0
 10
522.93176157826611
 20
787.99999766051678
 30
0.0
  0
SEQEND
  5
8B18
  8
0
  0
ARC
  5
3AAE
  8
0
 10
508.1000074148177
 20
787.74999766051701
 30
0.0
 40
1.000000000000085
 50
0.0
 51
90.0
  0
LINE
  5
3AAF
  8
0
 10
509.10000741481781
 20
787.74999766051701
 30
0.0
 11
509.10000741481781
 21
781.24999766051724
 31
0.0
  0
LINE
  5
3AB0
  8
0
 10
522.90000741481799
 20
781.24999766051724
 30
0.0
 11
522.90000741481799
 21
787.74999766051701
 31
0.0
  0
LINE
  5
3AB1
  8
0
 10
509.10000741481781
 20
781.24999766051724
 30
0.0
 11
510.60000741481781
 21
779.74999766051701
 31
0.0
  0
LINE
  5
3AB2
  8
0
 10
521.40000741481799
 20
779.74999766051701
 30
0.0
 11
522.90000741481799
 21
781.24999766051724
 31
0.0
  0
LINE
  5
3AB3
  8
0
 10
652.05294815941875
 20
889.74999766051735
 30
0.0
 11
650.56966252942084
 21
891.24999766051724
 31
0.0
  0
LINE
  5
3AB4
  8
0
 10
631.63035230021501
 20
891.24999766051724
 30
0.0
 11
630.43170131327633
 21
890.05134667357845
 31
0.0
  0
ARC
  5
3AB5
  8
0
 10
633.20000741481806
 20
892.24999766051724
 30
0.0
 40
0.9999999999999431
 50
270.0
 51
0.0
  0
ARC
  5
3AB6
  8
0
 10
649.0000074148179
 20
892.24999766051724
 30
0.0
 40
1.000000000000085
 50
180.0
 51
270.0
  0
LINE
  5
3AB7
  8
0
 10
648.0000074148179
 20
892.24999766051724
 30
0.0
 11
648.0000074148179
 21
898.74999766051735
 31
0.0
  0
LINE
  5
3AB8
  8
0
 10
634.20000741481772
 20
898.74999766051735
 30
0.0
 11
634.20000741481772
 21
892.24999766051724
 31
0.0
  0
LINE
  5
3AB9
  8
0
 10
648.0000074148179
 20
898.74999766051735
 30
0.0
 11
646.5000074148179
 21
900.24999766051724
 31
0.0
  0
LINE
  5
3ABA
  8
0
 10
635.70000741481795
 20
900.24999766051724
 30
0.0
 11
634.20000741481772
 21
898.74999766051735
 31
0.0
  0
LINE
  5
3ABB
  8
0
 10
631.52088376520135
 20
784.87239653843915
 30
0.0
 11
631.63035230021467
 21
784.74999766051701
 31
0.0
  0
LINE
  5
3ABC
  8
0
 10
650.56966252942084
 20
784.74999766051701
 30
0.0
 11
650.65869716106045
 21
784.8403447931496
 31
0.0
  0
ARC
  5
3ABD
  8
0
 10
649.0000074148179
 20
783.74999766051701
 30
0.0
 40
1.000000000000085
 50
90.0
 51
180.0
  0
ARC
  5
3ABE
  8
0
 10
633.20000741481772
 20
783.74999766051701
 30
0.0
 40
1.000000000000085
 50
0.0
 51
90.0
  0
LINE
  5
3ABF
  8
0
 10
634.20000741481772
 20
783.74999766051701
 30
0.0
 11
634.20000741481772
 21
777.2499976605169
 31
0.0
  0
LINE
  5
3AC0
  8
0
 10
648.0000074148179
 20
777.2499976605169
 30
0.0
 11
648.0000074148179
 21
783.74999766051701
 31
0.0
  0
LINE
  5
3AC1
  8
0
 10
634.20000741481772
 20
777.2499976605169
 30
0.0
 11
635.70000741481795
 21
775.74999766051701
 31
0.0
  0
LINE
  5
3AC2
  8
0
 10
646.5000074148179
 20
775.74999766051701
 30
0.0
 11
648.0000074148179
 21
777.2499976605169
 31
0.0
  0
LINE
  5
3AC3
  8
0
 10
562.0000074148179
 20
824.1999976605166
 30
0.0
 11
565.5000074148179
 21
824.1999976605166
 31
0.0
  0
LINE
  5
3AC4
  8
0
 10
565.5000074148179
 20
851.79999766051685
 30
0.0
 11
562.0000074148179
 21
851.79999766051685
 31
0.0
  0
LINE
  5
3AC5
  8
0
 10
565.5000074148179
 20
824.1999976605166
 30
0.0
 11
566.0000074148179
 21
824.69999766051683
 31
0.0
  0
LINE
  5
3AC6
  8
0
 10
566.0000074148179
 20
851.29999766051674
 30
0.0
 11
565.5000074148179
 21
851.79999766051685
 31
0.0
  0
LINE
  5
3AC7
  8
0
 10
568.63205822238649
 20
846.99999766051735
 30
0.0
 11
566.90000741481788
 21
845.9999976605169
 31
0.0
  0
LINE
  5
3AC8
  8
0
 10
566.90000741481788
 20
829.99999766051735
 30
0.0
 11
568.63205822238649
 21
828.99999766051712
 31
0.0
  0
LINE
  5
3AC9
  8
0
 10
566.0000074148179
 20
829.48038241824622
 30
0.0
 11
566.90000741481788
 21
829.99999766051735
 31
0.0
  0
LINE
  5
3ACA
  8
0
 10
566.90000741481788
 20
845.9999976605169
 30
0.0
 11
566.0000074148179
 21
846.51961290278757
 31
0.0
  0
LINE
  5
3ACB
  8
0
 10
568.63205822238649
 20
828.99999766051712
 30
0.0
 11
617.10000741481781
 21
828.99999766051712
 31
0.0
  0
LINE
  5
3ACC
  8
0
 10
617.10000741481781
 20
846.99999766051735
 30
0.0
 11
568.63205822238649
 21
846.99999766051735
 31
0.0
  0
LINE
  5
3ACD
  8
0
 10
668.90000741481799
 20
847.52999766051687
 30
0.0
 11
667.43000741481774
 21
848.99999766051724
 31
0.0
  0
LINE
  5
3ACE
  8
0
 10
667.43000741481774
 20
826.99999766051724
 30
0.0
 11
668.90000741481799
 21
828.46999766051727
 31
0.0
  0
LINE
  5
3ACF
  8
0
 10
548.00000741481779
 20
820.99999766051712
 30
0.0
 11
561.5000074148179
 21
820.99999766051712
 31
0.0
  0
LINE
  5
3AD0
  8
0
 10
561.5000074148179
 20
854.99999766051735
 30
0.0
 11
548.00000741481779
 21
854.99999766051735
 31
0.0
  0
LINE
  5
3AD1
  8
0
 10
561.5000074148179
 20
820.99999766051712
 30
0.0
 11
562.00000741481756
 21
821.49999766051724
 31
0.0
  0
LINE
  5
3AD2
  8
0
 10
562.00000741481756
 20
854.49999766051724
 30
0.0
 11
561.5000074148179
 21
854.99999766051735
 31
0.0
  0
LINE
  5
3AD3
  8
0
 10
532.5000074148179
 20
821.49999766051735
 30
0.0
 11
533.0000074148179
 21
821.99999766051735
 31
0.0
  0
LINE
  5
3AD4
  8
0
 10
533.0000074148179
 20
853.99999766051712
 30
0.0
 11
532.5000074148179
 21
854.49999766051701
 31
0.0
  0
LINE
  5
3AD5
  8
0
 10
494.24874472413552
 20
850.49873496983503
 30
0.0
 11
494.0000074148179
 21
850.24999766051724
 31
0.0
  0
LINE
  5
3AD6
  8
0
 10
494.0000074148179
 20
825.74999766051724
 30
0.0
 11
494.24874472413552
 21
825.50126035119956
 31
0.0
  0
ARC
  5
3AD7
  8
0
 10
533.80000741481786
 20
851.04999766051742
 30
0.0
 40
0.8000000000001249
 50
180.0
 51
270.0
  0
ARC
  5
3AD8
  8
0
 10
533.80000741481786
 20
824.94999766051728
 30
0.0
 40
0.799999999999983
 50
90.0
 51
180.0
  0
LINE
  5
3AD9
  8
0
 10
540.0000074148179
 20
850.24999766051724
 30
0.0
 11
533.80000741481786
 21
850.24999766051724
 31
0.0
  0
LINE
  5
3ADA
  8
0
 10
533.80000741481786
 20
825.74999766051724
 30
0.0
 11
540.0000074148179
 21
825.74999766051724
 31
0.0
  0
LINE
  5
3ADD
  8
0
 10
490.0000074148179
 20
826.24999766051712
 30
0.0
 11
490.5000074148179
 21
825.74999766051724
 31
0.0
  0
LINE
  5
3ADE
  8
0
 10
490.5000074148179
 20
850.24999766051724
 30
0.0
 11
490.0000074148179
 21
849.74999766051735
 31
0.0
  0
LINE
  5
3ADF
  8
0
 10
490.5000074148179
 20
825.74999766051724
 30
0.0
 11
494.0000074148179
 21
825.74999766051724
 31
0.0
  0
LINE
  5
3AE0
  8
0
 10
494.0000074148179
 20
850.24999766051724
 30
0.0
 11
490.5000074148179
 21
850.24999766051724
 31
0.0
  0
LINE
  5
3AE1
  8
0
 10
490.20000741481789
 20
846.03905878478315
 30
0.0
 11
494.0000074148179
 21
846.03905878478315
 31
0.0
  0
LINE
  5
3AE2
  8
0
 10
494.0000074148179
 20
829.96093653625132
 30
0.0
 11
490.20000741481789
 21
829.96093653625132
 31
0.0
  0
LINE
  5
3AE3
  8
0
 10
535.00000741481779
 20
814.74999766051747
 30
0.0
 11
532.5000074148179
 21
814.74999766051747
 31
0.0
  0
LINE
  5
3AE4
  8
0
 10
532.5000074148179
 20
807.24999766051735
 30
0.0
 11
535.00000741481779
 21
807.24999766051735
 31
0.0
  0
LINE
  5
3AEC
  8
0
 10
622.60000741481804
 20
833.74999766051724
 30
0.0
 11
622.10000741481804
 21
833.24999766051724
 31
0.0
  0
LINE
  5
3AED
  8
0
 10
622.10000741481804
 20
826.74999766051724
 30
0.0
 11
622.60000741481804
 21
826.24999766051712
 31
0.0
  0
LINE
  5
3AEE
  8
0
 10
622.60000741481804
 20
826.24999766051712
 30
0.0
 11
625.10000741481804
 21
826.24999766051712
 31
0.0
  0
LINE
  5
3AEF
  8
0
 10
625.10000741481804
 20
833.74999766051724
 30
0.0
 11
622.60000741481804
 21
833.74999766051724
 31
0.0
  0
LINE
  5
3AF0
  8
0
 10
622.10000741481804
 20
832.38284037299172
 30
0.0
 11
621.85858605858084
 21
832.14141901675418
 31
0.0
  0
LINE
  5
3AF1
  8
0
 10
621.85858605858061
 20
827.85857630427961
 30
0.0
 11
622.10000741481804
 21
827.61715494804253
 31
0.0
  0
ARC
  5
3AF2
  8
0
 10
622.00000741481779
 20
827.99999766051712
 30
0.0
 40
0.2000000000000699
 50
180.0
 51
224.99999999997189
  0
ARC
  5
3AF3
  8
0
 10
622.00000741481779
 20
831.99999766051724
 30
0.0
 40
0.1999999999999695
 50
134.99999999999909
 51
180.0
  0
LINE
  5
3AF4
  8
0
 10
621.80000741481797
 20
831.99999766051724
 30
0.0
 11
621.80000741481797
 21
827.99999766051712
 31
0.0
  0
LINE
  5
3AF7
  8
0
 10
535.00000741481779
 20
833.74999766051758
 30
0.0
 11
532.5000074148179
 21
833.74999766051758
 31
0.0
  0
LINE
  5
3AF8
  8
0
 10
532.5000074148179
 20
826.24999766051769
 30
0.0
 11
535.00000741481779
 21
826.24999766051769
 31
0.0
  0
LINE
  5
3B00
  8
0
 10
535.00000741481779
 20
868.74999766051769
 30
0.0
 11
532.5000074148179
 21
868.74999766051769
 31
0.0
  0
LINE
  5
3B01
  8
0
 10
532.5000074148179
 20
861.24999766051758
 30
0.0
 11
535.00000741481779
 21
861.24999766051758
 31
0.0
  0
LINE
  5
3B07
  8
0
 10
535.00000741481779
 20
795.74999766051769
 30
0.0
 11
532.5000074148179
 21
795.74999766051769
 31
0.0
  0
LINE
  5
3B08
  8
0
 10
532.5000074148179
 20
788.24999766051769
 30
0.0
 11
535.00000741481779
 21
788.24999766051769
 31
0.0
  0
LINE
  5
3B09
  8
0
 10
535.00000741481779
 20
788.24999766051769
 30
0.0
 11
535.50000741481779
 21
788.74999766051769
 31
0.0
  0
LINE
  5
3B0A
  8
0
 10
535.50000741481779
 20
795.24999766051735
 30
0.0
 11
535.00000741481779
 21
795.74999766051769
 31
0.0
  0
LINE
  5
3B0B
  8
0
 10
535.50000741481779
 20
789.61715494804321
 30
0.0
 11
535.74142877105533
 21
789.85857630428018
 31
0.0
  0
LINE
  5
3B0C
  8
0
 10
535.74142877105533
 20
794.14141901675475
 30
0.0
 11
535.50000741481779
 21
794.38284037299218
 31
0.0
  0
ARC
  5
3B0D
  8
0
 10
535.60000741481804
 20
793.99999766051735
 30
0.0
 40
0.2000000000000313
 50
0.0
 51
45.000000000000568
  0
ARC
  5
3B0E
  8
0
 10
535.60000741481804
 20
789.99999766051769
 30
0.0
 40
0.2000000000000313
 50
315.00000000000142
 51
0.0
  0
LINE
  5
3B0F
  8
0
 10
535.80000741481797
 20
789.99999766051769
 30
0.0
 11
535.80000741481797
 21
793.99999766051735
 31
0.0
  0
LINE
  5
3B10
  8
0
 10
622.60000741481804
 20
868.74999766051724
 30
0.0
 11
622.10000741481804
 21
868.24999766051712
 31
0.0
  0
LINE
  5
3B11
  8
0
 10
622.10000741481804
 20
861.74999766051724
 30
0.0
 11
622.60000741481804
 21
861.24999766051735
 31
0.0
  0
LINE
  5
3B12
  8
0
 10
622.60000741481804
 20
861.24999766051735
 30
0.0
 11
625.10000741481804
 21
861.24999766051735
 31
0.0
  0
LINE
  5
3B13
  8
0
 10
625.10000741481804
 20
868.74999766051724
 30
0.0
 11
622.60000741481804
 21
868.74999766051724
 31
0.0
  0
LINE
  5
3B14
  8
0
 10
622.10000741481804
 20
867.38284037299172
 30
0.0
 11
621.85858605858061
 21
867.14141901675418
 31
0.0
  0
LINE
  5
3B15
  8
0
 10
621.85858605858061
 20
862.85857630427984
 30
0.0
 11
622.10000741481804
 21
862.61715494804241
 31
0.0
  0
ARC
  5
3B16
  8
0
 10
622.00000741481779
 20
862.99999766051735
 30
0.0
 40
0.2000000000000699
 50
180.0
 51
224.99999999997189
  0
ARC
  5
3B17
  8
0
 10
622.00000741481779
 20
866.99999766051724
 30
0.0
 40
0.2000000000000699
 50
135.00000000002831
 51
180.0
  0
LINE
  5
3B18
  8
0
 10
621.80000741481797
 20
866.99999766051724
 30
0.0
 11
621.80000741481797
 21
862.99999766051735
 31
0.0
  0
LINE
  5
3B1B
  8
0
 10
535.00000741481779
 20
849.74999766051735
 30
0.0
 11
532.5000074148179
 21
849.74999766051735
 31
0.0
  0
LINE
  5
3B1C
  8
0
 10
532.5000074148179
 20
842.24999766051747
 30
0.0
 11
535.00000741481779
 21
842.24999766051747
 31
0.0
  0
LINE
  5
3B22
  8
0
 10
622.60000741481804
 20
849.7499976605169
 30
0.0
 11
622.10000741481804
 21
849.24999766051724
 31
0.0
  0
LINE
  5
3B23
  8
0
 10
622.10000741481804
 20
842.74999766051724
 30
0.0
 11
622.60000741481804
 21
842.24999766051701
 31
0.0
  0
LINE
  5
3B24
  8
0
 10
622.60000741481804
 20
842.24999766051701
 30
0.0
 11
625.10000741481804
 21
842.24999766051701
 31
0.0
  0
LINE
  5
3B25
  8
0
 10
625.10000741481804
 20
849.7499976605169
 30
0.0
 11
622.60000741481804
 21
849.7499976605169
 31
0.0
  0
LINE
  5
3B26
  8
0
 10
622.10000741481804
 20
848.38284037299172
 30
0.0
 11
621.85858605858084
 21
848.1414190167543
 31
0.0
  0
LINE
  5
3B27
  8
0
 10
621.85858605858061
 20
843.85857630427995
 30
0.0
 11
622.10000741481804
 21
843.6171549480423
 31
0.0
  0
ARC
  5
3B28
  8
0
 10
622.00000741481779
 20
843.99999766051724
 30
0.0
 40
0.2000000000000699
 50
180.0
 51
224.99999999997189
  0
ARC
  5
3B29
  8
0
 10
622.00000741481779
 20
847.99999766051735
 30
0.0
 40
0.1999999999999695
 50
134.99999999999909
 51
180.0
  0
LINE
  5
3B2A
  8
0
 10
621.80000741481797
 20
847.99999766051735
 30
0.0
 11
621.80000741481797
 21
843.99999766051724
 31
0.0
  0
LINE
  5
3B2B
  8
0
 10
622.60000741481804
 20
880.24999766051724
 30
0.0
 11
625.10000741481804
 21
880.24999766051724
 31
0.0
  0
LINE
  5
3B2C
  8
0
 10
625.10000741481804
 20
887.74999766051724
 30
0.0
 11
622.60000741481804
 21
887.74999766051724
 31
0.0
  0
LINE
  5
3B2D
  8
0
 10
622.60000741481804
 20
887.74999766051724
 30
0.0
 11
622.10000741481804
 21
887.2499976605169
 31
0.0
  0
LINE
  5
3B2E
  8
0
 10
622.10000741481804
 20
880.74999766051712
 30
0.0
 11
622.60000741481804
 21
880.24999766051724
 31
0.0
  0
LINE
  5
3B2F
  8
0
 10
622.10000741481804
 20
886.38284037299161
 30
0.0
 11
621.85858605858061
 21
886.1414190167543
 31
0.0
  0
LINE
  5
3B30
  8
0
 10
621.85858605858061
 20
881.85857630427972
 30
0.0
 11
622.10000741481804
 21
881.61715494804218
 31
0.0
  0
ARC
  5
3B31
  8
0
 10
622.00000741481779
 20
881.99999766051724
 30
0.0
 40
0.1999999999999695
 50
180.0
 51
225.0000000000008
  0
ARC
  5
3B32
  8
0
 10
622.00000741481779
 20
885.99999766051701
 30
0.0
 40
0.1999999999999695
 50
134.99999999999909
 51
180.0
  0
LINE
  5
3B33
  8
0
 10
621.80000741481797
 20
885.99999766051701
 30
0.0
 11
621.80000741481797
 21
881.99999766051724
 31
0.0
  0
LINE
  5
3B34
  8
0
 10
622.60000741481804
 20
814.7499976605169
 30
0.0
 11
622.10000741481804
 21
814.24999766051724
 31
0.0
  0
LINE
  5
3B35
  8
0
 10
622.10000741481804
 20
807.74999766051735
 30
0.0
 11
622.60000741481804
 21
807.24999766051701
 31
0.0
  0
LINE
  5
3B36
  8
0
 10
622.60000741481804
 20
807.24999766051701
 30
0.0
 11
625.10000741481804
 21
807.24999766051701
 31
0.0
  0
LINE
  5
3B37
  8
0
 10
625.10000741481804
 20
814.7499976605169
 30
0.0
 11
622.60000741481804
 21
814.7499976605169
 31
0.0
  0
LINE
  5
3B38
  8
0
 10
622.10000741481804
 20
813.38284037299184
 30
0.0
 11
621.85858605858084
 21
813.1414190167543
 31
0.0
  0
LINE
  5
3B39
  8
0
 10
621.85858605858084
 20
808.85857630427984
 30
0.0
 11
622.10000741481804
 21
808.61715494804218
 31
0.0
  0
ARC
  5
3B3A
  8
0
 10
622.00000741481779
 20
808.99999766051724
 30
0.0
 40
0.1999999999999695
 50
180.0
 51
225.0000000000008
  0
ARC
  5
3B3B
  8
0
 10
622.00000741481779
 20
812.99999766051735
 30
0.0
 40
0.1999999999999695
 50
134.99999999999909
 51
180.0
  0
LINE
  5
3B3C
  8
0
 10
621.80000741481797
 20
812.99999766051735
 30
0.0
 11
621.80000741481797
 21
808.99999766051724
 31
0.0
  0
LINE
  5
3B3D
  8
0
 10
535.00000741481779
 20
887.74999766051769
 30
0.0
 11
532.5000074148179
 21
887.74999766051769
 31
0.0
  0
LINE
  5
3B3E
  8
0
 10
532.5000074148179
 20
880.24999766051758
 30
0.0
 11
535.00000741481779
 21
880.24999766051758
 31
0.0
  0
LINE
  5
3B46
  8
0
 10
622.60000741481804
 20
788.24999766051701
 30
0.0
 11
625.10000741481804
 21
788.24999766051701
 31
0.0
  0
LINE
  5
3B47
  8
0
 10
625.10000741481826
 20
795.74999766051701
 30
0.0
 11
622.60000741481815
 21
795.74999766051701
 31
0.0
  0
LINE
  5
3B48
  8
0
 10
622.60000741481815
 20
795.74999766051701
 30
0.0
 11
622.10000741481804
 21
795.24999766051724
 31
0.0
  0
LINE
  5
3B49
  8
0
 10
622.10000741481804
 20
788.74999766051724
 30
0.0
 11
622.60000741481804
 21
788.24999766051701
 31
0.0
  0
LINE
  5
3B4A
  8
0
 10
622.10000741481804
 20
794.38284037299172
 30
0.0
 11
621.85858605858084
 21
794.14141901675453
 31
0.0
  0
LINE
  5
3B4B
  8
0
 10
621.85858605858084
 20
789.85857630427972
 30
0.0
 11
622.10000741481804
 21
789.61715494804253
 31
0.0
  0
ARC
  5
3B4C
  8
0
 10
622.00000741481779
 20
789.99999766051724
 30
0.0
 40
0.1999999999999695
 50
180.0
 51
225.0000000000008
  0
ARC
  5
3B4D
  8
0
 10
622.00000741481779
 20
793.99999766051724
 30
0.0
 40
0.1999999999999695
 50
134.99999999999909
 51
180.0
  0
LINE
  5
3B4E
  8
0
 10
621.80000741481797
 20
793.99999766051724
 30
0.0
 11
621.80000741481797
 21
789.99999766051724
 31
0.0
  0
LINE
  5
3B4F
  8
0
 10
539.00000741481779
 20
932.99999766051735
 30
0.0
 11
540.0000074148179
 21
931.99999766051758
 31
0.0
  0
LINE
  5
3B54
  8
0
 10
443.00000741481779
 20
932.99999766051735
 30
0.0
 11
442.0000074148179
 21
931.99999766051758
 31
0.0
  0
LINE
  5
3B55
  8
0
 10
443.00000741481779
 20
932.99999766051735
 30
0.0
 11
539.00000741481779
 21
932.99999766051735
 31
0.0
  0
LINE
  5
3B5F
  8
0
 10
532.6000074148177
 20
799.99999766051769
 30
0.0
 11
532.50000741481836
 21
798.54741375588674
 31
0.0
  0
LINE
  5
3B60
  8
0
 10
532.6000074148177
 20
875.99999766051735
 30
0.0
 11
532.6000074148177
 21
868.74999766051769
 31
0.0
  0
LINE
  5
3B61
  8
0
 10
532.6000074148177
 20
861.24999766051758
 30
0.0
 11
532.6000074148177
 21
854.39999766051733
 31
0.0
  0
LINE
  5
3B62
  8
0
 10
532.6000074148177
 20
821.59999766051715
 30
0.0
 11
532.6000074148177
 21
814.74999766051747
 31
0.0
  0
LINE
  5
3B63
  8
0
 10
532.6000074148177
 20
807.24999766051735
 30
0.0
 11
532.6000074148177
 21
799.99999766051769
 31
0.0
  0
LINE
  5
3B64
  8
0
 10
532.5000074148179
 20
877.45258156514865
 30
0.0
 11
532.6000074148177
 21
875.99999766051735
 31
0.0
  0
LINE
  5
3B65
  8
0
 10
442.0000074148179
 20
743.99999766051735
 30
0.0
 11
442.0000074148179
 21
931.99999766051758
 31
0.0
  0
LINE
  5
3B67
  8
0
 10
540.0000074148179
 20
931.99999766051758
 30
0.0
 11
540.0000074148179
 21
743.99999766051735
 31
0.0
  0
CIRCLE
  5
3B6A
  8
0
 10
454.0000074148179
 20
900.99999766051735
 30
0.0
 40
6.25
  0
CIRCLE
  5
3B6B
  8
0
 10
486.0000074148179
 20
900.99999766051735
 30
0.0
 40
6.25
  0
CIRCLE
  5
3B6C
  8
0
 10
454.0000074148179
 20
774.99999766051769
 30
0.0
 40
6.25
  0
CIRCLE
  5
3B6D
  8
0
 10
486.0000074148179
 20
774.99999766051769
 30
0.0
 40
6.25
  0
LINE
  5
3B6E
  8
0
 10
539.00000741481779
 20
742.99999766051758
 30
0.0
 11
540.0000074148179
 21
743.99999766051735
 31
0.0
  0
LINE
  5
3B70
  8
0
 10
539.00000741481779
 20
742.99999766051758
 30
0.0
 11
443.00000741481779
 21
742.99999766051758
 31
0.0
  0
LINE
  5
3B72
  8
0
 10
442.0000074148179
 20
743.99999766051735
 30
0.0
 11
443.00000741481779
 21
742.99999766051758
 31
0.0
  0
LINE
  5
3B74
  8
0
 10
723.10000741481781
 20
931.99999766051758
 30
0.0
 11
722.10000741481781
 21
932.99999766051735
 31
0.0
  0
LINE
  5
3B81
  8
0
 10
626.10000741481781
 20
932.99999766051735
 30
0.0
 11
625.10000741481781
 21
931.99999766051758
 31
0.0
  0
LINE
  5
3B83
  8
0
 10
626.10000741481781
 20
932.99999766051735
 30
0.0
 11
722.10000741481781
 21
932.99999766051735
 31
0.0
  0
LINE
  5
3B86
  8
0
 10
625.10000741481781
 20
743.99999766051735
 30
0.0
 11
625.10000741481781
 21
931.99999766051758
 31
0.0
  0
LINE
  5
3B87
  8
0
 10
723.10000741481781
 20
931.99999766051758
 30
0.0
 11
723.10000741481781
 21
743.99999766051735
 31
0.0
  0
CIRCLE
  5
3B89
  8
0
 10
711.10000741481804
 20
900.99999766051735
 30
0.0
 40
6.25
  0
ARC
  5
3B8A
  8
0
 10
637.1000074148177
 20
900.99999766051735
 30
0.0
 40
6.2500000000000187
 50
353.10789742065663
 51
242.3544770521637
  0
ARC
  5
3B8C
  8
0
 10
637.1000074148177
 20
774.99999766051769
 30
0.0
 40
6.2500000000000187
 50
117.6455229478355
 51
6.8921025793401087
  0
CIRCLE
  5
3B8D
  8
0
 10
711.10000741481804
 20
774.99999766051769
 30
0.0
 40
6.25
  0
LINE
  5
3B8E
  8
0
 10
722.10000741481781
 20
742.99999766051758
 30
0.0
 11
626.10000741481781
 21
742.99999766051758
 31
0.0
  0
LINE
  5
3B91
  8
0
 10
626.10000741481781
 20
742.99999766051758
 30
0.0
 11
625.10000741481781
 21
743.99999766051735
 31
0.0
  0
LINE
  5
3B92
  8
0
 10
722.10000741481781
 20
742.99999766051758
 30
0.0
 11
723.10000741481781
 21
743.99999766051735
 31
0.0
  0
LINE
  5
3B93
  8
0
 10
452.25000741481898
 20
906.99999766051792
 30
0.0
 11
455.75000741481648
 21
906.99999766051792
 31
0.0
  0
LINE
  5
3B94
  8
0
 10
484.25000741481898
 20
906.99999766051792
 30
0.0
 11
487.75000741481671
 21
906.99999766051792
 31
0.0
  0
LINE
  5
3B95
  8
0
 10
484.25000741481739
 20
768.99999766051769
 30
0.0
 11
487.7500074148183
 21
768.99999766051769
 31
0.0
  0
LINE
  5
3B96
  8
0
 10
452.25000741481739
 20
768.99999766051769
 30
0.0
 11
455.7500074148183
 21
768.99999766051769
 31
0.0
  0
LINE
  5
3B97
  8
0
 10
709.35000741481736
 20
768.99999766051769
 30
0.0
 11
712.85000741481815
 21
768.99999766051769
 31
0.0
  0
LINE
  5
3B98
  8
0
 10
635.35000741481736
 20
768.99999766051769
 30
0.0
 11
638.85000741481838
 21
768.99999766051769
 31
0.0
  0
LINE
  5
3B99
  8
0
 10
635.35000741481838
 20
906.99999766051758
 30
0.0
 11
638.85000741481713
 21
906.99999766051758
 31
0.0
  0
LINE
  5
3B9A
  8
0
 10
709.35000741481872
 20
906.99999766051758
 30
0.0
 11
712.85000741481736
 21
906.99999766051758
 31
0.0
  0
LINE
  5
3C2D
  8
0
 10
621.10000741481781
 20
885.99999766051701
 30
0.0
 11
621.10000741481781
 21
789.99999766051701
 31
0.0
  0
LINE
  5
3C2E
  8
0
 10
617.10000741481781
 20
885.99999766051701
 30
0.0
 11
617.10000741481781
 21
789.99999766051701
 31
0.0
  0
LINE
  5
3C2F
  8
0
 10
617.10000741481781
 20
789.99999766051724
 30
0.0
 11
621.80000741481797
 21
789.99999766051724
 31
0.0
  0
LINE
  5
3C30
  8
0
 10
617.10000741481781
 20
885.99999766051701
 30
0.0
 11
621.80000741481797
 21
885.99999766051701
 31
0.0
  0
LINE
  5
3C31
  8
0
 10
548.00000741481779
 20
885.99999766051701
 30
0.0
 11
544.0000074148179
 21
885.99999766051701
 31
0.0
  0
LINE
  5
3C32
  8
0
 10
548.00000741481779
 20
789.99999766051701
 30
0.0
 11
544.0000074148179
 21
789.99999766051701
 31
0.0
  0
LINE
  5
3C33
  8
0
 10
544.0000074148179
 20
789.99999766051701
 30
0.0
 11
544.0000074148179
 21
885.99999766051701
 31
0.0
  0
LINE
  5
3C34
  8
0
 10
548.00000741481779
 20
789.99999766051701
 30
0.0
 11
548.00000741481779
 21
885.99999766051701
 31
0.0
  0
LINE
  5
3C36
  8
0
 10
544.0000074148179
 20
789.99999766051724
 30
0.0
 11
540.0000074148179
 21
789.99999766051724
 31
0.0
  0
LINE
  5
3C37
  8
0
 10
544.0000074148179
 20
885.99999766051701
 30
0.0
 11
540.0000074148179
 21
885.99999766051701
 31
0.0
  0
ARC
  5
3C38
  8
0
 10
509.38327758513191
 20
881.58932850214035
 30
0.0
 40
5.609977858846892
 50
56.250084467163553
 51
128.1664716169827
  0
POLYLINE
  5
3C39
  8
0
 66
     1
 10
0.0
 20
0.0
 30
0.0
 70
   128
  0
VERTEX
  5
8B19
  8
0
 10
505.60905234936507
 20
885.99999766051701
 30
0.0
  0
VERTEX
  5
8B1A
  8
0
 10
506.01093939632159
 20
886.69567442471077
 30
0.0
  0
VERTEX
  5
8B1B
  8
0
 10
506.18158439378021
 20
886.90122975408235
 30
0.0
  0
SEQEND
  5
8B1C
  8
0
  0
LINE
  5
3C3A
  8
0
 10
512.5000074148179
 20
887.24999766051735
 30
0.0
 11
506.5303523002151
 21
887.24999766051735
 31
0.0
  0
LINE
  5
3C3B
  8
0
 10
522.90000741481765
 20
894.74999766051724
 30
0.0
 11
509.10000741481781
 21
894.74999766051724
 31
0.0
  0
LINE
  5
3C3E
  8
0
 10
510.60000741481781
 20
896.24999766051735
 30
0.0
 11
521.40000741481776
 21
896.24999766051724
 31
0.0
  0
ARC
  5
3C3F
  8
0
 10
507.76725769112409
 20
791.98612159623917
 30
0.0
 40
3.1420398151605058
 50
219.20618192178671
 51
320.79381807821579
  0
POLYLINE
  5
3C40
  8
0
 66
     1
 10
0.0
 20
0.0
 30
0.0
 70
   128
  0
VERTEX
  5
8B1D
  8
0
 10
511.07065716081428
 20
789.99999766051724
 30
0.0
  0
VERTEX
  5
8B1E
  8
0
 10
511.88903953993679
 20
789.63167370998679
 30
0.0
  0
VERTEX
  5
8B1F
  8
0
 10
512.50000741481836
 20
789.43910667818636
 30
0.0
  0
SEQEND
  5
8B20
  8
0
  0
LINE
  5
3C41
  8
0
 10
506.5303523002151
 20
788.74999766051724
 30
0.0
 11
512.50000741481836
 21
788.74999766051701
 31
0.0
  0
LINE
  5
3C42
  8
0
 10
509.10000741481781
 20
781.24999766051724
 30
0.0
 11
522.90000741481799
 21
781.24999766051724
 31
0.0
  0
LINE
  5
3C43
  8
0
 10
521.40000741481799
 20
779.74999766051701
 30
0.0
 11
510.60000741481781
 21
779.74999766051701
 31
0.0
  0
ARC
  5
3C44
  8
0
 10
641.62423712014606
 20
879.78380155313664
 30
0.0
 40
11.3717541562175
 50
61.211004036708367
 51
118.78899596329229
  0
ARC
  5
3C45
  8
0
 10
633.1474167090314
 20
887.20507428492135
 30
0.0
 40
3.934302395986677
 50
40.304903699192408
 51
139.69509630080421
  0
POLYLINE
  5
3C47
  8
0
 66
     1
 10
0.0
 20
0.0
 30
0.0
 70
   128
  0
VERTEX
  5
8B21
  8
0
 10
652.05294815941875
 20
889.74999766051735
 30
0.0
  0
VERTEX
  5
8B22
  8
0
 10
651.02076932730643
 20
890.69567442471089
 30
0.0
  0
VERTEX
  5
8B23
  8
0
 10
649.88777410699947
 20
891.19471659144972
 30
0.0
  0
VERTEX
  5
8B24
  8
0
 10
649.09404256782318
 20
891.15965052788465
 30
0.0
  0
VERTEX
  5
8B25
  8
0
 10
648.28974994644796
 20
890.80107638560185
 30
0.0
  0
VERTEX
  5
8B26
  8
0
 10
647.10070749244619
 20
889.74999766051735
 30
0.0
  0
SEQEND
  5
8B27
  8
0
  0
LINE
  5
3C48
  8
0
 10
650.56966252942073
 20
891.24999766051724
 30
0.0
 11
631.63035230021501
 21
891.24999766051724
 31
0.0
  0
LINE
  5
3C4A
  8
0
 10
630.14706667021733
 20
889.74999766051735
 30
0.0
 11
630.14706667021733
 21
887.99999766051735
 31
0.0
  0
LINE
  5
3C4B
  8
0
 10
636.14776674784571
 20
889.74999766051735
 30
0.0
 11
636.14776674784571
 21
887.99999766051735
 31
0.0
  0
LINE
  5
3C4C
  8
0
 10
647.10070749244619
 20
889.74999766051735
 30
0.0
 11
647.10070749244642
 21
885.99999766051724
 31
0.0
  0
LINE
  5
3C4D
  8
0
 10
652.05294815941875
 20
889.74999766051735
 30
0.0
 11
652.05294815941897
 21
885.99999766051724
 31
0.0
  0
LINE
  5
3C4E
  8
0
 10
648.00000741481824
 20
898.7499976605169
 30
0.0
 11
634.20000741481772
 21
898.74999766051735
 31
0.0
  0
LINE
  5
3C51
  8
0
 10
635.70000741481795
 20
900.24999766051724
 30
0.0
 11
646.50000741481813
 21
900.24999766051724
 31
0.0
  0
ARC
  5
3C52
  8
0
 10
635.33360426982961
 20
792.38546968591118
 30
0.0
 40
7.5261908402736282
 50
234.60873603320221
 51
305.39126396680058
  0
ARC
  5
3C53
  8
0
 10
644.75507366163947
 20
794.54440989529326
 30
0.0
 40
9.7173781390621023
 50
238.60154339720719
 51
301.39845660279559
  0
POLYLINE
  5
3C54
  8
0
 66
     1
 10
0.0
 20
0.0
 30
0.0
 70
   128
  0
VERTEX
  5
8B28
  8
0
 10
649.81769784057224
 20
786.24999766051701
 30
0.0
  0
VERTEX
  5
8B29
  8
0
 10
650.11107039659225
 20
785.30432089632325
 30
0.0
  0
VERTEX
  5
8B2A
  8
0
 10
650.43309763973957
 20
784.80527872958464
 30
0.0
  0
VERTEX
  5
8B2B
  8
0
 10
650.65869716106045
 20
784.8403447931496
 30
0.0
  0
VERTEX
  5
8B2C
  8
0
 10
650.88729842159808
 20
785.19891893543229
 30
0.0
  0
VERTEX
  5
8B2D
  8
0
 10
651.22525577268334
 20
786.24999766051701
 30
0.0
  0
SEQEND
  5
8B2E
  8
0
  0
POLYLINE
  5
3C55
  8
0
 66
     1
 10
0.0
 20
0.0
 30
0.0
 70
   128
  0
VERTEX
  5
8B2F
  8
0
 10
631.52088376520135
 20
784.87239653843915
 30
0.0
  0
VERTEX
  5
8B30
  8
0
 10
631.31271640803743
 20
785.19891893543229
 30
0.0
  0
VERTEX
  5
8B31
  8
0
 10
630.97475905695217
 20
786.24999766051701
 30
0.0
  0
SEQEND
  5
8B32
  8
0
  0
LINE
  5
3C56
  8
0
 10
631.63035230021467
 20
784.74999766051701
 30
0.0
 11
650.56966252942084
 21
784.74999766051701
 31
0.0
  0
LINE
  5
3C58
  8
0
 10
649.81769784057224
 20
786.24999766051701
 30
0.0
 11
649.81769784057224
 21
789.99999766051701
 31
0.0
  0
LINE
  5
3C59
  8
0
 10
639.69244948270671
 20
786.24999766051701
 30
0.0
 11
639.69244948270671
 21
787.99999766051678
 31
0.0
  0
LINE
  5
3C5A
  8
0
 10
630.97475905695217
 20
786.24999766051701
 30
0.0
 11
630.97475905695217
 21
787.99999766051678
 31
0.0
  0
LINE
  5
3C5B
  8
0
 10
634.20000741481761
 20
777.2499976605169
 30
0.0
 11
648.0000074148179
 21
777.2499976605169
 31
0.0
  0
LINE
  5
3C5E
  8
0
 10
646.5000074148179
 20
775.74999766051701
 30
0.0
 11
635.70000741481806
 21
775.74999766051701
 31
0.0
  0
LINE
  5
3C5F
  8
0
 10
651.22525577268334
 20
786.24999766051701
 30
0.0
 11
651.22525577268334
 21
789.99999766051701
 31
0.0
  0
LINE
  5
3C61
  8
0
 10
565.5000074148179
 20
824.1999976605166
 30
0.0
 11
565.5000074148179
 21
851.79999766051685
 31
0.0
  0
LINE
  5
3C62
  8
0
 10
566.00000741481801
 20
851.29999766051674
 30
0.0
 11
566.0000074148179
 21
824.69999766051683
 31
0.0
  0
LINE
  5
3C64
  8
0
 10
658.90000741481799
 20
841.40734266799757
 30
0.0
 11
658.90000741481799
 21
834.59265265303657
 31
0.0
  0
ARC
  5
3C65
  8
0
 10
656.17478051010676
 20
837.51543238657996
 30
0.0
 40
12.74735871443767
 50
3.3767495083872578
 51
28.000218166703089
  0
POLYLINE
  5
3C67
  8
0
 66
     1
 10
0.0
 20
0.0
 30
0.0
 70
   128
  0
VERTEX
  5
8B33
  8
0
 10
668.90000741481799
 20
837.73372712140292
 30
0.0
  0
VERTEX
  5
8B34
  8
0
 10
668.55241043267984
 20
835.38907404203553
 30
0.0
  0
VERTEX
  5
8B35
  8
0
 10
667.43000741481774
 20
832.49999766051701
 30
0.0
  0
SEQEND
  5
8B36
  8
0
  0
LINE
  5
3C68
  8
0
 10
659.39172048094815
 20
832.49999766051701
 30
0.0
 11
667.43000741481774
 21
832.49999766051701
 31
0.0
  0
LINE
  5
3C69
  8
0
 10
659.39172048094815
 20
843.49999766051735
 30
0.0
 11
667.43000741481774
 21
843.49999766051735
 31
0.0
  0
POLYLINE
  5
3C6A
  8
0
 66
     1
 10
0.0
 20
0.0
 30
0.0
 70
   128
  0
VERTEX
  5
8B37
  8
0
 10
667.43000741481774
 20
848.99999766051724
 30
0.0
  0
VERTEX
  5
8B38
  8
0
 10
668.54505069520997
 20
847.56931276204932
 30
0.0
  0
VERTEX
  5
8B39
  8
0
 10
668.90000741481799
 20
846.38313293007354
 30
0.0
  0
SEQEND
  5
8B3A
  8
0
  0
ARC
  5
3C6B
  8
0
 10
664.84311211566046
 20
846.67447454571459
 30
0.0
 40
4.0950373360271577
 50
309.17674390150131
 51
352.17384747317658
  0
LINE
  5
3C6C
  8
0
 10
661.99876522671309
 20
848.99999766051724
 30
0.0
 11
667.43000741481774
 21
848.99999766051724
 31
0.0
  0
POLYLINE
  5
3C6F
  8
0
 66
     1
 10
0.0
 20
0.0
 30
0.0
 70
   128
  0
VERTEX
  5
8B3B
  8
0
 10
667.43000741481774
 20
832.49999766051701
 30
0.0
  0
VERTEX
  5
8B3C
  8
0
 10
668.54505069520997
 20
831.06931276204898
 30
0.0
  0
VERTEX
  5
8B3D
  8
0
 10
668.90000741481799
 20
829.88313293007354
 30
0.0
  0
SEQEND
  5
8B3E
  8
0
  0
ARC
  5
3C71
  8
0
 10
664.84311211566114
 20
830.17447454571436
 30
0.0
 40
4.0950373360265369
 50
309.17674390149813
 51
352.1738474731817
  0
LINE
  5
3C72
  8
0
 10
661.99876522671309
 20
826.99999766051724
 30
0.0
 11
667.43000741481774
 21
826.99999766051724
 31
0.0
  0
LINE
  5
3C73
  8
0
 10
668.90000741481799
 20
829.61686239096059
 30
0.0
 11
668.90000741481799
 21
829.88313293007354
 31
0.0
  0
LINE
  5
3C74
  8
0
 10
566.90000741481788
 20
829.99999766051735
 30
0.0
 11
566.90000741481788
 21
845.9999976605169
 31
0.0
  0
LINE
  5
3C75
  8
0
 10
568.63205822238649
 20
828.99999766051712
 30
0.0
 11
568.63205822238649
 21
846.99999766051735
 31
0.0
  0
LINE
  5
3C76
  8
0
 10
668.90000741481799
 20
847.52999766051687
 30
0.0
 11
668.90000741481799
 21
828.46999766051727
 31
0.0
  0
POLYLINE
  5
3C79
  8
0
 66
     1
 10
0.0
 20
0.0
 30
0.0
 70
   128
  0
VERTEX
  5
8B3F
  8
0
 10
551.56605335975314
 20
839.3040485913582
 30
0.0
  0
VERTEX
  5
8B40
  8
0
 10
550.86952466277671
 20
839.23004022945406
 30
0.0
  0
VERTEX
  5
8B41
  8
0
 10
550.43396146988243
 20
839.3040485913582
 30
0.0
  0
SEQEND
  5
8B42
  8
0
  0
POLYLINE
  5
3C7B
  8
0
 66
     1
 10
0.0
 20
0.0
 30
0.0
 70
   128
  0
VERTEX
  5
8B43
  8
0
 10
550.43396146988243
 20
843.27113835749287
 30
0.0
  0
VERTEX
  5
8B44
  8
0
 10
551.13049016685875
 20
843.34164504347461
 30
0.0
  0
VERTEX
  5
8B45
  8
0
 10
551.56605335975314
 20
843.27113835749287
 30
0.0
  0
SEQEND
  5
8B46
  8
0
  0
POLYLINE
  5
3C7C
  8
0
 66
     1
 10
0.0
 20
0.0
 30
0.0
 70
   128
  0
VERTEX
  5
8B47
  8
0
 10
550.43396146988243
 20
821.0500875967507
 30
0.0
  0
VERTEX
  5
8B48
  8
0
 10
549.74122994203094
 20
821.07810854953914
 30
0.0
  0
VERTEX
  5
8B49
  8
0
 10
549.2261158247843
 20
821.13541431245358
 30
0.0
  0
VERTEX
  5
8B4A
  8
0
 10
548.92184252293089
 20
821.22925982262871
 30
0.0
  0
VERTEX
  5
8B4B
  8
0
 10
548.85592249245974
 20
821.35652413872606
 30
0.0
  0
VERTEX
  5
8B4C
  8
0
 10
549.02030902896195
 20
821.50408846793516
 30
0.0
  0
VERTEX
  5
8B4D
  8
0
 10
549.39277225978799
 20
821.65273115032039
 30
0.0
  0
VERTEX
  5
8B4E
  8
0
 10
549.94389622491781
 20
821.77763678181316
 30
0.0
  0
VERTEX
  5
8B4F
  8
0
 10
550.43396146988243
 20
821.83784818240997
 30
0.0
  0
SEQEND
  5
8B50
  8
0
  0
POLYLINE
  5
3C7D
  8
0
 66
     1
 10
0.0
 20
0.0
 30
0.0
 70
   128
  0
VERTEX
  5
8B51
  8
0
 10
551.56605335975314
 20
821.0500875967507
 30
0.0
  0
VERTEX
  5
8B52
  8
0
 10
550.86952466277671
 20
821.04455619535338
 30
0.0
  0
VERTEX
  5
8B53
  8
0
 10
550.43396146988243
 20
821.0500875967507
 30
0.0
  0
SEQEND
  5
8B54
  8
0
  0
POLYLINE
  5
3C7E
  8
0
 66
     1
 10
0.0
 20
0.0
 30
0.0
 70
   128
  0
VERTEX
  5
8B55
  8
0
 10
551.56605335975314
 20
821.83784818240997
 30
0.0
  0
VERTEX
  5
8B56
  8
0
 10
552.25878488760054
 20
821.74005203440277
 30
0.0
  0
VERTEX
  5
8B57
  8
0
 10
552.77389900484866
 20
821.5967443102345
 30
0.0
  0
VERTEX
  5
8B58
  8
0
 10
553.07817230670344
 20
821.43853476770937
 30
0.0
  0
VERTEX
  5
8B59
  8
0
 10
553.14409233717618
 20
821.29600638308727
 30
0.0
  0
VERTEX
  5
8B5A
  8
0
 10
552.97970580067545
 20
821.18563238805189
 30
0.0
  0
VERTEX
  5
8B5B
  8
0
 10
552.60724256985065
 20
821.11042044242765
 30
0.0
  0
VERTEX
  5
8B5C
  8
0
 10
552.05611860472163
 20
821.06640036659201
 30
0.0
  0
VERTEX
  5
8B5D
  8
0
 10
551.56605335975314
 20
821.0500875967507
 30
0.0
  0
SEQEND
  5
8B5E
  8
0
  0
POLYLINE
  5
3C7F
  8
0
 66
     1
 10
0.0
 20
0.0
 30
0.0
 70
   128
  0
VERTEX
  5
8B5F
  8
0
 10
550.43396146988243
 20
821.83784818240997
 30
0.0
  0
VERTEX
  5
8B60
  8
0
 10
551.13049016685875
 20
821.86101370129143
 30
0.0
  0
VERTEX
  5
8B61
  8
0
 10
551.56605335975314
 20
821.83784818240997
 30
0.0
  0
SEQEND
  5
8B62
  8
0
  0
LINE
  5
3C80
  8
0
 10
561.5000074148179
 20
820.99999766051712
 30
0.0
 11
561.5000074148179
 21
854.99999766051735
 31
0.0
  0
LINE
  5
3C81
  8
0
 10
562.00000741481756
 20
854.49999766051724
 30
0.0
 11
562.00000741481756
 21
821.49999766051724
 31
0.0
  0
ARC
  5
3C82
  8
0
 10
551.04517868786479
 20
841.28759347442565
 30
0.0
 40
2.0507951450493631
 50
284.71355011070619
 51
75.286449889293834
  0
ARC
  5
3C83
  8
0
 10
550.95483614177056
 20
841.28759347442565
 30
0.0
 40
2.0507951450492912
 50
104.71355011069851
 51
255.28644988930401
  0
ARC
  5
3C84
  8
0
 10
551.00000741481779
 20
840.93786106704283
 30
0.0
 40
2.1024596423750679
 50
5.2140085955817508
 51
174.78599140430171
  0
LINE
  5
3C87
  8
0
 10
533.0000074148179
 20
853.99999766051712
 30
0.0
 11
533.0000074148179
 21
849.74999766051735
 31
0.0
  0
LINE
  5
3C88
  8
0
 10
533.0000074148179
 20
842.24999766051747
 30
0.0
 11
533.0000074148179
 21
833.74999766051758
 31
0.0
  0
LINE
  5
3C89
  8
0
 10
533.0000074148179
 20
826.24999766051769
 30
0.0
 11
533.0000074148179
 21
821.99999766051735
 31
0.0
  0
LINE
  5
3C8A
  8
0
 10
495.25000741481779
 20
849.43186102569075
 30
0.0
 11
495.25000741481779
 21
826.5681342953435
 31
0.0
  0
LINE
  5
3C8B
  8
0
 10
494.0000074148179
 20
825.74999766051724
 30
0.0
 11
494.0000074148179
 21
850.24999766051724
 31
0.0
  0
ARC
  5
3C8E
  8
0
 10
536.0000074148179
 20
838.32217334905306
 30
0.0
 40
1.9231240195710619
 50
240.61160913280929
 51
299.38839086719361
  0
ARC
  5
3C8F
  8
0
 10
536.0000074148179
 20
837.99999766051735
 30
0.0
 40
1.6500000000000199
 50
304.88681713750282
 51
55.113182862494249
  0
ARC
  5
3C90
  8
0
 10
536.0000074148179
 20
837.67894881866016
 30
0.0
 40
1.9221422626604669
 50
60.59512591154494
 51
119.4048740884523
  0
ARC
  5
3C91
  8
0
 10
536.00000741481836
 20
837.99999766051735
 30
0.0
 40
1.650000000000305
 50
124.88681713752069
 51
235.11318286248439
  0
ARC
  5
3C92
  8
0
 10
485.54570192787781
 20
837.99999766051735
 30
0.0
 40
9.2500000000000302
 50
60.832670617488617
 51
61.213542278204507
  0
ARC
  5
3C95
  8
0
 10
485.54570192787781
 20
837.99999766051735
 30
0.0
 40
9.2500000000000107
 50
298.7864577217955
 51
299.16732938251329
  0
LINE
  5
3C9E
  8
0
 10
490.0000074148179
 20
826.24999766051712
 30
0.0
 11
490.0000074148179
 21
829.89310783586723
 31
0.0
  0
LINE
  5
3CA6
  8
0
 10
490.0000074148179
 20
846.10688748516725
 30
0.0
 11
490.0000074148179
 21
849.74999766051735
 31
0.0
  0
ARC
  5
3CAC
  8
0
 10
490.20000741481789
 20
846.33905878478288
 30
0.0
 40
0.3000000000000981
 50
240.83267061750351
 51
270.0
  0
ARC
  5
3CAD
  8
0
 10
490.20000741481789
 20
829.66093653625148
 30
0.0
 40
0.3000000000000114
 50
90.0
 51
119.1673293825113
  0
CIRCLE
  5
3CAE
  8
0
 10
635.10000741481781
 20
874.49999766051701
 30
0.0
 40
6.4999999999999583
  0
CIRCLE
  5
3CAF
  8
0
 10
635.10000741481781
 20
874.49999766051701
 30
0.0
 40
5.5000000000001608
  0
LINE
  5
3CB0
  8
0
 10
631.92691300268655
 20
873.11022363151062
 30
0.0
 11
634.71703982339181
 21
871.05713027650165
 31
0.0
  0
LINE
  5
3CB1
  8
0
 10
634.71703982339181
 20
871.05713027650165
 30
0.0
 11
637.89013423552319
 21
872.44690430550816
 31
0.0
  0
LINE
  5
3CB2
  8
0
 10
637.89013423552319
 20
872.44690430550816
 30
0.0
 11
638.27310182694885
 21
875.88977168952351
 31
0.0
  0
LINE
  5
3CB3
  8
0
 10
638.27310182694885
 20
875.88977168952351
 30
0.0
 11
635.48297500624381
 21
877.94286504453248
 31
0.0
  0
LINE
  5
3CB4
  8
0
 10
635.48297500624381
 20
877.94286504453248
 30
0.0
 11
632.30988059411266
 21
876.55309101552575
 31
0.0
  0
LINE
  5
3CB5
  8
0
 10
632.30988059411266
 20
876.55309101552575
 30
0.0
 11
631.92691300268655
 21
873.11022363151062
 31
0.0
  0
CIRCLE
  5
3CB6
  8
0
 10
522.50000741481813
 20
820.49999766051724
 30
0.0
 40
6.5000000000000906
  0
CIRCLE
  5
3CB7
  8
0
 10
522.50000741481813
 20
820.49999766051724
 30
0.0
 40
5.5000000000000187
  0
LINE
  5
3CB8
  8
0
 10
519.70988059411275
 20
822.55309101552598
 30
0.0
 11
519.32691300268675
 21
819.11022363151051
 31
0.0
  0
LINE
  5
3CB9
  8
0
 10
519.32691300268675
 20
819.11022363151051
 30
0.0
 11
522.11703982339213
 21
817.05713027650154
 31
0.0
  0
LINE
  5
3CBA
  8
0
 10
522.11703982339213
 20
817.05713027650154
 30
0.0
 11
525.29013423552351
 21
818.44690430550827
 31
0.0
  0
LINE
  5
3CBB
  8
0
 10
525.29013423552351
 20
818.44690430550827
 30
0.0
 11
525.67310182694951
 21
821.8897716895234
 31
0.0
  0
LINE
  5
3CBC
  8
0
 10
525.67310182694951
 20
821.8897716895234
 30
0.0
 11
522.88297500624412
 21
823.94286504453237
 31
0.0
  0
LINE
  5
3CBD
  8
0
 10
522.88297500624412
 20
823.94286504453237
 30
0.0
 11
519.70988059411275
 21
822.55309101552598
 31
0.0
  0
CIRCLE
  5
3CBE
  8
0
 10
522.50000741481813
 20
855.49999766051724
 30
0.0
 40
5.5000000000000187
  0
LINE
  5
3CBF
  8
0
 10
519.70988059411275
 20
857.55309101552598
 30
0.0
 11
519.32691300268675
 21
854.11022363151039
 31
0.0
  0
LINE
  5
3CC0
  8
0
 10
519.32691300268675
 20
854.11022363151039
 30
0.0
 11
522.11703982339213
 21
852.05713027650154
 31
0.0
  0
LINE
  5
3CC1
  8
0
 10
522.11703982339213
 20
852.05713027650154
 30
0.0
 11
525.29013423552351
 21
853.44690430550816
 31
0.0
  0
LINE
  5
3CC2
  8
0
 10
525.29013423552351
 20
853.44690430550816
 30
0.0
 11
525.67310182694951
 21
856.88977168952385
 31
0.0
  0
LINE
  5
3CC3
  8
0
 10
522.88297500624412
 20
858.94286504453248
 30
0.0
 11
519.70988059411275
 21
857.55309101552598
 31
0.0
  0
LINE
  5
3CC4
  8
0
 10
525.67310182694951
 20
856.88977168952385
 30
0.0
 11
522.88297500624412
 21
858.94286504453248
 31
0.0
  0
CIRCLE
  5
3CC5
  8
0
 10
522.50000741481813
 20
855.49999766051724
 30
0.0
 40
6.5000000000000906
  0
CIRCLE
  5
3CC6
  8
0
 10
522.50000741481779
 20
874.49999766051712
 30
0.0
 40
6.4999999999999583
  0
CIRCLE
  5
3CC7
  8
0
 10
522.50000741481779
 20
874.49999766051712
 30
0.0
 40
5.5000000000000187
  0
LINE
  5
3CC8
  8
0
 10
519.70988059411275
 20
876.55309101552575
 30
0.0
 11
519.32691300268675
 21
873.11022363151062
 31
0.0
  0
LINE
  5
3CC9
  8
0
 10
519.32691300268675
 20
873.11022363151062
 30
0.0
 11
522.11703982339213
 21
871.05713027650165
 31
0.0
  0
LINE
  5
3CCA
  8
0
 10
522.11703982339213
 20
871.05713027650165
 30
0.0
 11
525.29013423552351
 21
872.44690430550816
 31
0.0
  0
LINE
  5
3CCB
  8
0
 10
522.88297500624412
 20
877.94286504453271
 30
0.0
 11
519.70988059411275
 21
876.55309101552575
 31
0.0
  0
LINE
  5
3CCC
  8
0
 10
525.67310182694916
 20
875.88977168952351
 30
0.0
 11
522.88297500624412
 21
877.94286504453271
 31
0.0
  0
LINE
  5
3CCD
  8
0
 10
525.29013423552351
 20
872.44690430550816
 30
0.0
 11
525.67310182694916
 21
875.88977168952351
 31
0.0
  0
CIRCLE
  5
3CCE
  8
0
 10
522.50000741481813
 20
801.49999766051735
 30
0.0
 40
6.4999999999999503
  0
CIRCLE
  5
3CCF
  8
0
 10
522.50000741481813
 20
801.49999766051735
 30
0.0
 40
5.4999999999998783
  0
LINE
  5
3CD0
  8
0
 10
519.32691300268675
 20
800.11022363151051
 30
0.0
 11
522.11703982339213
 21
798.05713027650154
 31
0.0
  0
LINE
  5
3CD1
  8
0
 10
522.11703982339213
 20
798.05713027650154
 30
0.0
 11
525.29013423552351
 21
799.44690430550816
 31
0.0
  0
LINE
  5
3CD2
  8
0
 10
525.67310182694951
 20
802.88977168952374
 30
0.0
 11
522.88297500624412
 21
804.94286504453237
 31
0.0
  0
LINE
  5
3CD3
  8
0
 10
522.88297500624412
 20
804.94286504453237
 30
0.0
 11
519.70988059411275
 21
803.55309101552575
 31
0.0
  0
LINE
  5
3CD4
  8
0
 10
525.29013423552351
 20
799.44690430550816
 30
0.0
 11
525.67310182694951
 21
802.88977168952374
 31
0.0
  0
LINE
  5
3CD5
  8
0
 10
519.70988059411275
 20
803.55309101552575
 30
0.0
 11
519.32691300268675
 21
800.11022363151051
 31
0.0
  0
CIRCLE
  5
3CD6
  8
0
 10
635.10000741481804
 20
801.4999976605169
 30
0.0
 40
5.5000000000000027
  0
LINE
  5
3CD7
  8
0
 10
632.30988059411266
 20
803.55309101552575
 30
0.0
 11
631.92691300268655
 21
800.11022363151051
 31
0.0
  0
LINE
  5
3CD8
  8
0
 10
631.92691300268655
 20
800.11022363151051
 30
0.0
 11
634.71703982339204
 21
798.05713027650154
 31
0.0
  0
LINE
  5
3CD9
  8
0
 10
634.71703982339204
 20
798.05713027650154
 30
0.0
 11
637.89013423552319
 21
799.44690430550816
 31
0.0
  0
LINE
  5
3CDA
  8
0
 10
637.89013423552319
 20
799.44690430550816
 30
0.0
 11
638.27310182694919
 21
802.88977168952374
 31
0.0
  0
LINE
  5
3CDB
  8
0
 10
638.27310182694919
 20
802.88977168952374
 30
0.0
 11
635.48297500624403
 21
804.94286504453237
 31
0.0
  0
LINE
  5
3CDC
  8
0
 10
635.48297500624403
 20
804.94286504453237
 30
0.0
 11
632.30988059411266
 21
803.55309101552575
 31
0.0
  0
CIRCLE
  5
3CDD
  8
0
 10
635.10000741481804
 20
801.4999976605169
 30
0.0
 40
6.4999999999999414
  0
CIRCLE
  5
3CDE
  8
0
 10
635.10000741481804
 20
820.49999766051701
 30
0.0
 40
6.5000000000002238
  0
CIRCLE
  5
3CDF
  8
0
 10
635.10000741481804
 20
820.49999766051701
 30
0.0
 40
5.5000000000001439
  0
LINE
  5
3CE0
  8
0
 10
632.30988059411266
 20
822.55309101552598
 30
0.0
 11
631.92691300268655
 21
819.11022363151051
 31
0.0
  0
LINE
  5
3CE1
  8
0
 10
631.92691300268655
 20
819.11022363151051
 30
0.0
 11
634.71703982339204
 21
817.05713027650154
 31
0.0
  0
LINE
  5
3CE2
  8
0
 10
634.71703982339204
 20
817.05713027650154
 30
0.0
 11
637.89013423552319
 21
818.44690430550827
 31
0.0
  0
LINE
  5
3CE3
  8
0
 10
637.89013423552319
 20
818.44690430550827
 30
0.0
 11
638.27310182694919
 21
821.8897716895234
 31
0.0
  0
LINE
  5
3CE4
  8
0
 10
638.27310182694919
 20
821.8897716895234
 30
0.0
 11
635.48297500624403
 21
823.94286504453237
 31
0.0
  0
LINE
  5
3CE5
  8
0
 10
635.48297500624403
 20
823.94286504453237
 30
0.0
 11
632.30988059411266
 21
822.55309101552598
 31
0.0
  0
CIRCLE
  5
3CE6
  8
0
 10
635.10000741481781
 20
855.49999766051701
 30
0.0
 40
5.5000000000001608
  0
LINE
  5
3CE7
  8
0
 10
632.30988059411266
 20
857.55309101552575
 30
0.0
 11
631.92691300268655
 21
854.11022363151039
 31
0.0
  0
LINE
  5
3CE8
  8
0
 10
631.92691300268655
 20
854.11022363151039
 30
0.0
 11
634.71703982339204
 21
852.05713027650154
 31
0.0
  0
LINE
  5
3CE9
  8
0
 10
634.71703982339204
 20
852.05713027650154
 30
0.0
 11
637.89013423552319
 21
853.44690430550816
 31
0.0
  0
LINE
  5
3CEA
  8
0
 10
637.89013423552319
 20
853.44690430550816
 30
0.0
 11
638.27310182694919
 21
856.88977168952385
 31
0.0
  0
LINE
  5
3CEB
  8
0
 10
635.48297500624381
 20
858.94286504453248
 30
0.0
 11
632.30988059411266
 21
857.55309101552575
 31
0.0
  0
LINE
  5
3CEC
  8
0
 10
638.27310182694919
 20
856.88977168952385
 30
0.0
 11
635.48297500624381
 21
858.94286504453248
 31
0.0
  0
CIRCLE
  5
3CED
  8
0
 10
635.10000741481781
 20
855.49999766051701
 30
0.0
 40
6.5000000000000986
  0
LINE
  5
3CF2
  8
0
 10
622.10000741481804
 20
826.74999766051724
 30
0.0
 11
622.10000741481804
 21
833.24999766051724
 31
0.0
  0
LINE
  5
3CF3
  8
0
 10
622.60000741481804
 20
826.24999766051712
 30
0.0
 11
622.60000741481804
 21
833.74999766051724
 31
0.0
  0
LINE
  5
3CFD
  8
0
 10
535.00000741481779
 20
795.74999766051769
 30
0.0
 11
535.00000741481779
 21
788.24999766051769
 31
0.0
  0
LINE
  5
3CFF
  8
0
 10
535.50000741481779
 20
795.24999766051735
 30
0.0
 11
535.50000741481779
 21
788.74999766051769
 31
0.0
  0
LINE
  5
3D00
  8
0
 10
622.10000741481804
 20
861.74999766051724
 30
0.0
 11
622.10000741481804
 21
868.24999766051712
 31
0.0
  0
LINE
  5
3D01
  8
0
 10
622.60000741481804
 20
861.24999766051735
 30
0.0
 11
622.60000741481804
 21
868.74999766051724
 31
0.0
  0
LINE
  5
3D06
  8
0
 10
622.10000741481804
 20
842.74999766051724
 30
0.0
 11
622.10000741481804
 21
849.24999766051724
 31
0.0
  0
LINE
  5
3D07
  8
0
 10
622.60000741481804
 20
842.24999766051701
 30
0.0
 11
622.60000741481804
 21
849.7499976605169
 31
0.0
  0
LINE
  5
3D08
  8
0
 10
622.60000741481804
 20
880.24999766051724
 30
0.0
 11
622.60000741481804
 21
887.74999766051724
 31
0.0
  0
LINE
  5
3D09
  8
0
 10
622.10000741481804
 20
880.74999766051712
 30
0.0
 11
622.10000741481804
 21
887.2499976605169
 31
0.0
  0
LINE
  5
3D0A
  8
0
 10
622.10000741481804
 20
807.74999766051735
 30
0.0
 11
622.10000741481804
 21
814.24999766051724
 31
0.0
  0
LINE
  5
3D0B
  8
0
 10
622.60000741481804
 20
807.24999766051701
 30
0.0
 11
622.60000741481804
 21
814.7499976605169
 31
0.0
  0
LINE
  5
3D10
  8
0
 10
622.60000741481804
 20
788.24999766051701
 30
0.0
 11
622.60000741481815
 21
795.74999766051701
 31
0.0
  0
LINE
  5
3D11
  8
0
 10
622.10000741481804
 20
788.74999766051724
 30
0.0
 11
622.10000741481804
 21
795.24999766051724
 31
0.0
  0
LINE
  5
3D12
  8
0
 10
625.10000741481781
 20
887.99999766051735
 30
0.0
 11
645.1000074148177
 21
887.99999766051735
 31
0.0
  0
LINE
  5
3D14
  8
0
 10
645.1000074148177
 20
886.99999766051712
 30
0.0
 11
625.10000741481781
 21
886.99999766051712
 31
0.0
  0
LINE
  5
3D16
  8
0
 10
625.10000741481804
 20
788.99999766051667
 30
0.0
 11
645.10000741481804
 21
788.99999766051667
 31
0.0
  0
CIRCLE
  5
3D19
  8
0
 10
635.10000741481781
 20
874.49999766051712
 30
0.0
 40
6.7500000000001128
  0
CIRCLE
  5
3D1A
  8
0
 10
635.10000741481781
 20
855.49999766051724
 30
0.0
 40
6.7499999999999707
  0
CIRCLE
  5
3D1B
  8
0
 10
635.10000741481804
 20
820.49999766051701
 30
0.0
 40
6.7500000000001128
  0
CIRCLE
  5
3D1C
  8
0
 10
635.10000741481804
 20
801.49999766051667
 30
0.0
 40
6.7500000000001128
  0
LINE
  5
3D1D
  8
0
 10
645.10000741481804
 20
787.99999766051678
 30
0.0
 11
625.10000741481804
 21
787.99999766051678
 31
0.0
  0
LINE
  5
3D1E
  8
0
 10
645.10000741481804
 20
887.99999766051735
 30
0.0
 11
645.10000741481804
 21
787.99999766051678
 31
0.0
  0
LINE
  5
3D20
  8
0
 10
532.5000074148179
 20
886.99999766051747
 30
0.0
 11
512.5000074148179
 21
886.99999766051747
 31
0.0
  0
LINE
  5
3D21
  8
0
 10
512.50000741481836
 20
788.99999766051667
 30
0.0
 11
532.50000741481836
 21
788.99999766051667
 31
0.0
  0
CIRCLE
  5
3D22
  8
0
 10
522.50000741481836
 20
801.4999976605169
 30
0.0
 40
6.7499999999999707
  0
CIRCLE
  5
3D23
  8
0
 10
522.50000741481813
 20
820.49999766051701
 30
0.0
 40
6.7500000000000417
  0
CIRCLE
  5
3D24
  8
0
 10
522.50000741481813
 20
855.49999766051724
 30
0.0
 40
6.7500000000000417
  0
CIRCLE
  5
3D25
  8
0
 10
522.50000741481813
 20
874.49999766051712
 30
0.0
 40
6.7500000000000417
  0
LINE
  5
3D28
  8
0
 10
512.5000074148179
 20
887.99999766051735
 30
0.0
 11
532.5000074148179
 21
887.99999766051735
 31
0.0
  0
LINE
  5
3D29
  8
0
 10
512.5000074148179
 20
787.99999766051678
 30
0.0
 11
512.5000074148179
 21
887.99999766051735
 31
0.0
  0
LINE
  5
3D2A
  8
0
 10
532.5000074148179
 20
887.99999766051735
 30
0.0
 11
532.5000074148179
 21
787.99999766051678
 31
0.0
  0
LINE
  5
3D2B
  8
0
 10
532.50000741481836
 20
787.99999766051678
 30
0.0
 11
512.50000741481836
 21
787.99999766051678
 31
0.0
  0
LINE
  5
3D2E
  8
0
 10
507.0000074148179
 20
884.99999766051724
 30
0.0
 11
507.0000074148179
 21
791.04729821728142
 31
0.0
  0
LINE
  5
3D2F
  8
0
 10
508.41422097719101
 20
885.99999766051701
 30
0.0
 11
507.0000074148179
 21
884.99999766051724
 31
0.0
  0
ARC
  5
3D32
  8
0
 10
482.00000741481762
 20
837.99999766051735
 30
0.0
 40
17.500000000000021
 50
283.21298036016111
 51
76.787019639841489
  0
LINE
  5
3D33
  8
0
 10
486.0000074148179
 20
884.99999766051724
 30
0.0
 11
486.00000741481767
 21
791.04729821728142
 31
0.0
  0
LINE
  5
3D34
  8
0
 10
507.0000074148179
 20
884.99999766051724
 30
0.0
 11
486.0000074148179
 21
884.99999766051724
 31
0.0
  0
LINE
  5
3D35
  8
0
 10
487.1310920161236
 20
789.99999766051724
 30
0.0
 11
512.50000741481836
 21
789.99999766051724
 31
0.0
  0
LINE
  5
3D36
  8
0
 10
486.0000074148179
 20
791.04729821728142
 30
0.0
 11
487.1310920161236
 21
789.99999766051724
 31
0.0
  0
LINE
  5
3D38
  8
0
 10
486.0000074148179
 20
884.99999766051724
 30
0.0
 11
487.0000074148179
 21
885.99999766051724
 31
0.0
  0
LINE
  5
3D39
  8
0
 10
487.0000074148179
 20
885.99999766051724
 30
0.0
 11
512.50000741481801
 21
885.99999766051701
 31
0.0
  0
LINE
  5
3D3B
  8
0
 10
645.10000741481804
 20
885.99999766051701
 30
0.0
 11
700.10000741481781
 21
885.99999766051724
 31
0.0
  0
LINE
  5
3D3C
  8
0
 10
700.10000741481781
 20
885.99999766051724
 30
0.0
 11
701.10000741481804
 21
884.99999766051735
 31
0.0
  0
LINE
  5
3D3D
  8
0
 10
701.10000741481804
 20
884.99999766051735
 30
0.0
 11
653.1000074148177
 21
884.99999766051724
 31
0.0
  0
LINE
  5
3D3E
  8
0
 10
653.1000074148177
 20
884.99999766051724
 30
0.0
 11
651.6857938524447
 21
885.99999766051701
 31
0.0
  0
LINE
  5
3D3F
  8
0
 10
653.1000074148177
 20
790.99999766051701
 30
0.0
 11
653.1000074148177
 21
884.99999766051724
 31
0.0
  0
LINE
  5
3D40
  8
0
 10
651.6857938524447
 20
789.99999766051701
 30
0.0
 11
653.1000074148177
 21
790.99999766051701
 31
0.0
  0
LINE
  5
3D43
  8
0
 10
701.10000741481804
 20
790.99999766051724
 30
0.0
 11
701.10000741481804
 21
884.99999766051735
 31
0.0
  0
LINE
  5
3D44
  8
0
 10
653.1000074148177
 20
790.99999766051701
 30
0.0
 11
701.10000741481804
 21
790.99999766051724
 31
0.0
  0
CIRCLE
  5
3D45
  8
0
 10
678.1000074148177
 20
837.99999766051735
 30
0.0
 40
19.500000000000028
  0
POLYLINE
  5
3D46
  8
0
 66
     1
 10
0.0
 20
0.0
 30
0.0
 70
   128
  0
VERTEX
  5
8B63
  8
0
 10
673.95965745982096
 20
795.99999766051724
 30
0.0
  0
VERTEX
  5
8B64
  8
0
 10
674.06626685181573
 20
795.14494730220304
 30
0.0
  0
VERTEX
  5
8B65
  8
0
 10
674.37323636173824
 20
794.39302863630076
 30
0.0
  0
VERTEX
  5
8B66
  8
0
 10
674.84354093630407
 20
793.83493415105613
 30
0.0
  0
VERTEX
  5
8B67
  8
0
 10
675.42045490286489
 20
793.53797827798655
 30
0.0
  0
VERTEX
  5
8B68
  8
0
 10
676.03439392270946
 20
793.53797827798655
 30
0.0
  0
VERTEX
  5
8B69
  8
0
 10
676.61130788927028
 20
793.83493415105613
 30
0.0
  0
VERTEX
  5
8B6A
  8
0
 10
677.08161246383679
 20
794.39302863630076
 30
0.0
  0
VERTEX
  5
8B6B
  8
0
 10
677.38858197375896
 20
795.14494730220304
 30
0.0
  0
VERTEX
  5
8B6C
  8
0
 10
677.49519136575373
 20
795.99999766051724
 30
0.0
  0
VERTEX
  5
8B6D
  8
0
 10
677.38858197375896
 20
796.85504801883144
 30
0.0
  0
VERTEX
  5
8B6E
  8
0
 10
677.08161246383679
 20
797.60696668473361
 30
0.0
  0
VERTEX
  5
8B6F
  8
0
 10
676.61130788927028
 20
798.16506116997834
 30
0.0
  0
VERTEX
  5
8B70
  8
0
 10
676.03439392270946
 20
798.46201704304747
 30
0.0
  0
VERTEX
  5
8B71
  8
0
 10
675.42045490286489
 20
798.46201704304747
 30
0.0
  0
VERTEX
  5
8B72
  8
0
 10
674.84354093630407
 20
798.16506116997834
 30
0.0
  0
VERTEX
  5
8B73
  8
0
 10
674.37323636173824
 20
797.60696668473327
 30
0.0
  0
VERTEX
  5
8B74
  8
0
 10
674.06626685181573
 20
796.85504801883121
 30
0.0
  0
VERTEX
  5
8B75
  8
0
 10
673.95965745982096
 20
795.99999766051724
 30
0.0
  0
SEQEND
  5
8B76
  8
0
  0
POLYLINE
  5
3D47
  8
0
 66
     1
 10
0.0
 20
0.0
 30
0.0
 70
   128
  0
VERTEX
  5
8B77
  8
0
 10
673.95965745982096
 20
879.99999766051735
 30
0.0
  0
VERTEX
  5
8B78
  8
0
 10
674.06626685181573
 20
879.14494730220304
 30
0.0
  0
VERTEX
  5
8B79
  8
0
 10
674.37323636173824
 20
878.39302863630053
 30
0.0
  0
VERTEX
  5
8B7A
  8
0
 10
674.84354093630407
 20
877.83493415105602
 30
0.0
  0
VERTEX
  5
8B7B
  8
0
 10
675.42045490286489
 20
877.53797827798655
 30
0.0
  0
VERTEX
  5
8B7C
  8
0
 10
676.03439392270946
 20
877.53797827798655
 30
0.0
  0
VERTEX
  5
8B7D
  8
0
 10
676.61130788927028
 20
877.83493415105602
 30
0.0
  0
VERTEX
  5
8B7E
  8
0
 10
677.08161246383679
 20
878.39302863630053
 30
0.0
  0
VERTEX
  5
8B7F
  8
0
 10
677.38858197375896
 20
879.14494730220304
 30
0.0
  0
VERTEX
  5
8B80
  8
0
 10
677.49519136575373
 20
879.99999766051735
 30
0.0
  0
VERTEX
  5
8B81
  8
0
 10
677.38858197375896
 20
880.85504801883144
 30
0.0
  0
VERTEX
  5
8B82
  8
0
 10
677.08161246383679
 20
881.60696668473327
 30
0.0
  0
VERTEX
  5
8B83
  8
0
 10
676.61130788927028
 20
882.16506116997834
 30
0.0
  0
VERTEX
  5
8B84
  8
0
 10
676.03439392270946
 20
882.46201704304758
 30
0.0
  0
VERTEX
  5
8B85
  8
0
 10
675.42045490286489
 20
882.46201704304758
 30
0.0
  0
VERTEX
  5
8B86
  8
0
 10
674.84354093630407
 20
882.165061169978
 30
0.0
  0
VERTEX
  5
8B87
  8
0
 10
674.37323636173824
 20
881.60696668473327
 30
0.0
  0
VERTEX
  5
8B88
  8
0
 10
674.06626685181573
 20
880.85504801883144
 30
0.0
  0
VERTEX
  5
8B89
  8
0
 10
673.95965745982096
 20
879.99999766051735
 30
0.0
  0
SEQEND
  5
8B8A
  8
0
  0
LINE
  5
3D48
  8
0
 10
700.10000741481781
 20
789.99999766051724
 30
0.0
 11
701.10000741481804
 21
790.99999766051724
 31
0.0
  0
LINE
  5
3D49
  8
0
 10
700.10000741481781
 20
789.99999766051724
 30
0.0
 11
645.10000741481804
 21
789.99999766051701
 31
0.0
  0
LINE
  5
3D4A
  8
0
 10
532.6000074148177
 20
875.99999766051735
 30
0.0
 11
532.5000074148179
 21
875.99999766051735
 31
0.0
  0
LINE
  5
3D4B
  8
0
 10
532.6000074148177
 20
799.99999766051769
 30
0.0
 11
532.50000741481836
 21
799.99999766051769
 31
0.0
  0
LINE
  5
3D4D
  8
0
 10
509.10000741481781
 20
888.24999766051724
 30
0.0
 11
522.90000741481799
 21
888.24999766051724
 31
0.0
  0
LINE
  5
3D4E
  8
0
 10
522.90000741481799
 20
787.74999766051701
 30
0.0
 11
509.10000741481781
 21
787.74999766051701
 31
0.0
  0
LINE
  5
3D50
  8
0
 10
634.20000741481772
 20
892.24999766051724
 30
0.0
 11
648.0000074148179
 21
892.24999766051724
 31
0.0
  0
LINE
  5
3D52
  8
0
 10
648.00000741481756
 20
783.74999766051701
 30
0.0
 11
634.20000741481783
 21
783.74999766051701
 31
0.0
  0
LINE
  5
3D53
  8
0
 10
533.80000741481786
 20
850.24999766051724
 30
0.0
 11
533.80000741481786
 21
849.74999766051735
 31
0.0
  0
LINE
  5
3D54
  8
0
 10
533.80000741481786
 20
842.24999766051747
 30
0.0
 11
533.80000741481786
 21
833.74999766051758
 31
0.0
  0
LINE
  5
3D55
  8
0
 10
533.80000741481786
 20
826.24999766051769
 30
0.0
 11
533.80000741481786
 21
825.74999766051724
 31
0.0
  0
LINE
  5
3D5A
  8
0
 10
621.85858605858061
 20
827.85857630427961
 30
0.0
 11
621.85858605858084
 21
832.14141901675418
 31
0.0
  0
LINE
  5
3D60
  8
0
 10
535.74142877105533
 20
794.14141901675475
 30
0.0
 11
535.74142877105533
 21
789.85857630427995
 31
0.0
  0
LINE
  5
3D61
  8
0
 10
621.85858605858061
 20
862.85857630427984
 30
0.0
 11
621.85858605858061
 21
867.14141901675418
 31
0.0
  0
LINE
  5
3D64
  8
0
 10
621.85858605858061
 20
843.85857630427995
 30
0.0
 11
621.85858605858084
 21
848.1414190167543
 31
0.0
  0
LINE
  5
3D65
  8
0
 10
621.85858605858061
 20
881.85857630427972
 30
0.0
 11
621.85858605858061
 21
886.1414190167543
 31
0.0
  0
LINE
  5
3D66
  8
0
 10
621.85858605858084
 20
808.85857630427984
 30
0.0
 11
621.85858605858084
 21
813.1414190167543
 31
0.0
  0
LINE
  5
3D69
  8
0
 10
621.85858605858084
 20
789.85857630427972
 30
0.0
 11
621.85858605858084
 21
794.14141901675453
 31
0.0
  0
LINE
  5
3D78
  8
0
 10
124.0
 20
475.9999993294478
 30
0.0
 11
124.0
 21
476.9999993294478
 31
0.0
  0
LINE
  5
3D79
  8
0
 10
106.0
 20
476.9999993294478
 30
0.0
 11
106.0
 21
475.9999993294478
 31
0.0
  0
LINE
  5
3D7A
  8
0
 10
245.9999999999998
 20
544.303846906741
 30
0.0
 11
242.9999999999998
 21
549.49999932944775
 31
0.0
  0
LINE
  5
3D7B
  8
0
 10
245.9999999999998
 20
475.9999993294478
 30
0.0
 11
245.9999999999998
 21
544.303846906741
 31
0.0
  0
LINE
  5
3D7C
  8
0
 10
146.1719427401101
 20
599.89159718416113
 30
0.0
 11
145.74999999999969
 21
599.46965444405078
 31
0.0
  0
LINE
  5
3D7D
  8
0
 10
145.74999999999969
 20
580.53034421484494
 30
0.0
 11
146.42108392727661
 21
579.88781424501246
 31
0.0
  0
ARC
  5
3D7E
  8
0
 10
144.7499999999998
 20
582.09999932944788
 30
0.0
 40
1.0000000000000311
 50
0.0000000000077351
 51
89.999999999997556
  0
ARC
  5
3D7F
  8
0
 10
144.7499999999998
 20
597.89999932944784
 30
0.0
 40
1.000000000000085
 50
270.0
 51
359.99999999999147
  0
LINE
  5
3D80
  8
0
 10
138.2499999999998
 20
596.89999932944784
 30
0.0
 11
136.74999999999969
 21
595.39999932944784
 31
0.0
  0
LINE
  5
3D81
  8
0
 10
136.74999999999969
 20
584.59999932944777
 30
0.0
 11
138.2499999999998
 21
583.09999932944777
 31
0.0
  0
LINE
  5
3D82
  8
0
 10
144.7499999999998
 20
596.89999932944784
 30
0.0
 11
138.2499999999998
 21
596.89999932944784
 31
0.0
  0
LINE
  5
3D83
  8
0
 10
138.2499999999998
 20
583.09999932944777
 30
0.0
 11
144.7499999999998
 21
583.09999932944777
 31
0.0
  0
LINE
  5
3D84
  8
0
 10
179.46326932717139
 20
596.89999932944784
 30
0.0
 11
178.91771160562001
 21
596.89999932944784
 31
0.0
  0
LINE
  5
3D85
  8
0
 10
178.91771160562001
 20
583.09999932944777
 30
0.0
 11
179.46326932717139
 21
583.09999932944777
 31
0.0
  0
LINE
  5
3D8A
  8
0
 10
210.5367306728283
 20
583.09999932944766
 30
0.0
 11
211.0822883943799
 21
583.09999932944766
 31
0.0
  0
LINE
  5
3D8B
  8
0
 10
211.0822883943799
 20
596.89999932944761
 30
0.0
 11
210.5367306728283
 21
596.89999932944761
 31
0.0
  0
LINE
  5
3D90
  8
0
 10
141.79484204362299
 20
599.51449648767425
 30
0.0
 11
141.74999999999929
 21
599.46965444405078
 31
0.0
  0
LINE
  5
3D91
  8
0
 10
141.74999999999929
 20
580.53451983083505
 30
0.0
 11
141.92524298411121
 21
580.42256585277289
 31
0.0
  0
ARC
  5
3D92
  8
0
 10
140.74999999999929
 20
582.09999932944788
 30
0.0
 40
1.0000000000000311
 50
0.0000000000038676
 51
90.0
  0
ARC
  5
3D93
  8
0
 10
140.74999999999929
 20
597.89999932944784
 30
0.0
 40
1.000000000000085
 50
270.0
 51
359.99999999999682
  0
LINE
  5
3D94
  8
0
 10
134.24999999999929
 20
596.89999932944784
 30
0.0
 11
132.74999999999929
 21
595.39999932944784
 31
0.0
  0
LINE
  5
3D95
  8
0
 10
132.74999999999929
 20
584.59999932944777
 30
0.0
 11
134.24999999999929
 21
583.09999932944777
 31
0.0
  0
LINE
  5
3D96
  8
0
 10
138.2499999999998
 20
596.89999932944784
 30
0.0
 11
134.24999999999929
 21
596.89999932944784
 31
0.0
  0
LINE
  5
3D97
  8
0
 10
134.24999999999929
 20
583.09999932944777
 30
0.0
 11
138.2499999999998
 21
583.09999932944777
 31
0.0
  0
LINE
  5
3DA0
  8
0
 10
100.0
 20
440.49999932944769
 30
0.0
 11
100.0
 21
474.9999993294478
 31
0.0
  0
LINE
  5
3DA4
  8
0
 10
100.0
 20
440.49999932944769
 30
0.0
 11
100.5000000000002
 21
439.9999993294478
 31
0.0
  0
LINE
  5
3DA5
  8
0
 10
100.0
 20
474.9999993294478
 30
0.0
 11
101.0000000000002
 21
475.9999993294478
 31
0.0
  0
LINE
  5
3DA9
  8
0
 10
185.0000000000002
 20
440.29999932944799
 30
0.0
 11
184.69999999999999
 21
439.9999993294478
 31
0.0
  0
LINE
  5
3DAA
  8
0
 10
186.0
 20
439.9999993294478
 30
0.0
 11
100.5000000000002
 21
439.9999993294478
 31
0.0
  0
CIRCLE
  5
3DB1
  8
0
 10
195.0000000000002
 20
455.99999932944769
 30
0.0
 40
4.2999999999999607
  0
LINE
  5
3DB2
  8
0
 10
101.0000000000002
 20
475.9999993294478
 30
0.0
 11
289.00000000000023
 21
475.9999993294478
 31
0.0
  0
CIRCLE
  5
3DB8
  8
0
 10
195.0000000000002
 20
455.99999932944769
 30
0.0
 40
4.0000000000000213
  0
LINE
  5
3DB9
  8
0
 10
205.0000000000002
 20
445.9999993294478
 30
0.0
 11
185.0000000000002
 21
445.9999993294478
 31
0.0
  0
LINE
  5
3DC1
  8
0
 10
289.50000000000023
 20
439.9999993294478
 30
0.0
 11
204.0000000000002
 21
439.9999993294478
 31
0.0
  0
LINE
  5
3DC2
  8
0
 10
205.30000000000021
 20
439.9999993294478
 30
0.0
 11
205.0000000000002
 21
440.29999932944781
 31
0.0
  0
LINE
  5
3DC4
  8
0
 10
290.00000000000023
 20
474.9999993294478
 30
0.0
 11
290.00000000000023
 21
440.49999932944769
 31
0.0
  0
LINE
  5
3DC5
  8
0
 10
289.50000000000023
 20
439.9999993294478
 30
0.0
 11
290.00000000000023
 21
440.49999932944769
 31
0.0
  0
LINE
  5
3DC6
  8
0
 10
289.00000000000023
 20
475.9999993294478
 30
0.0
 11
290.00000000000023
 21
474.9999993294478
 31
0.0
  0
CIRCLE
  5
3DC7
  8
0
 10
195.0000000000002
 20
455.99999932944769
 30
0.0
 40
3.3999999999999981
  0
LINE
  5
3DCD
  8
0
 10
204.7000000000003
 20
445.9999993294478
 30
0.0
 11
205.0000000000002
 21
445.69999932944779
 31
0.0
  0
LINE
  5
3DCE
  8
0
 10
205.0000000000002
 20
445.9999993294478
 30
0.0
 11
205.0000000000002
 21
440.29999932944781
 31
0.0
  0
LINE
  5
3DD4
  8
0
 10
185.0000000000002
 20
445.69999932944779
 30
0.0
 11
185.3000000000001
 21
445.9999993294478
 31
0.0
  0
LINE
  5
3DD8
  8
0
 10
185.0000000000002
 20
440.29999932944799
 30
0.0
 11
185.0000000000002
 21
445.9999993294478
 31
0.0
  0
POLYLINE
  5
3E06
  8
0
 66
     1
 10
0.0
 20
0.0
 30
0.0
 70
   128
  0
VERTEX
  5
8B8B
  8
0
 10
105.5
 20
484.151493553416
 30
0.0
  0
VERTEX
  5
8B8C
  8
0
 10
107.8271592364033
 20
484.76710949581849
 30
0.0
  0
VERTEX
  5
8B8D
  8
0
 10
110.25
 20
484.99999932944792
 30
0.0
  0
SEQEND
  5
8B8E
  8
0
  0
POLYLINE
  5
3E07
  8
0
 66
     1
 10
0.0
 20
0.0
 30
0.0
 70
   128
  0
VERTEX
  5
8B8F
  8
0
 10
110.25
 20
484.99999932944792
 30
0.0
  0
VERTEX
  5
8B90
  8
0
 10
112.625
 20
484.77603736726462
 30
0.0
  0
VERTEX
  5
8B91
  8
0
 10
115.0
 20
484.151493553416
 30
0.0
  0
SEQEND
  5
8B92
  8
0
  0
LINE
  5
3E08
  8
0
 10
115.0
 20
484.151493553416
 30
0.0
 11
115.0
 21
477.59999932944788
 31
0.0
  0
LINE
  5
3E0A
  8
0
 10
124.5
 20
477.59999932944839
 30
0.0
 11
105.5
 21
477.59999932944788
 31
0.0
  0
POLYLINE
  5
3E0C
  8
0
 66
     1
 10
0.0
 20
0.0
 30
0.0
 70
   128
  0
VERTEX
  5
8B93
  8
0
 10
119.7500000000002
 20
484.99999932944792
 30
0.0
  0
VERTEX
  5
8B94
  8
0
 10
122.125
 20
484.77603736726468
 30
0.0
  0
VERTEX
  5
8B95
  8
0
 10
124.5
 20
484.151493553416
 30
0.0
  0
SEQEND
  5
8B96
  8
0
  0
POLYLINE
  5
3E0F
  8
0
 66
     1
 10
0.0
 20
0.0
 30
0.0
 70
   128
  0
VERTEX
  5
8B97
  8
0
 10
115.0
 20
484.151493553416
 30
0.0
  0
VERTEX
  5
8B98
  8
0
 10
117.3271592364035
 20
484.76710949581849
 30
0.0
  0
VERTEX
  5
8B99
  8
0
 10
119.7500000000002
 20
484.99999932944792
 30
0.0
  0
SEQEND
  5
8B9A
  8
0
  0
LINE
  5
3E12
  8
0
 10
124.5
 20
476.9999993294478
 30
0.0
 11
105.5
 21
476.9999993294478
 31
0.0
  0
LINE
  5
3E13
  8
0
 10
105.5
 20
484.99999932944792
 30
0.0
 11
105.5
 21
476.9999993294478
 31
0.0
  0
LINE
  5
3E14
  8
0
 10
124.5
 20
484.99999932944792
 30
0.0
 11
105.5
 21
484.99999932944792
 31
0.0
  0
LINE
  5
3E15
  8
0
 10
124.5
 20
476.9999993294478
 30
0.0
 11
124.5
 21
484.99999932944792
 31
0.0
  0
LINE
  5
3E18
  8
0
 10
245.9999999999998
 20
544.303846906741
 30
0.0
 11
243.0
 21
544.303846906741
 31
0.0
  0
POLYLINE
  5
3E19
  8
0
 66
     1
 10
0.0
 20
0.0
 30
0.0
 70
   128
  0
VERTEX
  5
8B9B
  8
0
 10
146.1719427401101
 20
599.89159718416113
 30
0.0
  0
VERTEX
  5
8B9C
  8
0
 10
146.63167605250601
 20
600.26916570899436
 30
0.0
  0
VERTEX
  5
8B9D
  8
0
 10
146.99999999999969
 20
600.49715621598136
 30
0.0
  0
SEQEND
  5
8B9E
  8
0
  0
ARC
  5
3E1A
  8
0
 10
151.21564940404781
 20
596.86158105070467
 30
0.0
 40
5.3982099955428744
 50
141.34623380601721
 51
218.6537661939856
  0
ARC
  5
3E1B
  8
0
 10
155.7180124793303
 20
587.74074509017635
 30
0.0
 40
9.9177068182403865
 50
151.5261871856535
 51
208.4738128143475
  0
POLYLINE
  5
3E1C
  8
0
 66
     1
 10
0.0
 20
0.0
 30
0.0
 70
   128
  0
VERTEX
  5
8B9F
  8
0
 10
146.99999999999969
 20
582.24934603888323
 30
0.0
  0
VERTEX
  5
8BA0
  8
0
 10
146.63167604946941
 20
582.02135552986726
 30
0.0
  0
VERTEX
  5
8BA1
  8
0
 10
146.03788606626651
 20
581.49651205225848
 30
0.0
  0
VERTEX
  5
8BA2
  8
0
 10
145.78263525009939
 20
580.93421292796575
 30
0.0
  0
VERTEX
  5
8BA3
  8
0
 10
145.92524298411169
 20
580.41209382343959
 30
0.0
  0
VERTEX
  5
8BA4
  8
0
 10
146.42108392727661
 20
579.88781424501246
 30
0.0
  0
VERTEX
  5
8BA5
  8
0
 10
146.99999999999969
 20
579.51087278622219
 30
0.0
  0
SEQEND
  5
8BA6
  8
0
  0
LINE
  5
3E1D
  8
0
 10
145.74999999999969
 20
599.46965444405078
 30
0.0
 11
145.74999999999969
 21
580.53034421484494
 31
0.0
  0
LINE
  5
3E1E
  8
0
 10
136.74999999999969
 20
584.59999932944777
 30
0.0
 11
136.74999999999969
 21
595.39999932944784
 31
0.0
  0
LINE
  5
3E1F
  8
0
 10
138.2499999999998
 20
596.89999932944784
 30
0.0
 11
138.2499999999998
 21
583.09999932944777
 31
0.0
  0
ARC
  5
3E28
  8
0
 10
143.39786964937861
 20
594.99678060451674
 30
0.0
 40
4.7936890080342121
 50
91.767668070506303
 51
109.5362846957008
  0
POLYLINE
  5
3E29
  8
0
 66
     1
 10
0.0
 20
0.0
 30
0.0
 70
   128
  0
VERTEX
  5
8BA7
  8
0
 10
143.24999999999929
 20
599.78818842190606
 30
0.0
  0
VERTEX
  5
8BA8
  8
0
 10
142.3043232358059
 20
597.87423569991779
 30
0.0
  0
VERTEX
  5
8BA9
  8
0
 10
142.07290517681551
 20
596.89999932944784
 30
0.0
  0
SEQEND
  5
8BAA
  8
0
  0
POLYLINE
  5
3E2C
  8
0
 66
     1
 10
0.0
 20
0.0
 30
0.0
 70
   128
  0
VERTEX
  5
8BAB
  8
0
 10
143.24999999999909
 20
580.21181023698932
 30
0.0
  0
VERTEX
  5
8BAC
  8
0
 10
142.30432323580561
 20
582.12576295897759
 30
0.0
  0
VERTEX
  5
8BAD
  8
0
 10
142.07290517681531
 20
583.09999932944777
 30
0.0
  0
SEQEND
  5
8BAE
  8
0
  0
LINE
  5
3E2D
  8
0
 10
141.74999999999929
 20
599.46965444405078
 30
0.0
 11
141.74999999999929
 21
596.89999932944784
 31
0.0
  0
LINE
  5
3E2E
  8
0
 10
141.74999999999929
 20
583.09999932944777
 30
0.0
 11
141.74999999999929
 21
580.53451983083505
 31
0.0
  0
LINE
  5
3E31
  8
0
 10
143.24999999999929
 20
599.78818842190606
 30
0.0
 11
146.06853397785511
 21
599.78818842190606
 31
0.0
  0
LINE
  5
3E32
  8
0
 10
132.74999999999929
 20
584.59999932944777
 30
0.0
 11
132.74999999999929
 21
595.39999932944784
 31
0.0
  0
LINE
  5
3E33
  8
0
 10
134.24999999999929
 20
596.89999932944784
 30
0.0
 11
134.24999999999929
 21
583.09999932944777
 31
0.0
  0
LINE
  5
3E34
  8
0
 10
143.24999999999909
 20
580.21181023698932
 30
0.0
 11
146.08268959094011
 21
580.21181023698932
 31
0.0
  0
CIRCLE
  5
3E41
  8
0
 10
195.0
 20
589.99999932944775
 30
0.0
 40
8.2499999999999574
  0
CIRCLE
  5
3E42
  8
0
 10
194.99999999999969
 20
589.99999932944775
 30
0.0
 40
7.8452994616207761
  0
ARC
  5
3E43
  8
0
 10
184.12349779126751
 20
594.44569384250838
 30
0.0
 40
0.4999999999991245
 50
123.55008761462
 51
157.76805271864961
  0
ARC
  5
3E47
  8
0
 10
184.1270214463043
 20
585.54569384250362
 30
0.0
 40
0.4999999999937988
 50
202.2773159444605
 51
236.47239830518089
  0
ARC
  5
3E4A
  8
0
 10
184.12349779126819
 20
594.44569384250769
 30
0.0
 40
0.5000000000000427
 50
90.0
 51
123.5500876146513
  0
LINE
  5
3E4B
  8
0
 10
184.12349779126819
 20
594.94569384250781
 30
0.0
 11
186.6561386342218
 21
594.94569384250781
 31
0.0
  0
ARC
  5
3E4C
  8
0
 10
186.6561386342218
 20
594.64569384250785
 30
0.0
 40
0.2999999999999874
 50
330.89181761853291
 51
90.0
  0
ARC
  5
3E4D
  8
0
 10
195.0
 20
589.99999932944775
 30
0.0
 40
9.2500000000000089
 50
150.89181761853601
 51
151.274382955606
  0
ARC
  5
3E50
  8
0
 10
184.1270214463093
 20
585.54569384250772
 30
0.0
 40
0.5000000000000427
 50
236.4723983049748
 51
270.0
  0
ARC
  5
3E51
  8
0
 10
186.66093887573419
 20
585.3456938425079
 30
0.0
 40
0.3000000000000824
 50
270.0
 51
29.167329382506729
  0
LINE
  5
3E52
  8
0
 10
186.66093887573419
 20
585.04569384250772
 30
0.0
 11
184.1270214463093
 21
585.04569384250772
 31
0.0
  0
ARC
  5
3E53
  8
0
 10
195.0
 20
589.99999932944775
 30
0.0
 40
9.2500000000000018
 50
208.78645772179499
 51
209.16732938251189
  0
ARC
  5
3E58
  8
0
 10
205.87650220873161
 20
594.44569384250769
 30
0.0
 40
0.5000000000000697
 50
56.4499123853507
 51
90.0
  0
ARC
  5
3E5A
  8
0
 10
203.34386136577791
 20
594.64569384250808
 30
0.0
 40
0.300000000000053
 50
90.000000000008129
 51
209.10818238147749
  0
LINE
  5
3E5B
  8
0
 10
203.34386136577791
 20
594.94569384250804
 30
0.0
 11
205.87650220873161
 21
594.94569384250804
 31
0.0
  0
ARC
  5
3E5C
  8
0
 10
195.0
 20
589.99999932944775
 30
0.0
 40
9.2499999999999805
 50
28.725617044393928
 51
29.108182381464012
  0
ARC
  5
3E5D
  8
0
 10
205.8765022087355
 20
594.44569384251122
 30
0.0
 40
0.4999999999953046
 50
22.231947281194469
 51
56.449912385502088
  0
ARC
  5
3E5F
  8
0
 10
205.87297855369141
 20
585.54569384250703
 30
0.0
 40
0.4999999999989053
 50
303.52760169499982
 51
337.72268405535817
  0
ARC
  5
3E61
  8
0
 10
205.8729785536905
 20
585.54569384250772
 30
0.0
 40
0.5000000000000427
 50
270.0
 51
303.52760169502812
  0
LINE
  5
3E62
  8
0
 10
205.8729785536905
 20
585.04569384250772
 30
0.0
 11
203.33906112426581
 21
585.04569384250772
 31
0.0
  0
ARC
  5
3E63
  8
0
 10
203.33906112426581
 20
585.3456938425079
 30
0.0
 40
0.3000000000000824
 50
150.83267061748981
 51
270.0
  0
ARC
  5
3E64
  8
0
 10
195.0
 20
589.99999932944775
 30
0.0
 40
9.2500000000000107
 50
330.8326706174887
 51
331.21354227820632
  0
CIRCLE
  5
3E67
  8
0
 10
194.99999999999969
 20
589.99999932944775
 30
0.0
 40
13.500000000000011
  0
CIRCLE
  5
3E6A
  8
0
 10
194.99999999999969
 20
589.99999932944775
 30
0.0
 40
16.499999999999979
  0
CIRCLE
  5
3E6B
  8
0
 10
194.99999999999969
 20
589.99999932944775
 30
0.0
 40
16.999999999999989
  0
CIRCLE
  5
3E6C
  8
0
 10
221.9999999999998
 20
618.99999932944718
 30
0.0
 40
1.8799999999999939
  0
CIRCLE
  5
3E6D
  8
0
 10
221.99999999999929
 20
618.99999932944684
 30
0.0
 40
2.4800000000000431
  0
CIRCLE
  5
3E6E
  8
0
 10
202.9999999999998
 20
618.99999932944718
 30
0.0
 40
1.879999999999975
  0
CIRCLE
  5
3E6F
  8
0
 10
202.99999999999929
 20
618.99999932944684
 30
0.0
 40
2.4800000000000102
  0
CIRCLE
  5
3E70
  8
0
 10
167.99999999999929
 20
618.99999932944684
 30
0.0
 40
2.4800000000000311
  0
CIRCLE
  5
3E71
  8
0
 10
167.99999999999949
 20
618.99999932944718
 30
0.0
 40
1.880000000000023
  0
CIRCLE
  5
3E72
  8
0
 10
240.99999999999929
 20
618.99999932944684
 30
0.0
 40
2.4800000000000169
  0
CIRCLE
  5
3E73
  8
0
 10
240.9999999999998
 20
618.99999932944718
 30
0.0
 40
1.8799999999999899
  0
CIRCLE
  5
3E74
  8
0
 10
186.99999999999929
 20
618.99999932944684
 30
0.0
 40
2.4800000000000408
  0
CIRCLE
  5
3E75
  8
0
 10
186.99999999999969
 20
618.99999932944718
 30
0.0
 40
1.8800000000000381
  0
CIRCLE
  5
3E76
  8
0
 10
148.99999999999929
 20
618.99999932944684
 30
0.0
 40
2.4800000000000111
  0
CIRCLE
  5
3E77
  8
0
 10
148.99999999999969
 20
618.99999932944718
 30
0.0
 40
1.8799999999999699
  0
LINE
  5
3E78
  8
0
 10
244.0000000000002
 20
614.99999932944775
 30
0.0
 11
245.0000000000002
 21
615.99999932944775
 31
0.0
  0
LINE
  5
3E7A
  8
0
 10
244.0000000000002
 20
614.99999932944775
 30
0.0
 11
145.99999999999929
 21
614.99999932944775
 31
0.0
  0
LINE
  5
3E7B
  8
0
 10
144.99999999999929
 20
615.99999932944775
 30
0.0
 11
145.99999999999929
 21
614.99999932944775
 31
0.0
  0
LINE
  5
3E7C
  8
0
 10
244.0000000000002
 20
622.99999932944775
 30
0.0
 11
145.99999999999949
 21
622.99999932944775
 31
0.0
  0
LINE
  5
3E7D
  8
0
 10
245.0000000000002
 20
621.99999932944775
 30
0.0
 11
244.0000000000002
 21
622.99999932944775
 31
0.0
  0
LINE
  5
3E7E
  8
0
 10
245.0000000000002
 20
615.99999932944775
 30
0.0
 11
245.0000000000002
 21
621.99999932944775
 31
0.0
  0
CIRCLE
  5
3E7F
  8
0
 10
148.99999999999949
 20
618.99999932944775
 30
0.0
 40
2.900000000000027
  0
CIRCLE
  5
3E80
  8
0
 10
167.99999999999949
 20
618.99999932944775
 30
0.0
 40
2.900000000000027
  0
CIRCLE
  5
3E81
  8
0
 10
186.99999999999969
 20
618.99999932944775
 30
0.0
 40
2.900000000000027
  0
CIRCLE
  5
3E82
  8
0
 10
202.9999999999998
 20
618.99999932944775
 30
0.0
 40
2.899999999999991
  0
CIRCLE
  5
3E83
  8
0
 10
222.0
 20
618.99999932944775
 30
0.0
 40
2.8999999999999551
  0
CIRCLE
  5
3E84
  8
0
 10
241.0
 20
618.99999932944775
 30
0.0
 40
2.900000000000027
  0
LINE
  5
3E85
  8
0
 10
145.99999999999949
 20
622.99999932944775
 30
0.0
 11
144.99999999999929
 21
621.99999932944775
 31
0.0
  0
LINE
  5
3E86
  8
0
 10
144.99999999999929
 20
615.99999932944775
 30
0.0
 11
144.99999999999929
 21
621.99999932944775
 31
0.0
  0
CIRCLE
  5
3E87
  8
0
 10
148.99999999999949
 20
618.99999932944775
 30
0.0
 40
2.5000000000000351
  0
CIRCLE
  5
3E88
  8
0
 10
167.99999999999949
 20
618.99999932944775
 30
0.0
 40
2.5000000000000351
  0
CIRCLE
  5
3E89
  8
0
 10
186.99999999999969
 20
618.99999932944775
 30
0.0
 40
2.5000000000000351
  0
CIRCLE
  5
3E8A
  8
0
 10
202.9999999999998
 20
618.99999932944775
 30
0.0
 40
2.5
  0
CIRCLE
  5
3E8B
  8
0
 10
222.0
 20
618.99999932944775
 30
0.0
 40
2.5
  0
CIRCLE
  5
3E8C
  8
0
 10
241.0
 20
618.99999932944775
 30
0.0
 40
2.5000000000000351
  0
ARC
  5
3E8D
  8
0
 10
163.5
 20
546.99999932944775
 30
0.0
 40
12.500000000000011
 50
355.41143426421422
 51
355.75197733327258
  0
LINE
  5
3E8E
  8
0
 10
175.95993579437709
 20
545.99999932944775
 30
0.0
 11
147.99999999999969
 21
545.99999932944775
 31
0.0
  0
LINE
  5
3E93
  8
0
 10
176.96291201783629
 20
516.99999932944775
 30
0.0
 11
213.0
 21
516.99999932944775
 31
0.0
  0
LINE
  5
3E96
  8
0
 10
147.99999999999969
 20
593.99999932944786
 30
0.0
 11
177.96327496259909
 21
593.99999932944786
 31
0.0
  0
LINE
  5
3E98
  8
0
 10
212.0367250374008
 20
593.99999932944786
 30
0.0
 11
241.9999999999998
 21
593.99999932944786
 31
0.0
  0
LINE
  5
3E9B
  8
0
 10
147.99999999999969
 20
496.11996861451559
 30
0.0
 11
148.1310846013055
 21
495.9999993294478
 31
0.0
  0
LINE
  5
3E9D
  8
0
 10
159.49999999999969
 20
501.9999993294478
 30
0.0
 11
147.99999999999969
 21
501.9999993294478
 31
0.0
  0
ARC
  5
3E9E
  8
0
 10
159.49999999999969
 20
514.49999932944775
 30
0.0
 40
12.5
 50
270.0
 51
302.1077613003896
  0
LINE
  5
3E9F
  8
0
 10
169.75067779223281
 20
506.17507313396351
 30
0.0
 11
166.14391657482699
 21
503.91187520159878
 31
0.0
  0
ARC
  5
3EA0
  8
0
 10
163.5
 20
516.99999932944775
 30
0.0
 40
12.5
 50
300.00358745470089
 51
355.75197733327258
  0
LINE
  5
3EA1
  8
0
 10
176.96291201783629
 20
516.99999932944775
 30
0.0
 11
175.96565927577419
 21
516.07407340352177
 31
0.0
  0
LINE
  5
3EA2
  8
0
 10
214.04364389474341
 20
515.95635543470439
 30
0.0
 11
213.0
 21
516.99999932944775
 31
0.0
  0
ARC
  5
3EA3
  8
0
 10
226.5
 20
516.99999932944775
 30
0.0
 40
12.500000000000041
 50
184.78928648692801
 51
239.99641254530189
  0
LINE
  5
3EA4
  8
0
 10
223.85608342517281
 20
503.91187520159878
 30
0.0
 11
220.24932220776691
 21
506.17507313396351
 31
0.0
  0
ARC
  5
3EA5
  8
0
 10
230.5
 20
514.49999932944775
 30
0.0
 40
12.500000000000011
 50
237.8922386996112
 51
270.0
  0
LINE
  5
3EA6
  8
0
 10
241.8689153986943
 20
501.9999993294478
 30
0.0
 11
230.5
 21
501.9999993294478
 31
0.0
  0
LINE
  5
3EA8
  8
0
 10
148.1310846013055
 20
495.9999993294478
 30
0.0
 11
241.8689153986943
 21
495.9999993294478
 31
0.0
  0
LINE
  5
3EA9
  8
0
 10
147.99999999999969
 20
545.99999932944775
 30
0.0
 11
146.99999999999969
 21
546.99999932944775
 31
0.0
  0
LINE
  5
3EAC
  8
0
 10
147.99999999999969
 20
593.99999932944786
 30
0.0
 11
146.99999999999969
 21
593.58578576707487
 31
0.0
  0
LINE
  5
3EAD
  8
0
 10
146.99999999999969
 20
475.9999993294478
 30
0.0
 11
146.99999999999969
 21
614.99999932944775
 31
0.0
  0
LINE
  5
3EB4
  8
0
 10
175.96565927577419
 20
516.07407340352177
 30
0.0
 11
175.96565927577419
 21
546.07407340352177
 31
0.0
  0
LINE
  5
3EB6
  8
0
 10
214.04364389474341
 20
546.08096294663505
 30
0.0
 11
214.04364389474341
 21
515.95635543470439
 31
0.0
  0
LINE
  5
3EB8
  8
0
 10
241.8689153986943
 20
545.99999932944775
 30
0.0
 11
214.05127927758491
 21
545.99999932944775
 31
0.0
  0
POLYLINE
  5
3EB9
  8
0
 10
214.04364389474338
 20
546.08096294663471
 30
0.0
 66
     1
 70
     8
  0
VERTEX
  8
0
  5
8CCB
 10
214.044
 20
546.081
 30
0.000000
  70
    32
  0
VERTEX
  8
0
  5
8CCC
 10
214.044
 20
546.080
 30
0.000000
  70
    32
  0
VERTEX
  8
0
  5
8CCD
 10
214.044
 20
546.080
 30
0.000000
  70
    32
  0
VERTEX
  8
0
  5
8CCE
 10
214.044
 20
546.079
 30
0.000000
  70
    32
  0
VERTEX
  8
0
  5
8CCF
 10
214.044
 20
546.078
 30
0.000000
  70
    32
  0
VERTEX
  8
0
  5
8CD0
 10
214.044
 20
546.078
 30
0.000000
  70
    32
  0
VERTEX
  8
0
  5
8CD1
 10
214.044
 20
546.077
 30
0.000000
  70
    32
  0
VERTEX
  8
0
  5
8CD2
 10
214.044
 20
546.077
 30
0.000000
  70
    32
  0
VERTEX
  8
0
  5
8CD3
 10
214.044
 20
546.076
 30
0.000000
  70
    32
  0
VERTEX
  8
0
  5
8CD4
 10
214.044
 20
546.075
 30
0.000000
  70
    32
  0
VERTEX
  8
0
  5
8CD5
 10
214.044
 20
546.075
 30
0.000000
  70
    32
  0
VERTEX
  8
0
  5
8CD6
 10
214.044
 20
546.074
 30
0.000000
  70
    32
  0
VERTEX
  8
0
  5
8CD7
 10
214.044
 20
546.073
 30
0.000000
  70
    32
  0
VERTEX
  8
0
  5
8CD8
 10
214.044
 20
546.073
 30
0.000000
  70
    32
  0
VERTEX
  8
0
  5
8CD9
 10
214.044
 20
546.072
 30
0.000000
  70
    32
  0
VERTEX
  8
0
  5
8CDA
 10
214.045
 20
546.071
 30
0.000000
  70
    32
  0
VERTEX
  8
0
  5
8CDB
 10
214.045
 20
546.071
 30
0.000000
  70
    32
  0
VERTEX
  8
0
  5
8CDC
 10
214.045
 20
546.070
 30
0.000000
  70
    32
  0
VERTEX
  8
0
  5
8CDD
 10
214.045
 20
546.070
 30
0.000000
  70
    32
  0
VERTEX
  8
0
  5
8CDE
 10
214.045
 20
546.069
 30
0.000000
  70
    32
  0
VERTEX
  8
0
  5
8CDF
 10
214.045
 20
546.068
 30
0.000000
  70
    32
  0
VERTEX
  8
0
  5
8CE0
 10
214.045
 20
546.068
 30
0.000000
  70
    32
  0
VERTEX
  8
0
  5
8CE1
 10
214.045
 20
546.067
 30
0.000000
  70
    32
  0
VERTEX
  8
0
  5
8CE2
 10
214.045
 20
546.066
 30
0.000000
  70
    32
  0
VERTEX
  8
0
  5
8CE3
 10
214.045
 20
546.066
 30
0.000000
  70
    32
  0
VERTEX
  8
0
  5
8CE4
 10
214.045
 20
546.065
 30
0.000000
  70
    32
  0
VERTEX
  8
0
  5
8CE5
 10
214.045
 20
546.065
 30
0.000000
  70
    32
  0
VERTEX
  8
0
  5
8CE6
 10
214.045
 20
546.064
 30
0.000000
  70
    32
  0
VERTEX
  8
0
  5
8CE7
 10
214.045
 20
546.063
 30
0.000000
  70
    32
  0
VERTEX
  8
0
  5
8CE8
 10
214.045
 20
546.063
 30
0.000000
  70
    32
  0
VERTEX
  8
0
  5
8CE9
 10
214.045
 20
546.062
 30
0.000000
  70
    32
  0
VERTEX
  8
0
  5
8CEA
 10
214.045
 20
546.061
 30
0.000000
  70
    32
  0
VERTEX
  8
0
  5
8CEB
 10
214.045
 20
546.061
 30
0.000000
  70
    32
  0
VERTEX
  8
0
  5
8CEC
 10
214.046
 20
546.060
 30
0.000000
  70
    32
  0
VERTEX
  8
0
  5
8CED
 10
214.046
 20
546.059
 30
0.000000
  70
    32
  0
VERTEX
  8
0
  5
8CEE
 10
214.046
 20
546.059
 30
0.000000
  70
    32
  0
VERTEX
  8
0
  5
8CEF
 10
214.046
 20
546.058
 30
0.000000
  70
    32
  0
VERTEX
  8
0
  5
8CF0
 10
214.046
 20
546.058
 30
0.000000
  70
    32
  0
VERTEX
  8
0
  5
8CF1
 10
214.046
 20
546.057
 30
0.000000
  70
    32
  0
VERTEX
  8
0
  5
8CF2
 10
214.046
 20
546.056
 30
0.000000
  70
    32
  0
VERTEX
  8
0
  5
8CF3
 10
214.046
 20
546.056
 30
0.000000
  70
    32
  0
VERTEX
  8
0
  5
8CF4
 10
214.046
 20
546.055
 30
0.000000
  70
    32
  0
VERTEX
  8
0
  5
8CF5
 10
214.046
 20
546.054
 30
0.000000
  70
    32
  0
VERTEX
  8
0
  5
8CF6
 10
214.046
 20
546.054
 30
0.000000
  70
    32
  0
VERTEX
  8
0
  5
8CF7
 10
214.046
 20
546.053
 30
0.000000
  70
    32
  0
VERTEX
  8
0
  5
8CF8
 10
214.046
 20
546.052
 30
0.000000
  70
    32
  0
VERTEX
  8
0
  5
8CF9
 10
214.046
 20
546.052
 30
0.000000
  70
    32
  0
VERTEX
  8
0
  5
8CFA
 10
214.046
 20
546.051
 30
0.000000
  70
    32
  0
VERTEX
  8
0
  5
8CFB
 10
214.046
 20
546.051
 30
0.000000
  70
    32
  0
VERTEX
  8
0
  5
8CFC
 10
214.046
 20
546.050
 30
0.000000
  70
    32
  0
VERTEX
  8
0
  5
8CFD
 10
214.047
 20
546.049
 30
0.000000
  70
    32
  0
VERTEX
  8
0
  5
8CFE
 10
214.047
 20
546.049
 30
0.000000
  70
    32
  0
VERTEX
  8
0
  5
8CFF
 10
214.047
 20
546.048
 30
0.000000
  70
    32
  0
VERTEX
  8
0
  5
8D00
 10
214.047
 20
546.047
 30
0.000000
  70
    32
  0
VERTEX
  8
0
  5
8D01
 10
214.047
 20
546.047
 30
0.000000
  70
    32
  0
VERTEX
  8
0
  5
8D02
 10
214.047
 20
546.046
 30
0.000000
  70
    32
  0
VERTEX
  8
0
  5
8D03
 10
214.047
 20
546.046
 30
0.000000
  70
    32
  0
VERTEX
  8
0
  5
8D04
 10
214.047
 20
546.045
 30
0.000000
  70
    32
  0
VERTEX
  8
0
  5
8D05
 10
214.047
 20
546.044
 30
0.000000
  70
    32
  0
VERTEX
  8
0
  5
8D06
 10
214.047
 20
546.044
 30
0.000000
  70
    32
  0
VERTEX
  8
0
  5
8D07
 10
214.047
 20
546.043
 30
0.000000
  70
    32
  0
VERTEX
  8
0
  5
8D08
 10
214.047
 20
546.042
 30
0.000000
  70
    32
  0
VERTEX
  8
0
  5
8D09
 10
214.047
 20
546.042
 30
0.000000
  70
    32
  0
VERTEX
  8
0
  5
8D0A
 10
214.047
 20
546.041
 30
0.000000
  70
    32
  0
VERTEX
  8
0
  5
8D0B
 10
214.047
 20
546.040
 30
0.000000
  70
    32
  0
VERTEX
  8
0
  5
8D0C
 10
214.047
 20
546.040
 30
0.000000
  70
    32
  0
VERTEX
  8
0
  5
8D0D
 10
214.048
 20
546.039
 30
0.000000
  70
    32
  0
VERTEX
  8
0
  5
8D0E
 10
214.048
 20
546.039
 30
0.000000
  70
    32
  0
VERTEX
  8
0
  5
8D0F
 10
214.048
 20
546.038
 30
0.000000
  70
    32
  0
VERTEX
  8
0
  5
8D10
 10
214.048
 20
546.037
 30
0.000000
  70
    32
  0
VERTEX
  8
0
  5
8D11
 10
214.048
 20
546.037
 30
0.000000
  70
    32
  0
VERTEX
  8
0
  5
8D12
 10
214.048
 20
546.036
 30
0.000000
  70
    32
  0
VERTEX
  8
0
  5
8D13
 10
214.048
 20
546.035
 30
0.000000
  70
    32
  0
VERTEX
  8
0
  5
8D14
 10
214.048
 20
546.035
 30
0.000000
  70
    32
  0
VERTEX
  8
0
  5
8D15
 10
214.048
 20
546.034
 30
0.000000
  70
    32
  0
VERTEX
  8
0
  5
8D16
 10
214.048
 20
546.034
 30
0.000000
  70
    32
  0
VERTEX
  8
0
  5
8D17
 10
214.048
 20
546.033
 30
0.000000
  70
    32
  0
VERTEX
  8
0
  5
8D18
 10
214.048
 20
546.032
 30
0.000000
  70
    32
  0
VERTEX
  8
0
  5
8D19
 10
214.048
 20
546.032
 30
0.000000
  70
    32
  0
VERTEX
  8
0
  5
8D1A
 10
214.048
 20
546.031
 30
0.000000
  70
    32
  0
VERTEX
  8
0
  5
8D1B
 10
214.048
 20
546.030
 30
0.000000
  70
    32
  0
VERTEX
  8
0
  5
8D1C
 10
214.048
 20
546.030
 30
0.000000
  70
    32
  0
VERTEX
  8
0
  5
8D1D
 10
214.048
 20
546.029
 30
0.000000
  70
    32
  0
VERTEX
  8
0
  5
8D1E
 10
214.049
 20
546.028
 30
0.000000
  70
    32
  0
VERTEX
  8
0
  5
8D1F
 10
214.049
 20
546.028
 30
0.000000
  70
    32
  0
VERTEX
  8
0
  5
8D20
 10
214.049
 20
546.027
 30
0.000000
  70
    32
  0
VERTEX
  8
0
  5
8D21
 10
214.049
 20
546.027
 30
0.000000
  70
    32
  0
VERTEX
  8
0
  5
8D22
 10
214.049
 20
546.026
 30
0.000000
  70
    32
  0
VERTEX
  8
0
  5
8D23
 10
214.049
 20
546.025
 30
0.000000
  70
    32
  0
VERTEX
  8
0
  5
8D24
 10
214.049
 20
546.025
 30
0.000000
  70
    32
  0
VERTEX
  8
0
  5
8D25
 10
214.049
 20
546.024
 30
0.000000
  70
    32
  0
VERTEX
  8
0
  5
8D26
 10
214.049
 20
546.023
 30
0.000000
  70
    32
  0
VERTEX
  8
0
  5
8D27
 10
214.049
 20
546.023
 30
0.000000
  70
    32
  0
VERTEX
  8
0
  5
8D28
 10
214.049
 20
546.022
 30
0.000000
  70
    32
  0
VERTEX
  8
0
  5
8D29
 10
214.049
 20
546.022
 30
0.000000
  70
    32
  0
VERTEX
  8
0
  5
8D2A
 10
214.049
 20
546.021
 30
0.000000
  70
    32
  0
VERTEX
  8
0
  5
8D2B
 10
214.049
 20
546.020
 30
0.000000
  70
    32
  0
VERTEX
  8
0
  5
8D2C
 10
214.049
 20
546.020
 30
0.000000
  70
    32
  0
VERTEX
  8
0
  5
8D2D
 10
214.049
 20
546.019
 30
0.000000
  70
    32
  0
VERTEX
  8
0
  5
8D2E
 10
214.049
 20
546.018
 30
0.000000
  70
    32
  0
VERTEX
  8
0
  5
8D2F
 10
214.050
 20
546.018
 30
0.000000
  70
    32
  0
VERTEX
  8
0
  5
8D30
 10
214.050
 20
546.017
 30
0.000000
  70
    32
  0
VERTEX
  8
0
  5
8D31
 10
214.050
 20
546.016
 30
0.000000
  70
    32
  0
VERTEX
  8
0
  5
8D32
 10
214.050
 20
546.016
 30
0.000000
  70
    32
  0
VERTEX
  8
0
  5
8D33
 10
214.050
 20
546.015
 30
0.000000
  70
    32
  0
VERTEX
  8
0
  5
8D34
 10
214.050
 20
546.015
 30
0.000000
  70
    32
  0
VERTEX
  8
0
  5
8D35
 10
214.050
 20
546.014
 30
0.000000
  70
    32
  0
VERTEX
  8
0
  5
8D36
 10
214.050
 20
546.013
 30
0.000000
  70
    32
  0
VERTEX
  8
0
  5
8D37
 10
214.050
 20
546.013
 30
0.000000
  70
    32
  0
VERTEX
  8
0
  5
8D38
 10
214.050
 20
546.012
 30
0.000000
  70
    32
  0
VERTEX
  8
0
  5
8D39
 10
214.050
 20
546.011
 30
0.000000
  70
    32
  0
VERTEX
  8
0
  5
8D3A
 10
214.050
 20
546.011
 30
0.000000
  70
    32
  0
VERTEX
  8
0
  5
8D3B
 10
214.050
 20
546.010
 30
0.000000
  70
    32
  0
VERTEX
  8
0
  5
8D3C
 10
214.050
 20
546.009
 30
0.000000
  70
    32
  0
VERTEX
  8
0
  5
8D3D
 10
214.050
 20
546.009
 30
0.000000
  70
    32
  0
VERTEX
  8
0
  5
8D3E
 10
214.050
 20
546.008
 30
0.000000
  70
    32
  0
VERTEX
  8
0
  5
8D3F
 10
214.051
 20
546.008
 30
0.000000
  70
    32
  0
VERTEX
  8
0
  5
8D40
 10
214.051
 20
546.007
 30
0.000000
  70
    32
  0
VERTEX
  8
0
  5
8D41
 10
214.051
 20
546.006
 30
0.000000
  70
    32
  0
VERTEX
  8
0
  5
8D42
 10
214.051
 20
546.006
 30
0.000000
  70
    32
  0
VERTEX
  8
0
  5
8D43
 10
214.051
 20
546.005
 30
0.000000
  70
    32
  0
VERTEX
  8
0
  5
8D44
 10
214.051
 20
546.004
 30
0.000000
  70
    32
  0
VERTEX
  8
0
  5
8D45
 10
214.051
 20
546.004
 30
0.000000
  70
    32
  0
VERTEX
  8
0
  5
8D46
 10
214.051
 20
546.003
 30
0.000000
  70
    32
  0
VERTEX
  8
0
  5
8D47
 10
214.051
 20
546.003
 30
0.000000
  70
    32
  0
VERTEX
  8
0
  5
8D48
 10
214.051
 20
546.002
 30
0.000000
  70
    32
  0
VERTEX
  8
0
  5
8D49
 10
214.051
 20
546.001
 30
0.000000
  70
    32
  0
VERTEX
  8
0
  5
8D4A
 10
214.051
 20
546.001
 30
0.000000
  70
    32
  0
VERTEX
  8
0
  5
8D4B
 10
214.051
 20
546.000
 30
0.000000
  70
    32
  0
SEQEND
  8
0
  5
8D4C
  0
LINE
  5
3EBC
  8
0
 10
243.0
 20
547.04729988621227
 30
0.0
 11
241.8689153986943
 21
545.99999932944775
 31
0.0
  0
POLYLINE
  5
3EC4
  8
0
 10
147.99999999999989
 20
496.11996861451564
 30
0.0
 66
     1
 70
     8
  0
VERTEX
  8
0
  5
8D4D
 10
148.000
 20
496.120
 30
0.000000
  70
    32
  0
VERTEX
  8
0
  5
8D4E
 10
147.992
 20
496.127
 30
0.000000
  70
    32
  0
VERTEX
  8
0
  5
8D4F
 10
147.985
 20
496.134
 30
0.000000
  70
    32
  0
VERTEX
  8
0
  5
8D50
 10
147.977
 20
496.141
 30
0.000000
  70
    32
  0
VERTEX
  8
0
  5
8D51
 10
147.970
 20
496.148
 30
0.000000
  70
    32
  0
VERTEX
  8
0
  5
8D52
 10
147.962
 20
496.155
 30
0.000000
  70
    32
  0
VERTEX
  8
0
  5
8D53
 10
147.955
 20
496.162
 30
0.000000
  70
    32
  0
VERTEX
  8
0
  5
8D54
 10
147.947
 20
496.169
 30
0.000000
  70
    32
  0
VERTEX
  8
0
  5
8D55
 10
147.940
 20
496.176
 30
0.000000
  70
    32
  0
VERTEX
  8
0
  5
8D56
 10
147.932
 20
496.183
 30
0.000000
  70
    32
  0
VERTEX
  8
0
  5
8D57
 10
147.925
 20
496.190
 30
0.000000
  70
    32
  0
VERTEX
  8
0
  5
8D58
 10
147.917
 20
496.197
 30
0.000000
  70
    32
  0
VERTEX
  8
0
  5
8D59
 10
147.910
 20
496.205
 30
0.000000
  70
    32
  0
VERTEX
  8
0
  5
8D5A
 10
147.902
 20
496.212
 30
0.000000
  70
    32
  0
VERTEX
  8
0
  5
8D5B
 10
147.894
 20
496.219
 30
0.000000
  70
    32
  0
VERTEX
  8
0
  5
8D5C
 10
147.887
 20
496.226
 30
0.000000
  70
    32
  0
VERTEX
  8
0
  5
8D5D
 10
147.879
 20
496.233
 30
0.000000
  70
    32
  0
VERTEX
  8
0
  5
8D5E
 10
147.872
 20
496.240
 30
0.000000
  70
    32
  0
VERTEX
  8
0
  5
8D5F
 10
147.864
 20
496.247
 30
0.000000
  70
    32
  0
VERTEX
  8
0
  5
8D60
 10
147.856
 20
496.254
 30
0.000000
  70
    32
  0
VERTEX
  8
0
  5
8D61
 10
147.849
 20
496.261
 30
0.000000
  70
    32
  0
VERTEX
  8
0
  5
8D62
 10
147.841
 20
496.268
 30
0.000000
  70
    32
  0
VERTEX
  8
0
  5
8D63
 10
147.834
 20
496.275
 30
0.000000
  70
    32
  0
VERTEX
  8
0
  5
8D64
 10
147.826
 20
496.282
 30
0.000000
  70
    32
  0
VERTEX
  8
0
  5
8D65
 10
147.818
 20
496.289
 30
0.000000
  70
    32
  0
VERTEX
  8
0
  5
8D66
 10
147.811
 20
496.297
 30
0.000000
  70
    32
  0
VERTEX
  8
0
  5
8D67
 10
147.803
 20
496.304
 30
0.000000
  70
    32
  0
VERTEX
  8
0
  5
8D68
 10
147.796
 20
496.311
 30
0.000000
  70
    32
  0
VERTEX
  8
0
  5
8D69
 10
147.788
 20
496.318
 30
0.000000
  70
    32
  0
VERTEX
  8
0
  5
8D6A
 10
147.780
 20
496.325
 30
0.000000
  70
    32
  0
VERTEX
  8
0
  5
8D6B
 10
147.773
 20
496.332
 30
0.000000
  70
    32
  0
VERTEX
  8
0
  5
8D6C
 10
147.765
 20
496.339
 30
0.000000
  70
    32
  0
VERTEX
  8
0
  5
8D6D
 10
147.757
 20
496.346
 30
0.000000
  70
    32
  0
VERTEX
  8
0
  5
8D6E
 10
147.750
 20
496.353
 30
0.000000
  70
    32
  0
VERTEX
  8
0
  5
8D6F
 10
147.742
 20
496.360
 30
0.000000
  70
    32
  0
VERTEX
  8
0
  5
8D70
 10
147.734
 20
496.367
 30
0.000000
  70
    32
  0
VERTEX
  8
0
  5
8D71
 10
147.727
 20
496.375
 30
0.000000
  70
    32
  0
VERTEX
  8
0
  5
8D72
 10
147.719
 20
496.382
 30
0.000000
  70
    32
  0
VERTEX
  8
0
  5
8D73
 10
147.711
 20
496.389
 30
0.000000
  70
    32
  0
VERTEX
  8
0
  5
8D74
 10
147.703
 20
496.396
 30
0.000000
  70
    32
  0
VERTEX
  8
0
  5
8D75
 10
147.696
 20
496.403
 30
0.000000
  70
    32
  0
VERTEX
  8
0
  5
8D76
 10
147.688
 20
496.410
 30
0.000000
  70
    32
  0
VERTEX
  8
0
  5
8D77
 10
147.680
 20
496.417
 30
0.000000
  70
    32
  0
VERTEX
  8
0
  5
8D78
 10
147.673
 20
496.424
 30
0.000000
  70
    32
  0
VERTEX
  8
0
  5
8D79
 10
147.665
 20
496.431
 30
0.000000
  70
    32
  0
VERTEX
  8
0
  5
8D7A
 10
147.657
 20
496.439
 30
0.000000
  70
    32
  0
VERTEX
  8
0
  5
8D7B
 10
147.649
 20
496.446
 30
0.000000
  70
    32
  0
VERTEX
  8
0
  5
8D7C
 10
147.642
 20
496.453
 30
0.000000
  70
    32
  0
VERTEX
  8
0
  5
8D7D
 10
147.634
 20
496.460
 30
0.000000
  70
    32
  0
VERTEX
  8
0
  5
8D7E
 10
147.626
 20
496.467
 30
0.000000
  70
    32
  0
VERTEX
  8
0
  5
8D7F
 10
147.619
 20
496.474
 30
0.000000
  70
    32
  0
VERTEX
  8
0
  5
8D80
 10
147.611
 20
496.481
 30
0.000000
  70
    32
  0
VERTEX
  8
0
  5
8D81
 10
147.603
 20
496.488
 30
0.000000
  70
    32
  0
VERTEX
  8
0
  5
8D82
 10
147.595
 20
496.496
 30
0.000000
  70
    32
  0
VERTEX
  8
0
  5
8D83
 10
147.587
 20
496.503
 30
0.000000
  70
    32
  0
VERTEX
  8
0
  5
8D84
 10
147.580
 20
496.510
 30
0.000000
  70
    32
  0
VERTEX
  8
0
  5
8D85
 10
147.572
 20
496.517
 30
0.000000
  70
    32
  0
VERTEX
  8
0
  5
8D86
 10
147.564
 20
496.524
 30
0.000000
  70
    32
  0
VERTEX
  8
0
  5
8D87
 10
147.556
 20
496.531
 30
0.000000
  70
    32
  0
VERTEX
  8
0
  5
8D88
 10
147.549
 20
496.538
 30
0.000000
  70
    32
  0
VERTEX
  8
0
  5
8D89
 10
147.541
 20
496.546
 30
0.000000
  70
    32
  0
VERTEX
  8
0
  5
8D8A
 10
147.533
 20
496.553
 30
0.000000
  70
    32
  0
VERTEX
  8
0
  5
8D8B
 10
147.525
 20
496.560
 30
0.000000
  70
    32
  0
VERTEX
  8
0
  5
8D8C
 10
147.517
 20
496.567
 30
0.000000
  70
    32
  0
VERTEX
  8
0
  5
8D8D
 10
147.510
 20
496.574
 30
0.000000
  70
    32
  0
VERTEX
  8
0
  5
8D8E
 10
147.502
 20
496.581
 30
0.000000
  70
    32
  0
VERTEX
  8
0
  5
8D8F
 10
147.494
 20
496.589
 30
0.000000
  70
    32
  0
VERTEX
  8
0
  5
8D90
 10
147.486
 20
496.596
 30
0.000000
  70
    32
  0
VERTEX
  8
0
  5
8D91
 10
147.478
 20
496.603
 30
0.000000
  70
    32
  0
VERTEX
  8
0
  5
8D92
 10
147.470
 20
496.610
 30
0.000000
  70
    32
  0
VERTEX
  8
0
  5
8D93
 10
147.463
 20
496.617
 30
0.000000
  70
    32
  0
VERTEX
  8
0
  5
8D94
 10
147.455
 20
496.624
 30
0.000000
  70
    32
  0
VERTEX
  8
0
  5
8D95
 10
147.447
 20
496.632
 30
0.000000
  70
    32
  0
VERTEX
  8
0
  5
8D96
 10
147.439
 20
496.639
 30
0.000000
  70
    32
  0
VERTEX
  8
0
  5
8D97
 10
147.431
 20
496.646
 30
0.000000
  70
    32
  0
VERTEX
  8
0
  5
8D98
 10
147.423
 20
496.653
 30
0.000000
  70
    32
  0
VERTEX
  8
0
  5
8D99
 10
147.415
 20
496.660
 30
0.000000
  70
    32
  0
VERTEX
  8
0
  5
8D9A
 10
147.408
 20
496.667
 30
0.000000
  70
    32
  0
VERTEX
  8
0
  5
8D9B
 10
147.400
 20
496.675
 30
0.000000
  70
    32
  0
VERTEX
  8
0
  5
8D9C
 10
147.392
 20
496.682
 30
0.000000
  70
    32
  0
VERTEX
  8
0
  5
8D9D
 10
147.384
 20
496.689
 30
0.000000
  70
    32
  0
VERTEX
  8
0
  5
8D9E
 10
147.376
 20
496.696
 30
0.000000
  70
    32
  0
VERTEX
  8
0
  5
8D9F
 10
147.368
 20
496.703
 30
0.000000
  70
    32
  0
VERTEX
  8
0
  5
8DA0
 10
147.360
 20
496.710
 30
0.000000
  70
    32
  0
VERTEX
  8
0
  5
8DA1
 10
147.352
 20
496.718
 30
0.000000
  70
    32
  0
VERTEX
  8
0
  5
8DA2
 10
147.344
 20
496.725
 30
0.000000
  70
    32
  0
VERTEX
  8
0
  5
8DA3
 10
147.336
 20
496.732
 30
0.000000
  70
    32
  0
VERTEX
  8
0
  5
8DA4
 10
147.329
 20
496.739
 30
0.000000
  70
    32
  0
VERTEX
  8
0
  5
8DA5
 10
147.321
 20
496.746
 30
0.000000
  70
    32
  0
VERTEX
  8
0
  5
8DA6
 10
147.313
 20
496.754
 30
0.000000
  70
    32
  0
VERTEX
  8
0
  5
8DA7
 10
147.305
 20
496.761
 30
0.000000
  70
    32
  0
VERTEX
  8
0
  5
8DA8
 10
147.297
 20
496.768
 30
0.000000
  70
    32
  0
VERTEX
  8
0
  5
8DA9
 10
147.289
 20
496.775
 30
0.000000
  70
    32
  0
VERTEX
  8
0
  5
8DAA
 10
147.281
 20
496.782
 30
0.000000
  70
    32
  0
VERTEX
  8
0
  5
8DAB
 10
147.273
 20
496.790
 30
0.000000
  70
    32
  0
VERTEX
  8
0
  5
8DAC
 10
147.265
 20
496.797
 30
0.000000
  70
    32
  0
VERTEX
  8
0
  5
8DAD
 10
147.257
 20
496.804
 30
0.000000
  70
    32
  0
VERTEX
  8
0
  5
8DAE
 10
147.249
 20
496.811
 30
0.000000
  70
    32
  0
VERTEX
  8
0
  5
8DAF
 10
147.241
 20
496.818
 30
0.000000
  70
    32
  0
VERTEX
  8
0
  5
8DB0
 10
147.233
 20
496.826
 30
0.000000
  70
    32
  0
VERTEX
  8
0
  5
8DB1
 10
147.225
 20
496.833
 30
0.000000
  70
    32
  0
VERTEX
  8
0
  5
8DB2
 10
147.217
 20
496.840
 30
0.000000
  70
    32
  0
VERTEX
  8
0
  5
8DB3
 10
147.209
 20
496.847
 30
0.000000
  70
    32
  0
VERTEX
  8
0
  5
8DB4
 10
147.201
 20
496.855
 30
0.000000
  70
    32
  0
VERTEX
  8
0
  5
8DB5
 10
147.193
 20
496.862
 30
0.000000
  70
    32
  0
VERTEX
  8
0
  5
8DB6
 10
147.185
 20
496.869
 30
0.000000
  70
    32
  0
VERTEX
  8
0
  5
8DB7
 10
147.177
 20
496.876
 30
0.000000
  70
    32
  0
VERTEX
  8
0
  5
8DB8
 10
147.169
 20
496.883
 30
0.000000
  70
    32
  0
VERTEX
  8
0
  5
8DB9
 10
147.161
 20
496.891
 30
0.000000
  70
    32
  0
VERTEX
  8
0
  5
8DBA
 10
147.153
 20
496.898
 30
0.000000
  70
    32
  0
VERTEX
  8
0
  5
8DBB
 10
147.145
 20
496.905
 30
0.000000
  70
    32
  0
VERTEX
  8
0
  5
8DBC
 10
147.137
 20
496.912
 30
0.000000
  70
    32
  0
VERTEX
  8
0
  5
8DBD
 10
147.129
 20
496.920
 30
0.000000
  70
    32
  0
VERTEX
  8
0
  5
8DBE
 10
147.121
 20
496.927
 30
0.000000
  70
    32
  0
VERTEX
  8
0
  5
8DBF
 10
147.113
 20
496.934
 30
0.000000
  70
    32
  0
VERTEX
  8
0
  5
8DC0
 10
147.105
 20
496.941
 30
0.000000
  70
    32
  0
VERTEX
  8
0
  5
8DC1
 10
147.097
 20
496.948
 30
0.000000
  70
    32
  0
VERTEX
  8
0
  5
8DC2
 10
147.089
 20
496.956
 30
0.000000
  70
    32
  0
VERTEX
  8
0
  5
8DC3
 10
147.081
 20
496.963
 30
0.000000
  70
    32
  0
VERTEX
  8
0
  5
8DC4
 10
147.073
 20
496.970
 30
0.000000
  70
    32
  0
VERTEX
  8
0
  5
8DC5
 10
147.065
 20
496.977
 30
0.000000
  70
    32
  0
VERTEX
  8
0
  5
8DC6
 10
147.057
 20
496.985
 30
0.000000
  70
    32
  0
VERTEX
  8
0
  5
8DC7
 10
147.049
 20
496.992
 30
0.000000
  70
    32
  0
VERTEX
  8
0
  5
8DC8
 10
147.040
 20
496.999
 30
0.000000
  70
    32
  0
VERTEX
  8
0
  5
8DC9
 10
147.032
 20
497.006
 30
0.000000
  70
    32
  0
VERTEX
  8
0
  5
8DCA
 10
147.024
 20
497.014
 30
0.000000
  70
    32
  0
VERTEX
  8
0
  5
8DCB
 10
147.016
 20
497.021
 30
0.000000
  70
    32
  0
VERTEX
  8
0
  5
8DCC
 10
147.008
 20
497.028
 30
0.000000
  70
    32
  0
VERTEX
  8
0
  5
8DCD
 10
147.000
 20
497.035
 30
0.000000
  70
    32
  0
SEQEND
  8
0
  5
8DCE
  0
LINE
  5
3EC5
  8
0
 10
147.99999999999969
 20
501.9999993294478
 30
0.0
 11
146.99999999999969
 21
502.41421289182091
 31
0.0
  0
LINE
  5
3EC9
  8
0
 10
241.8689153986943
 20
501.9999993294478
 30
0.0
 11
241.95269944323559
 21
502.10971093324468
 31
0.0
  0
LINE
  5
3ECA
  8
0
 10
243.0
 20
502.35002137939938
 30
0.0
 11
241.95269944323559
 21
502.10971093324468
 31
0.0
  0
LINE
  5
3ECB
  8
0
 10
242.9999999999998
 20
497.0304874492391
 30
0.0
 11
241.8689153986943
 21
495.9999993294478
 31
0.0
  0
LINE
  5
3ED1
  8
0
 10
242.9999999999998
 20
614.99999932944775
 30
0.0
 11
242.9999999999998
 21
475.9999993294478
 31
0.0
  0
LINE
  5
3EE8
  8
0
 10
144.7499999999998
 20
583.09999932944777
 30
0.0
 11
144.7499999999998
 21
596.89999932944784
 31
0.0
  0
LINE
  5
3EFC
  8
0
 10
919.10000556707462
 20
544.303846906741
 30
0.0
 11
919.10000556707462
 21
475.9999993294478
 31
0.0
  0
LINE
  5
3EFD
  8
0
 10
922.10000556707485
 20
549.49999932944775
 30
0.0
 11
919.10000556707462
 21
544.303846906741
 31
0.0
  0
LINE
  5
3F08
  8
0
 10
987.80283020044874
 20
583.09999932944777
 30
0.0
 11
988.33842655135868
 21
583.09999932944777
 31
0.0
  0
LINE
  5
3F09
  8
0
 10
988.33842655135868
 20
596.89999932944784
 30
0.0
 11
987.80283020044874
 21
596.89999932944784
 31
0.0
  0
LINE
  5
3F0A
  8
0
 10
917.69562454492041
 20
600.31527342189725
 30
0.0
 11
916.85000556707394
 21
599.46965444405078
 31
0.0
  0
LINE
  5
3F0B
  8
0
 10
916.85000556707394
 20
580.53034421484494
 30
0.0
 11
917.69562454492041
 21
579.68472523699825
 31
0.0
  0
ARC
  5
3F0C
  8
0
 10
915.85000556707394
 20
582.09999932944788
 30
0.0
 40
1.000000000000014
 50
0.0
 51
90.0
  0
ARC
  5
3F0D
  8
0
 10
915.85000556707394
 20
597.89999932944784
 30
0.0
 40
1.000000000000014
 50
270.0
 51
0.0
  0
LINE
  5
3F0E
  8
0
 10
952.39718093370004
 20
596.89999932944784
 30
0.0
 11
951.86158458278908
 21
596.89999932944784
 31
0.0
  0
LINE
  5
3F0F
  8
0
 10
951.86158458278908
 20
583.09999932944777
 30
0.0
 11
952.39718093370004
 21
583.09999932944777
 31
0.0
  0
LINE
  5
3F10
  8
0
 10
915.85000556707394
 20
596.89999932944784
 30
0.0
 11
909.35000556707371
 21
596.89999932944784
 31
0.0
  0
LINE
  5
3F11
  8
0
 10
909.35000556707371
 20
583.09999932944777
 30
0.0
 11
915.85000556707394
 21
583.09999932944777
 31
0.0
  0
LINE
  5
3F12
  8
0
 10
909.35000556707371
 20
596.89999932944784
 30
0.0
 11
907.85000556707394
 21
595.39999932944784
 31
0.0
  0
LINE
  5
3F13
  8
0
 10
907.85000556707394
 20
584.59999932944777
 30
0.0
 11
909.35000556707371
 21
583.09999932944777
 31
0.0
  0
LINE
  5
3F14
  8
0
 10
1064.100005567074
 20
475.9999993294478
 30
0.0
 11
1065.100005567074
 21
474.9999993294478
 31
0.0
  0
LINE
  5
3F17
  8
0
 10
1065.100005567074
 20
474.9999993294478
 30
0.0
 11
1065.100005567074
 21
440.49999932944769
 31
0.0
  0
LINE
  5
3F18
  8
0
 10
1064.600005567074
 20
439.9999993294478
 30
0.0
 11
1065.100005567074
 21
440.49999932944769
 31
0.0
  0
LINE
  5
3F1D
  8
0
 10
1064.600005567074
 20
439.9999993294478
 30
0.0
 11
979.10000556707337
 21
439.9999993294478
 31
0.0
  0
LINE
  5
3F21
  8
0
 10
876.10000556707382
 20
475.9999993294478
 30
0.0
 11
1064.100005567074
 21
475.9999993294478
 31
0.0
  0
CIRCLE
  5
3F27
  8
0
 10
970.10000556707394
 20
455.99999932944769
 30
0.0
 40
4.3000000000000682
  0
CIRCLE
  5
3F2F
  8
0
 10
970.10000556707394
 20
455.99999932944769
 30
0.0
 40
4.000000000000056
  0
LINE
  5
3F35
  8
0
 10
961.10000556707337
 20
439.9999993294478
 30
0.0
 11
875.60000556707371
 21
439.9999993294478
 31
0.0
  0
LINE
  5
3F37
  8
0
 10
875.10000556707382
 20
474.9999993294478
 30
0.0
 11
876.10000556707382
 21
475.9999993294478
 31
0.0
  0
LINE
  5
3F39
  8
0
 10
875.10000556707382
 20
440.49999932944769
 30
0.0
 11
875.60000556707371
 21
439.9999993294478
 31
0.0
  0
LINE
  5
3F3A
  8
0
 10
875.10000556707382
 20
440.49999932944769
 30
0.0
 11
875.10000556707382
 21
474.9999993294478
 31
0.0
  0
CIRCLE
  5
3F3B
  8
0
 10
970.10000556707394
 20
455.99999932944769
 30
0.0
 40
3.3999999999998911
  0
LINE
  5
3F8E
  8
0
 10
922.10000556707394
 20
544.303846906741
 30
0.0
 11
919.10000556707462
 21
544.303846906741
 31
0.0
  0
POLYLINE
  5
3F9F
  8
0
 66
     1
 10
0.0
 20
0.0
 30
0.0
 70
   128
  0
VERTEX
  5
8BAF
  8
0
 10
918.35000556707371
 20
600.87897510849427
 30
0.0
  0
VERTEX
  5
8BB0
  8
0
 10
917.40432880288074
 20
599.99930906619943
 30
0.0
  0
VERTEX
  5
8BB1
  8
0
 10
916.90528663614168
 20
599.03372307433483
 30
0.0
  0
VERTEX
  5
8BB2
  8
0
 10
916.94035269970675
 20
598.35727180446736
 30
0.0
  0
VERTEX
  5
8BB3
  8
0
 10
917.2989268419891
 20
597.67181993791007
 30
0.0
  0
VERTEX
  5
8BB4
  8
0
 10
918.35000556707371
 20
596.6584681454774
 30
0.0
  0
SEQEND
  5
8BB5
  8
0
  0
ARC
  5
3FA0
  8
0
 10
928.01292957489557
 20
591.21898025595385
 30
0.0
 40
11.08873883186064
 50
150.6238132205379
 51
209.3761867794617
  0
POLYLINE
  5
3FA1
  8
0
 66
     1
 10
0.0
 20
0.0
 30
0.0
 70
   128
  0
VERTEX
  5
8BB6
  8
0
 10
918.35000556707371
 20
585.77949236643053
 30
0.0
  0
VERTEX
  5
8BB7
  8
0
 10
917.73168161654405
 20
584.94557354606422
 30
0.0
  0
VERTEX
  5
8BB8
  8
0
 10
917.13789163334059
 20
583.80203527805008
 30
0.0
  0
VERTEX
  5
8BB9
  8
0
 10
916.88264081717386
 20
582.57688798341474
 30
0.0
  0
VERTEX
  5
8BBA
  8
0
 10
917.02524855118588
 20
581.43928562774215
 30
0.0
  0
VERTEX
  5
8BBB
  8
0
 10
917.52108949435114
 20
580.29697599325709
 30
0.0
  0
VERTEX
  5
8BBC
  8
0
 10
918.35000556707371
 20
579.12102355040076
 30
0.0
  0
SEQEND
  5
8BBD
  8
0
  0
LINE
  5
3FA2
  8
0
 10
918.35000556707371
 20
579.12102355040076
 30
0.0
 11
917.71893916659474
 21
579.70803985867224
 31
0.0
  0
LINE
  5
3FA3
  8
0
 10
916.85000556707394
 20
599.46965444405078
 30
0.0
 11
916.85000556707394
 21
580.53034421484494
 31
0.0
  0
LINE
  5
3FA4
  8
0
 10
918.35000556707371
 20
585.77949236643053
 30
0.0
 11
922.10000556707394
 21
585.77949236643053
 31
0.0
  0
LINE
  5
3FA5
  8
0
 10
918.35000556707371
 20
596.6584681454774
 30
0.0
 11
922.10000556707394
 21
596.6584681454774
 31
0.0
  0
LINE
  5
3FA6
  8
0
 10
918.35000556707371
 20
579.12102355040076
 30
0.0
 11
922.10000556707394
 21
579.12102355040076
 31
0.0
  0
LINE
  5
3FA7
  8
0
 10
909.35000556707371
 20
596.89999932944784
 30
0.0
 11
909.35000556707371
 21
583.09999932944777
 31
0.0
  0
LINE
  5
3FA8
  8
0
 10
907.85000556707394
 20
584.59999932944777
 30
0.0
 11
907.85000556707394
 21
595.39999932944784
 31
0.0
  0
LINE
  5
3FA9
  8
0
 10
918.35000556707371
 20
600.87897510849427
 30
0.0
 11
922.10000556707394
 21
600.87897510849427
 31
0.0
  0
ARC
  5
3FAA
  8
0
 10
970.10000556707394
 20
589.99999932944775
 30
0.0
 40
9.5299999999999603
 50
331.60106650284013
 51
28.398933497169889
  0
LINE
  5
3FAC
  8
0
 10
975.60000556707348
 20
580.47371988781867
 30
0.0
 11
981.10000556707394
 21
589.99999932944775
 31
0.0
  0
ARC
  5
3FAD
  8
0
 10
970.10000556707394
 20
589.99999932944775
 30
0.0
 40
9.5300000000001113
 50
271.60106650282188
 51
328.39893349716118
  0
LINE
  5
3FAE
  8
0
 10
964.60000556707394
 20
580.47371988781867
 30
0.0
 11
975.60000556707394
 21
580.47371988781867
 31
0.0
  0
ARC
  5
3FB0
  8
0
 10
970.10000556707394
 20
589.99999932944775
 30
0.0
 40
9.5300000000000082
 50
31.601066502829791
 51
88.398933497159405
  0
LINE
  5
3FB2
  8
0
 10
981.10000556707394
 20
589.9999993294482
 30
0.0
 11
975.60000556707394
 21
599.52627877107636
 31
0.0
  0
ARC
  5
3FB3
  8
0
 10
970.10000556707394
 20
589.99999932944775
 30
0.0
 40
9.530000000000026
 50
211.6010665028405
 51
268.39893349718062
  0
LINE
  5
3FB5
  8
0
 10
959.10000556707405
 20
589.99999932944752
 30
0.0
 11
964.60000556707394
 21
580.47371988781867
 31
0.0
  0
ARC
  5
3FB6
  8
0
 10
970.10000556707394
 20
589.99999932944775
 30
0.0
 40
9.5299999999999585
 50
91.601066502840581
 51
148.39893349716991
  0
LINE
  5
3FB8
  8
0
 10
975.60000556707394
 20
599.52627877107636
 30
0.0
 11
964.60000556707394
 21
599.52627877107636
 31
0.0
  0
LINE
  5
3FB9
  8
0
 10
964.60000556707428
 20
599.52627877107636
 30
0.0
 11
959.10000556707405
 21
589.99999932944775
 31
0.0
  0
ARC
  5
3FBA
  8
0
 10
970.10000556707394
 20
589.99999932944775
 30
0.0
 40
9.5299999999999603
 50
151.60106650283041
 51
208.39893349716121
  0
CIRCLE
  5
3FC2
  8
0
 10
970.10000556707394
 20
589.99999932944775
 30
0.0
 40
18.500000000000082
  0
CIRCLE
  5
3FC3
  8
0
 10
970.10000556707394
 20
589.99999932944775
 30
0.0
 40
19.00000000000005
  0
CIRCLE
  5
3FC4
  8
0
 10
962.10000556707394
 20
618.99999932944877
 30
0.0
 40
2.4799999999999538
  0
CIRCLE
  5
3FC5
  8
0
 10
962.10000556707394
 20
618.9999993294482
 30
0.0
 40
1.8799999999999979
  0
CIRCLE
  5
3FC6
  8
0
 10
997.10000556707394
 20
618.99999932944877
 30
0.0
 40
2.4799999999999538
  0
CIRCLE
  5
3FC7
  8
0
 10
997.10000556707394
 20
618.9999993294482
 30
0.0
 40
1.8799999999999919
  0
CIRCLE
  5
3FC8
  8
0
 10
978.10000556707394
 20
618.99999932944877
 30
0.0
 40
2.4800000000000959
  0
CIRCLE
  5
3FC9
  8
0
 10
978.10000556707394
 20
618.9999993294482
 30
0.0
 40
1.8799999999999979
  0
CIRCLE
  5
3FCA
  8
0
 10
1016.100005567074
 20
618.99999932944877
 30
0.0
 40
2.480000000000238
  0
CIRCLE
  5
3FCB
  8
0
 10
1016.100005567074
 20
618.9999993294482
 30
0.0
 40
1.8799999999999979
  0
CIRCLE
  5
3FCC
  8
0
 10
943.10000556707382
 20
618.99999932944866
 30
0.0
 40
2.4800000000000768
  0
CIRCLE
  5
3FCD
  8
0
 10
943.10000556707382
 20
618.9999993294482
 30
0.0
 40
1.8799999999999519
  0
CIRCLE
  5
3FCE
  8
0
 10
924.10000556707382
 20
618.99999932944877
 30
0.0
 40
2.4799999999999538
  0
CIRCLE
  5
3FCF
  8
0
 10
924.10000556707416
 20
618.9999993294482
 30
0.0
 40
1.8799999999999919
  0
LINE
  5
3FD0
  8
0
 10
1019.100005567075
 20
614.99999932944775
 30
0.0
 11
1020.100005567075
 21
615.99999932944775
 31
0.0
  0
LINE
  5
3FD2
  8
0
 10
1019.100005567075
 20
614.99999932944775
 30
0.0
 11
921.10000556707371
 21
614.99999932944775
 31
0.0
  0
LINE
  5
3FD3
  8
0
 10
920.10000556707371
 20
615.99999932944775
 30
0.0
 11
921.10000556707371
 21
614.99999932944775
 31
0.0
  0
LINE
  5
3FD4
  8
0
 10
920.10000556707371
 20
615.99999932944775
 30
0.0
 11
920.10000556707371
 21
621.99999932944775
 31
0.0
  0
LINE
  5
3FD5
  8
0
 10
921.10000556707371
 20
622.99999932944775
 30
0.0
 11
920.10000556707371
 21
621.99999932944775
 31
0.0
  0
LINE
  5
3FD6
  8
0
 10
1019.100005567075
 20
622.99999932944775
 30
0.0
 11
921.10000556707371
 21
622.99999932944775
 31
0.0
  0
LINE
  5
3FD7
  8
0
 10
1020.100005567075
 20
621.99999932944775
 30
0.0
 11
1019.100005567075
 21
622.99999932944775
 31
0.0
  0
LINE
  5
3FD8
  8
0
 10
1020.100005567075
 20
615.99999932944775
 30
0.0
 11
1020.100005567075
 21
621.99999932944775
 31
0.0
  0
CIRCLE
  5
3FD9
  8
0
 10
924.10000556707382
 20
618.99999932944775
 30
0.0
 40
2.89999999999992
  0
CIRCLE
  5
3FDA
  8
0
 10
943.10000556707382
 20
618.99999932944775
 30
0.0
 40
2.9000000000002042
  0
CIRCLE
  5
3FDB
  8
0
 10
962.10000556707394
 20
618.99999932944775
 30
0.0
 40
2.9000000000000621
  0
CIRCLE
  5
3FDC
  8
0
 10
978.10000556707394
 20
618.99999932944775
 30
0.0
 40
2.9000000000000621
  0
CIRCLE
  5
3FDD
  8
0
 10
997.10000556707439
 20
618.99999932944775
 30
0.0
 40
2.9000000000000621
  0
CIRCLE
  5
3FDE
  8
0
 10
1016.100005567074
 20
618.99999932944775
 30
0.0
 40
2.9000000000002042
  0
CIRCLE
  5
3FDF
  8
0
 10
1016.100005567074
 20
618.99999932944775
 30
0.0
 40
2.5000000000001421
  0
CIRCLE
  5
3FE0
  8
0
 10
997.10000556707439
 20
618.99999932944775
 30
0.0
 40
2.5000000000001421
  0
CIRCLE
  5
3FE1
  8
0
 10
978.10000556707394
 20
618.99999932944775
 30
0.0
 40
2.5
  0
CIRCLE
  5
3FE2
  8
0
 10
962.10000556707394
 20
618.99999932944775
 30
0.0
 40
2.5000000000001421
  0
CIRCLE
  5
3FE3
  8
0
 10
943.10000556707382
 20
618.99999932944775
 30
0.0
 40
2.5
  0
CIRCLE
  5
3FE4
  8
0
 10
924.10000556707382
 20
618.99999932944775
 30
0.0
 40
2.5
  0
LINE
  5
3FE5
  8
0
 10
1018.100005567074
 20
566.58578576707464
 30
0.0
 11
1017.100005567074
 21
566.99999932944775
 31
0.0
  0
LINE
  5
3FEA
  8
0
 10
923.10000556707394
 20
566.99999932944775
 30
0.0
 11
1017.100005567074
 21
566.99999932944775
 31
0.0
  0
CIRCLE
  5
3FED
  8
0
 10
970.10000556707394
 20
589.99999932944775
 30
0.0
 40
19.500000000000028
  0
POLYLINE
  5
3FEE
  8
0
 66
     1
 10
0.0
 20
0.0
 30
0.0
 70
   128
  0
VERTEX
  5
8BBE
  8
0
 10
928.10000556707371
 20
594.14034928444471
 30
0.0
  0
VERTEX
  5
8BBF
  8
0
 10
927.24495520875996
 20
594.03373989244983
 30
0.0
  0
VERTEX
  5
8BC0
  8
0
 10
926.49303654285768
 20
593.72677038252755
 30
0.0
  0
VERTEX
  5
8BC1
  8
0
 10
925.93494205761272
 20
593.25646580796138
 30
0.0
  0
VERTEX
  5
8BC2
  8
0
 10
925.63798618454337
 20
592.67955184140055
 30
0.0
  0
VERTEX
  5
8BC3
  8
0
 10
925.63798618454337
 20
592.06561282155599
 30
0.0
  0
VERTEX
  5
8BC4
  8
0
 10
925.93494205761272
 20
591.48869885499505
 30
0.0
  0
VERTEX
  5
8BC5
  8
0
 10
926.49303654285768
 20
591.01839428042888
 30
0.0
  0
VERTEX
  5
8BC6
  8
0
 10
927.24495520875996
 20
590.71142477050671
 30
0.0
  0
VERTEX
  5
8BC7
  8
0
 10
928.10000556707371
 20
590.60481537851183
 30
0.0
  0
VERTEX
  5
8BC8
  8
0
 10
928.95505592538802
 20
590.71142477050671
 30
0.0
  0
VERTEX
  5
8BC9
  8
0
 10
929.70697459129053
 20
591.01839428042888
 30
0.0
  0
VERTEX
  5
8BCA
  8
0
 10
930.26506907653481
 20
591.48869885499505
 30
0.0
  0
VERTEX
  5
8BCB
  8
0
 10
930.56202494960462
 20
592.06561282155599
 30
0.0
  0
VERTEX
  5
8BCC
  8
0
 10
930.56202494960462
 20
592.67955184140067
 30
0.0
  0
VERTEX
  5
8BCD
  8
0
 10
930.26506907653481
 20
593.25646580796138
 30
0.0
  0
VERTEX
  5
8BCE
  8
0
 10
929.70697459129053
 20
593.72677038252755
 30
0.0
  0
VERTEX
  5
8BCF
  8
0
 10
928.95505592538802
 20
594.03373989244983
 30
0.0
  0
VERTEX
  5
8BD0
  8
0
 10
928.10000556707371
 20
594.14034928444471
 30
0.0
  0
SEQEND
  5
8BD1
  8
0
  0
POLYLINE
  5
3FEF
  8
0
 66
     1
 10
0.0
 20
0.0
 30
0.0
 70
   128
  0
VERTEX
  5
8BD2
  8
0
 10
1012.100005567074
 20
594.14034928444471
 30
0.0
  0
VERTEX
  5
8BD3
  8
0
 10
1011.24495520876
 20
594.03373989244983
 30
0.0
  0
VERTEX
  5
8BD4
  8
0
 10
1010.493036542857
 20
593.72677038252755
 30
0.0
  0
VERTEX
  5
8BD5
  8
0
 10
1009.9349420576129
 20
593.25646580796138
 30
0.0
  0
VERTEX
  5
8BD6
  8
0
 10
1009.637986184543
 20
592.67955184140055
 30
0.0
  0
VERTEX
  5
8BD7
  8
0
 10
1009.637986184543
 20
592.06561282155599
 30
0.0
  0
VERTEX
  5
8BD8
  8
0
 10
1009.9349420576129
 20
591.48869885499505
 30
0.0
  0
VERTEX
  5
8BD9
  8
0
 10
1010.493036542857
 20
591.01839428042888
 30
0.0
  0
VERTEX
  5
8BDA
  8
0
 10
1011.24495520876
 20
590.71142477050671
 30
0.0
  0
VERTEX
  5
8BDB
  8
0
 10
1012.100005567074
 20
590.60481537851183
 30
0.0
  0
VERTEX
  5
8BDC
  8
0
 10
1012.955055925388
 20
590.71142477050671
 30
0.0
  0
VERTEX
  5
8BDD
  8
0
 10
1013.70697459129
 20
591.01839428042888
 30
0.0
  0
VERTEX
  5
8BDE
  8
0
 10
1014.265069076535
 20
591.48869885499505
 30
0.0
  0
VERTEX
  5
8BDF
  8
0
 10
1014.562024949605
 20
592.06561282155599
 30
0.0
  0
VERTEX
  5
8BE0
  8
0
 10
1014.562024949605
 20
592.67955184140067
 30
0.0
  0
VERTEX
  5
8BE1
  8
0
 10
1014.265069076535
 20
593.25646580796138
 30
0.0
  0
VERTEX
  5
8BE2
  8
0
 10
1013.70697459129
 20
593.72677038252755
 30
0.0
  0
VERTEX
  5
8BE3
  8
0
 10
1012.955055925388
 20
594.03373989244983
 30
0.0
  0
VERTEX
  5
8BE4
  8
0
 10
1012.100005567074
 20
594.14034928444471
 30
0.0
  0
SEQEND
  5
8BE5
  8
0
  0
LINE
  5
3FF0
  8
0
 10
949.78034545457297
 20
500.9999993294478
 30
0.0
 11
949.78034545457297
 21
475.9999993294478
 31
0.0
  0
LINE
  5
3FF1
  8
0
 10
949.78034545457297
 20
500.9999993294478
 30
0.0
 11
922.10000556707394
 21
500.9999993294478
 31
0.0
  0
LINE
  5
3FF3
  8
0
 10
990.4196656795749
 20
475.9999993294478
 30
0.0
 11
990.4196656795749
 21
500.9999993294478
 31
0.0
  0
ARC
  5
3FF4
  8
0
 10
942.60000556707394
 20
519.49999932944775
 30
0.0
 40
10.0
 50
179.9999999999994
 51
270.0
  0
LINE
  5
3FF5
  8
0
 10
942.60000556707394
 20
509.49999932944769
 30
0.0
 11
997.60000556707394
 21
509.49999932944769
 31
0.0
  0
ARC
  5
3FF6
  8
0
 10
997.60000556707394
 20
519.49999932944775
 30
0.0
 40
10.0
 50
270.0
 51
0.0000000000006107
  0
LINE
  5
3FF7
  8
0
 10
1007.600005567074
 20
519.49999932944775
 30
0.0
 11
1007.600005567074
 21
544.49999932944775
 31
0.0
  0
ARC
  5
3FF8
  8
0
 10
997.60000556707394
 20
544.49999932944775
 30
0.0
 40
10.0
 50
0.0000000000006107
 51
90.0
  0
LINE
  5
3FF9
  8
0
 10
997.60000556707394
 20
554.49999932944775
 30
0.0
 11
942.60000556707394
 21
554.49999932944775
 31
0.0
  0
ARC
  5
3FFA
  8
0
 10
942.60000556707394
 20
544.49999932944775
 30
0.0
 40
10.0
 50
90.0
 51
179.9999999999994
  0
LINE
  5
3FFB
  8
0
 10
932.60000556707371
 20
544.49999932944775
 30
0.0
 11
932.60000556707371
 21
519.49999932944775
 31
0.0
  0
LINE
  5
3FFC
  8
0
 10
1018.100005567074
 20
500.9999993294478
 30
0.0
 11
990.4196656795749
 21
500.9999993294478
 31
0.0
  0
LINE
  5
3FFD
  8
0
 10
1018.100005567074
 20
614.99999932944775
 30
0.0
 11
1018.100005567074
 21
475.9999993294478
 31
0.0
  0
LINE
  5
4001
  8
0
 10
922.10000556707394
 20
475.9999993294478
 30
0.0
 11
922.10000556707394
 21
614.99999932944775
 31
0.0
  0
LINE
  5
4003
  8
0
 10
922.10000556707394
 20
566.58578576707464
 30
0.0
 11
923.10000556707394
 21
566.99999932944775
 31
0.0
  0
LINE
  5
4009
  8
0
 10
915.85000556707394
 20
583.09999932944777
 30
0.0
 11
915.85000556707394
 21
596.89999932944784
 31
0.0
  0
LINE
  5
4012
  8
0
 10
634.20000741481772
 20
134.2499999999994
 30
0.0
 11
635.70000741481795
 21
132.74999999999929
 31
0.0
  0
LINE
  5
4013
  8
0
 10
634.20000741481772
 20
137.53646999450021
 30
0.0
 11
634.20000741481772
 21
134.2499999999994
 31
0.0
  0
LINE
  5
4014
  8
0
 10
634.20000741481772
 20
255.7499999999996
 30
0.0
 11
634.20000741481772
 21
252.46353000549999
 31
0.0
  0
LINE
  5
4015
  8
0
 10
635.70000741481772
 20
257.24999999999972
 30
0.0
 11
634.20000741481772
 21
255.7499999999996
 31
0.0
  0
LINE
  5
4016
  8
0
 10
565.5000074148179
 20
181.1999999999999
 30
0.0
 11
566.0000074148179
 21
181.69999999999979
 31
0.0
  0
LINE
  5
4017
  8
0
 10
566.0000074148179
 20
208.29999999999981
 30
0.0
 11
565.5000074148179
 21
208.79999999999981
 31
0.0
  0
LINE
  5
4018
  8
0
 10
562.0000074148179
 20
181.1999999999999
 30
0.0
 11
565.5000074148179
 21
181.1999999999999
 31
0.0
  0
LINE
  5
4019
  8
0
 10
565.5000074148179
 20
208.79999999999981
 30
0.0
 11
562.0000074148179
 21
208.79999999999981
 31
0.0
  0
LINE
  5
401A
  8
0
 10
568.63205822238649
 20
185.99999999999949
 30
0.0
 11
617.10000741481781
 21
185.99999999999949
 31
0.0
  0
LINE
  5
401B
  8
0
 10
617.10000741481781
 20
203.99999999999949
 30
0.0
 11
568.63205822238649
 21
203.9999999999996
 31
0.0
  0
LINE
  5
401C
  8
0
 10
568.63205822238649
 20
203.99999999999949
 30
0.0
 11
566.90000741481788
 21
202.99999999999949
 31
0.0
  0
LINE
  5
401D
  8
0
 10
566.90000741481788
 20
186.99999999999949
 30
0.0
 11
568.63205822238649
 21
185.99999999999949
 31
0.0
  0
LINE
  5
401E
  8
0
 10
566.0000074148179
 20
186.48038475772881
 30
0.0
 11
566.90000741481788
 21
186.99999999999949
 31
0.0
  0
LINE
  5
401F
  8
0
 10
566.90000741481788
 20
202.99999999999949
 30
0.0
 11
566.0000074148179
 21
203.51961524227019
 31
0.0
  0
LINE
  5
4020
  8
0
 10
548.00000741481779
 20
177.99999999999949
 30
0.0
 11
561.5000074148179
 21
177.99999999999949
 31
0.0
  0
LINE
  5
4021
  8
0
 10
561.5000074148179
 20
211.99999999999949
 30
0.0
 11
548.00000741481779
 21
211.99999999999949
 31
0.0
  0
LINE
  5
4022
  8
0
 10
561.5000074148179
 20
177.99999999999949
 30
0.0
 11
562.00000741481756
 21
178.4999999999994
 31
0.0
  0
LINE
  5
4023
  8
0
 10
562.00000741481756
 20
211.49999999999949
 30
0.0
 11
561.5000074148179
 21
211.99999999999949
 31
0.0
  0
ARC
  5
4024
  8
0
 10
616.60000741481781
 20
200.5
 30
0.0
 40
1.000000000000085
 50
90.0
 51
180.0
  0
ARC
  5
4025
  8
0
 10
616.60000741481781
 20
189.49999999999989
 30
0.0
 40
1.000000000000085
 50
180.00000000000239
 51
270.0
  0
LINE
  5
4026
  8
0
 10
620.60000741481781
 20
201.5
 30
0.0
 11
616.60000741481781
 21
201.5
 31
0.0
  0
LINE
  5
4027
  8
0
 10
616.60000741481781
 20
188.49999999999989
 30
0.0
 11
620.60000741481781
 21
188.49999999999989
 31
0.0
  0
LINE
  5
4028
  8
0
 10
625.10000741481781
 20
198.99999999999989
 30
0.0
 11
620.60000741481781
 21
198.99999999999989
 31
0.0
  0
LINE
  5
4029
  8
0
 10
620.60000741481781
 20
190.99999999999989
 30
0.0
 11
625.10000741481781
 21
190.99999999999989
 31
0.0
  0
LINE
  5
402A
  8
0
 10
633.71869326622345
 20
191.1186858514053
 30
0.0
 11
634.60000741481781
 21
191.99999999999989
 31
0.0
  0
LINE
  5
402B
  8
0
 10
634.60000741481781
 20
198.0
 30
0.0
 11
633.71869326622323
 21
198.8813141485947
 31
0.0
  0
LINE
  5
402C
  8
0
 10
544.5000074148179
 20
188.5
 30
0.0
 11
548.5000074148179
 21
188.5
 31
0.0
  0
LINE
  5
402D
  8
0
 10
548.5000074148179
 20
201.5
 30
0.0
 11
544.5000074148179
 21
201.5
 31
0.0
  0
ARC
  5
402E
  8
0
 10
548.5000074148179
 20
189.49999999999989
 30
0.0
 40
1.000000000000085
 50
270.0
 51
0.0
  0
ARC
  5
402F
  8
0
 10
548.5000074148179
 20
200.5
 30
0.0
 40
1.000000000000085
 50
0.0
 51
90.0
  0
LINE
  5
4030
  8
0
 10
540.0000074148179
 20
191.0
 30
0.0
 11
544.5000074148179
 21
191.0
 31
0.0
  0
LINE
  5
4031
  8
0
 10
544.5000074148179
 20
199.0
 30
0.0
 11
540.0000074148179
 21
199.0
 31
0.0
  0
LINE
  5
4032
  8
0
 10
622.60000741481815
 20
145.2499999999994
 30
0.0
 11
625.10000741481826
 21
145.2499999999994
 31
0.0
  0
LINE
  5
4033
  8
0
 10
622.10000741481804
 20
145.7499999999994
 30
0.0
 11
622.60000741481815
 21
145.2499999999994
 31
0.0
  0
LINE
  5
4034
  8
0
 10
621.85858605858084
 20
146.85857864376209
 30
0.0
 11
622.10000741481804
 21
146.6171572875248
 31
0.0
  0
ARC
  5
4035
  8
0
 10
622.00000741481779
 20
146.9999999999994
 30
0.0
 40
0.1999999999999695
 50
180.0
 51
225.00000000000071
  0
LINE
  5
4036
  8
0
 10
625.10000741481826
 20
244.74999999999949
 30
0.0
 11
622.60000741481815
 21
244.74999999999949
 31
0.0
  0
LINE
  5
4037
  8
0
 10
622.60000741481815
 20
244.74999999999949
 30
0.0
 11
622.10000741481815
 21
244.24999999999949
 31
0.0
  0
LINE
  5
4038
  8
0
 10
622.10000741481815
 20
243.38284271247409
 30
0.0
 11
621.85858605858084
 21
243.1414213562368
 31
0.0
  0
ARC
  5
4039
  8
0
 10
622.00000741481779
 20
242.99999999999949
 30
0.0
 40
0.1999999999999695
 50
134.9999999999992
 51
180.0
  0
LINE
  5
4041
  8
0
 10
517.91088985258443
 20
289.0
 30
0.0
 11
517.91088985258443
 21
289.5
 31
0.0
  0
LINE
  5
4042
  8
0
 10
517.91088985258443
 20
289.0
 30
0.0
 11
524.68912497705116
 21
289.0
 31
0.0
  0
LINE
  5
4043
  8
0
 10
524.68912497705116
 20
289.0
 30
0.0
 11
524.68912497705116
 21
289.5
 31
0.0
  0
LINE
  5
4047
  8
0
 10
524.68912497705116
 20
101.0
 30
0.0
 11
524.68912497705116
 21
100.5
 31
0.0
  0
LINE
  5
4048
  8
0
 10
517.91088985258443
 20
101.0
 30
0.0
 11
524.68912497705116
 21
101.0
 31
0.0
  0
LINE
  5
4049
  8
0
 10
517.91088985258443
 20
101.0
 30
0.0
 11
517.91088985258443
 21
100.5
 31
0.0
  0
CIRCLE
  5
404A
  8
0
 10
517.0000074148179
 20
243.00000000000011
 30
0.0
 40
4.6000000000000076
  0
CIRCLE
  5
404B
  8
0
 10
517.0000074148179
 20
147.0
 30
0.0
 40
4.6000000000000263
  0
LINE
  5
4054
  8
0
 10
517.81088985258418
 20
100.0
 30
0.0
 11
517.91088985258443
 21
100.5
 31
0.0
  0
LINE
  5
4055
  8
0
 10
539.00000741481779
 20
100.0
 30
0.0
 11
443.00000741481779
 21
100.0
 31
0.0
  0
LINE
  5
4057
  8
0
 10
442.0000074148179
 20
129.00000000000239
 30
0.0
 11
442.00000741481762
 21
261.00000000000011
 31
0.0
  0
LINE
  5
405A
  8
0
 10
443.00000741481779
 20
100.0
 30
0.0
 11
442.0000074148179
 21
101.0
 31
0.0
  0
LINE
  5
405C
  8
0
 10
524.68912497705116
 20
100.5
 30
0.0
 11
524.78912497705142
 21
100.0
 31
0.0
  0
LINE
  5
405E
  8
0
 10
540.0000074148179
 20
289.0
 30
0.0
 11
540.0000074148179
 21
101.0
 31
0.0
  0
LINE
  5
405F
  8
0
 10
539.00000741481767
 20
290.00000000000011
 30
0.0
 11
540.0000074148179
 21
289.0
 31
0.0
  0
LINE
  5
4060
  8
0
 10
540.0000074148179
 20
101.0
 30
0.0
 11
539.00000741481779
 21
100.0
 31
0.0
  0
ARC
  5
4062
  8
0
 10
454.0000074148179
 20
132.0
 30
0.0
 40
6.2500000000000169
 50
331.31459798590532
 51
208.68540201409451
  0
ARC
  5
4063
  8
0
 10
486.0000074148179
 20
132.0
 30
0.0
 40
6.2500000000000169
 50
331.31459798590532
 51
208.68540201409451
  0
CIRCLE
  5
4065
  8
0
 10
517.0000074148179
 20
147.0
 30
0.0
 40
3.3999999999999981
  0
ARC
  5
4068
  8
0
 10
502.00000741481779
 20
195.0
 30
0.0
 40
10.00000000000003
 50
270.0
 51
90.0
  0
LINE
  5
406A
  8
0
 10
442.0000074148179
 20
185.0
 30
0.0
 11
502.00000741481779
 21
185.0
 31
0.0
  0
LINE
  5
406C
  8
0
 10
502.00000741481779
 20
205.00000000000011
 30
0.0
 11
442.00000741481779
 21
205.00000000000011
 31
0.0
  0
LINE
  5
4071
  8
0
 10
442.0000074148179
 20
289.0
 30
0.0
 11
443.00000741481779
 21
290.00000000000011
 31
0.0
  0
CIRCLE
  5
4072
  8
0
 10
517.0000074148179
 20
220.00000000000011
 30
0.0
 40
10.0
  0
CIRCLE
  5
4073
  8
0
 10
517.0000074148179
 20
243.00000000000011
 30
0.0
 40
3.3999999999999981
  0
ARC
  5
4074
  8
0
 10
486.0000074148179
 20
258.0
 30
0.0
 40
6.2500000000000142
 50
151.31459798588111
 51
28.685402014118861
  0
ARC
  5
4075
  8
0
 10
454.0000074148179
 20
258.0
 30
0.0
 40
6.2500000000000142
 50
151.31459798588111
 51
28.685402014118861
  0
LINE
  5
4076
  8
0
 10
443.00000741481779
 20
290.00000000000011
 30
0.0
 11
539.00000741481813
 21
290.00000000000011
 31
0.0
  0
LINE
  5
4077
  8
0
 10
517.81088985258418
 20
290.00000000000011
 30
0.0
 11
517.91088985258443
 21
289.5
 31
0.0
  0
LINE
  5
407B
  8
0
 10
524.68912497705116
 20
289.5
 30
0.0
 11
524.78912497705142
 21
290.00000000000011
 31
0.0
  0
LINE
  5
407C
  8
0
 10
520.30000741481786
 20
101.0
 30
0.0
 11
520.30000741481786
 21
100.0
 31
0.0
  0
LINE
  5
407D
  8
0
 10
521.30000741481786
 20
101.0
 30
0.0
 11
521.30000741481786
 21
100.0
 31
0.0
  0
LINE
  5
407F
  8
0
 10
522.30000741481786
 20
101.0
 30
0.0
 11
522.30000741481786
 21
100.0
 31
0.0
  0
LINE
  5
4083
  8
0
 10
522.30000741481786
 20
289.0
 30
0.0
 11
522.30000741481786
 21
290.00000000000011
 31
0.0
  0
LINE
  5
4084
  8
0
 10
521.30000741481786
 20
289.0
 30
0.0
 11
521.30000741481786
 21
290.00000000000011
 31
0.0
  0
LINE
  5
4086
  8
0
 10
520.30000741481786
 20
289.0
 30
0.0
 11
520.30000741481786
 21
290.00000000000011
 31
0.0
  0
CIRCLE
  5
4088
  8
0
 10
517.0000074148179
 20
147.0
 30
0.0
 40
3.0000000000000071
  0
LINE
  5
408D
  8
0
 10
633.41088985258443
 20
101.0
 30
0.0
 11
640.18912497705116
 21
101.0
 31
0.0
  0
LINE
  5
408E
  8
0
 10
633.41088985258443
 20
101.0
 30
0.0
 11
633.41088985258443
 21
100.5
 31
0.0
  0
LINE
  5
4092
  8
0
 10
633.41088985258443
 20
289.0
 30
0.0
 11
633.41088985258443
 21
289.5
 31
0.0
  0
LINE
  5
4094
  8
0
 10
640.18912497705116
 20
289.0
 30
0.0
 11
640.18912497705116
 21
289.5
 31
0.0
  0
LINE
  5
409C
  8
0
 10
640.18912497705116
 20
101.0
 30
0.0
 11
640.18912497705116
 21
100.5
 31
0.0
  0
CIRCLE
  5
40A5
  8
0
 10
634.10000741481781
 20
195.0
 30
0.0
 40
4.1999999999999806
  0
LINE
  5
40A8
  8
0
 10
723.10000741481781
 20
101.0
 30
0.0
 11
722.10000741481781
 21
100.0
 31
0.0
  0
LINE
  5
40AB
  8
0
 10
633.3108898525843
 20
100.0
 30
0.0
 11
633.41088985258443
 21
100.5
 31
0.0
  0
LINE
  5
40AD
  8
0
 10
722.10000741481781
 20
100.0
 30
0.0
 11
626.10000741481781
 21
100.0
 31
0.0
  0
LINE
  5
40AE
  8
0
 10
640.18912497705116
 20
100.5
 30
0.0
 11
640.2891249770513
 21
100.0
 31
0.0
  0
LINE
  5
40B0
  8
0
 10
625.10000741481781
 20
128.9999999999998
 30
0.0
 11
625.10000741481758
 21
261.00000000000023
 31
0.0
  0
LINE
  5
40B1
  8
0
 10
625.10000741481781
 20
289.0
 30
0.0
 11
626.10000741481781
 21
290.00000000000011
 31
0.0
  0
LINE
  5
40B2
  8
0
 10
626.10000741481781
 20
100.0
 30
0.0
 11
625.10000741481781
 21
101.0
 31
0.0
  0
ARC
  5
40B4
  8
0
 10
637.1000074148177
 20
132.0
 30
0.0
 40
6.2500000000000338
 50
331.31459798587798
 51
208.68540201412179
  0
ARC
  5
40B6
  8
0
 10
711.10000741481804
 20
132.0
 30
0.0
 40
6.2500000000000338
 50
331.31459798587798
 51
208.68540201412179
  0
LINE
  5
40B9
  8
0
 10
649.1000074148177
 20
185.0
 30
0.0
 11
723.10000741481781
 21
185.0
 31
0.0
  0
CIRCLE
  5
40BD
  8
0
 10
634.10000741481781
 20
195.0
 30
0.0
 40
3.8999999999999702
  0
LINE
  5
40BE
  8
0
 10
723.10000741481781
 20
205.0
 30
0.0
 11
649.1000074148177
 21
205.00000000000011
 31
0.0
  0
LINE
  5
40C1
  8
0
 10
723.10000741481781
 20
261.00000000000023
 30
0.0
 11
723.10000741481781
 21
128.9999999999998
 31
0.0
  0
LINE
  5
40C3
  8
0
 10
722.10000741481781
 20
290.00000000000011
 30
0.0
 11
723.10000741481781
 21
289.0
 31
0.0
  0
ARC
  5
40C5
  8
0
 10
637.1000074148177
 20
258.0
 30
0.0
 40
6.2500000000000284
 50
151.31459798587991
 51
28.68540201412014
  0
ARC
  5
40C6
  8
0
 10
711.10000741481804
 20
258.0
 30
0.0
 40
6.2500000000000284
 50
151.31459798587991
 51
28.68540201412014
  0
LINE
  5
40C7
  8
0
 10
626.10000741481781
 20
290.00000000000011
 30
0.0
 11
722.10000741481781
 21
290.00000000000011
 31
0.0
  0
LINE
  5
40C9
  8
0
 10
640.18912497705116
 20
289.5
 30
0.0
 11
640.2891249770513
 21
290.00000000000011
 31
0.0
  0
LINE
  5
40CB
  8
0
 10
633.3108898525843
 20
290.00000000000011
 30
0.0
 11
633.41088985258443
 21
289.5
 31
0.0
  0
LINE
  5
40CD
  8
0
 10
636.80000741481786
 20
101.0
 30
0.0
 11
636.80000741481786
 21
100.0
 31
0.0
  0
LINE
  5
40CE
  8
0
 10
637.80000741481786
 20
101.0
 30
0.0
 11
637.80000741481786
 21
100.0
 31
0.0
  0
LINE
  5
40D0
  8
0
 10
635.80000741481786
 20
101.0
 30
0.0
 11
635.80000741481786
 21
100.0
 31
0.0
  0
CIRCLE
  5
40D4
  8
0
 10
665.10000741481781
 20
195.0
 30
0.0
 40
3.9000000000000412
  0
ARC
  5
40D5
  8
0
 10
689.10000741481781
 20
195.0
 30
0.0
 40
3.9000000000000341
 50
130.04502707885101
 51
229.95497292115121
  0
LINE
  5
40D7
  8
0
 10
637.80000741481786
 20
289.0
 30
0.0
 11
637.80000741481786
 21
290.00000000000011
 31
0.0
  0
LINE
  5
40D8
  8
0
 10
636.80000741481786
 20
289.0
 30
0.0
 11
636.80000741481786
 21
290.00000000000011
 31
0.0
  0
LINE
  5
40DA
  8
0
 10
635.80000741481786
 20
289.0
 30
0.0
 11
635.80000741481786
 21
290.00000000000011
 31
0.0
  0
LINE
  5
40E1
  8
0
 10
494.0000074148179
 20
188.0
 30
0.0
 11
442.00000741481762
 21
188.0
 31
0.0
  0
CIRCLE
  5
40E5
  8
0
 10
468.00000741481779
 20
195.0
 30
0.0
 40
5.800000000000054
  0
CIRCLE
  5
40E6
  8
0
 10
452.00000741481779
 20
195.0
 30
0.0
 40
6.25
  0
CIRCLE
  5
40E7
  8
0
 10
484.0000074148179
 20
195.0
 30
0.0
 40
6.25
  0
CIRCLE
  5
40EA
  8
0
 10
468.00000741481779
 20
195.0
 30
0.0
 40
5.5000000000000417
  0
LINE
  5
40EB
  8
0
 10
494.0000074148179
 20
202.00000000000011
 30
0.0
 11
442.00000741481762
 21
202.00000000000011
 31
0.0
  0
LINE
  5
40F6
  8
0
 10
494.00000741481801
 20
205.00000000000011
 30
0.0
 11
494.0000074148179
 21
185.0
 31
0.0
  0
LINE
  5
4101
  8
0
 10
723.10000741481781
 20
188.0
 30
0.0
 11
671.10000741481781
 21
188.0
 31
0.0
  0
CIRCLE
  5
4105
  8
0
 10
697.10000741481781
 20
195.0
 30
0.0
 40
5.8000000000001251
  0
CIRCLE
  5
4106
  8
0
 10
681.10000741481804
 20
195.0
 30
0.0
 40
6.25
  0
CIRCLE
  5
4107
  8
0
 10
713.10000741481781
 20
195.0
 30
0.0
 40
6.25
  0
CIRCLE
  5
410A
  8
0
 10
697.10000741481781
 20
195.0
 30
0.0
 40
5.5000000000001128
  0
LINE
  5
410B
  8
0
 10
723.10000741481781
 20
202.0
 30
0.0
 11
671.10000741481781
 21
202.0
 31
0.0
  0
LINE
  5
4117
  8
0
 10
671.10000741481792
 20
205.00000000000011
 30
0.0
 11
671.10000741481781
 21
185.0
 31
0.0
  0
LINE
  5
4178
  8
0
 10
469.44338308779191
 20
197.5
 30
0.0
 11
466.55663174184377
 21
197.5
 31
0.0
  0
LINE
  5
4179
  8
0
 10
465.1132560688697
 20
195.0
 30
0.0
 11
466.55663174184377
 21
197.5
 31
0.0
  0
LINE
  5
417A
  8
0
 10
465.1132560688697
 20
195.0
 30
0.0
 11
466.55663174184377
 21
192.5
 31
0.0
  0
LINE
  5
417B
  8
0
 10
466.55663174184377
 20
192.5
 30
0.0
 11
469.44338308779191
 21
192.5
 31
0.0
  0
LINE
  5
417C
  8
0
 10
470.88675876076599
 20
195.0
 30
0.0
 11
469.44338308779191
 21
192.5
 31
0.0
  0
LINE
  5
417D
  8
0
 10
470.88675876076599
 20
195.0
 30
0.0
 11
469.44338308779191
 21
197.5
 31
0.0
  0
CIRCLE
  5
417E
  8
0
 10
468.00000741481779
 20
195.0
 30
0.0
 40
4.9999999999999636
  0
LINE
  5
417F
  8
0
 10
695.65663174184374
 20
192.5
 30
0.0
 11
698.54338308779177
 21
192.5
 31
0.0
  0
LINE
  5
4180
  8
0
 10
699.98675876076595
 20
195.0
 30
0.0
 11
698.54338308779177
 21
192.5
 31
0.0
  0
LINE
  5
4181
  8
0
 10
699.98675876076595
 20
195.0
 30
0.0
 11
698.54338308779177
 21
197.5
 31
0.0
  0
LINE
  5
4182
  8
0
 10
698.54338308779177
 20
197.5
 30
0.0
 11
695.65663174184374
 21
197.5
 31
0.0
  0
LINE
  5
4183
  8
0
 10
694.21325606886967
 20
195.0
 30
0.0
 11
695.65663174184374
 21
197.5
 31
0.0
  0
LINE
  5
4184
  8
0
 10
694.21325606886967
 20
195.0
 30
0.0
 11
695.65663174184374
 21
192.5
 31
0.0
  0
CIRCLE
  5
4185
  8
0
 10
697.10000741481781
 20
195.0
 30
0.0
 40
5.0
  0
LINE
  5
4196
  8
0
 10
617.10000741481781
 20
187.5
 30
0.0
 11
621.10000741481781
 21
187.5
 31
0.0
  0
LINE
  5
4197
  8
0
 10
617.10000741481781
 20
147.0
 30
0.0
 11
621.10000741481781
 21
147.0
 31
0.0
  0
LINE
  5
4198
  8
0
 10
617.10000741481781
 20
147.0
 30
0.0
 11
617.10000741481781
 21
188.49999999999989
 31
0.0
  0
LINE
  5
4199
  8
0
 10
621.10000741481781
 20
147.0
 30
0.0
 11
621.10000741481781
 21
187.5
 31
0.0
  0
LINE
  5
419A
  8
0
 10
617.10000741481781
 20
243.00000000000011
 30
0.0
 11
621.10000741481781
 21
243.00000000000011
 31
0.0
  0
LINE
  5
419B
  8
0
 10
621.10000741481781
 20
202.50000000000011
 30
0.0
 11
617.10000741481781
 21
202.50000000000011
 31
0.0
  0
LINE
  5
419C
  8
0
 10
621.10000741481781
 20
202.50000000000011
 30
0.0
 11
621.10000741481781
 21
243.00000000000011
 31
0.0
  0
LINE
  5
419D
  8
0
 10
617.10000741481781
 20
201.5
 30
0.0
 11
617.10000741481781
 21
243.00000000000011
 31
0.0
  0
LINE
  5
419E
  8
0
 10
621.10000741481781
 20
187.5
 30
0.0
 11
625.10000741481781
 21
187.5
 31
0.0
  0
LINE
  5
419F
  8
0
 10
625.10000741481781
 20
147.0
 30
0.0
 11
621.10000741481781
 21
147.0
 31
0.0
  0
LINE
  5
41A0
  8
0
 10
625.10000741481781
 20
243.00000000000011
 30
0.0
 11
621.10000741481781
 21
243.00000000000011
 31
0.0
  0
LINE
  5
41A1
  8
0
 10
625.10000741481781
 20
202.50000000000011
 30
0.0
 11
621.10000741481781
 21
202.50000000000011
 31
0.0
  0
LINE
  5
41A2
  8
0
 10
620.60000741481781
 20
190.80000000000001
 30
0.0
 11
625.10000741481781
 21
190.80000000000001
 31
0.0
  0
LINE
  5
41A4
  8
0
 10
625.10000741481781
 20
199.19999999999999
 30
0.0
 11
620.60000741481781
 21
199.19999999999999
 31
0.0
  0
LINE
  5
41A5
  8
0
 10
620.60000741481781
 20
187.5
 30
0.0
 11
620.60000741481781
 21
202.50000000000011
 31
0.0
  0
LINE
  5
41A8
  8
0
 10
548.00000741481779
 20
188.5
 30
0.0
 11
548.00000741481779
 21
146.99999999999989
 31
0.0
  0
LINE
  5
41A9
  8
0
 10
548.00000741481779
 20
146.99999999999989
 30
0.0
 11
544.0000074148179
 21
146.99999999999989
 31
0.0
  0
LINE
  5
41AA
  8
0
 10
544.0000074148179
 20
187.49999999999989
 30
0.0
 11
548.00000741481779
 21
187.49999999999989
 31
0.0
  0
LINE
  5
41AB
  8
0
 10
544.0000074148179
 20
187.49999999999989
 30
0.0
 11
544.0000074148179
 21
146.99999999999989
 31
0.0
  0
LINE
  5
41AC
  8
0
 10
548.00000741481779
 20
242.99999999999989
 30
0.0
 11
544.0000074148179
 21
242.99999999999989
 31
0.0
  0
LINE
  5
41AD
  8
0
 10
548.00000741481779
 20
202.5
 30
0.0
 11
544.0000074148179
 21
202.5
 31
0.0
  0
LINE
  5
41AE
  8
0
 10
544.0000074148179
 20
242.99999999999989
 30
0.0
 11
544.0000074148179
 21
202.5
 31
0.0
  0
LINE
  5
41AF
  8
0
 10
548.00000741481779
 20
242.99999999999989
 30
0.0
 11
548.00000741481779
 21
201.5
 31
0.0
  0
LINE
  5
41B0
  8
0
 10
540.0000074148179
 20
187.49999999999989
 30
0.0
 11
544.0000074148179
 21
187.49999999999989
 31
0.0
  0
LINE
  5
41B1
  8
0
 10
540.0000074148179
 20
146.99999999999989
 30
0.0
 11
544.0000074148179
 21
146.99999999999989
 31
0.0
  0
LINE
  5
41B2
  8
0
 10
540.0000074148179
 20
242.99999999999989
 30
0.0
 11
544.0000074148179
 21
242.99999999999989
 31
0.0
  0
LINE
  5
41B3
  8
0
 10
544.0000074148179
 20
202.5
 30
0.0
 11
540.0000074148179
 21
202.5
 31
0.0
  0
LINE
  5
41B5
  8
0
 10
540.0000074148179
 20
190.7999999999999
 30
0.0
 11
544.5000074148179
 21
190.7999999999999
 31
0.0
  0
LINE
  5
41B6
  8
0
 10
544.5000074148179
 20
199.1999999999999
 30
0.0
 11
540.0000074148179
 21
199.1999999999999
 31
0.0
  0
LINE
  5
41B7
  8
0
 10
544.5000074148179
 20
202.5
 30
0.0
 11
544.5000074148179
 21
187.49999999999989
 31
0.0
  0
ARC
  5
41BB
  8
0
 10
634.10000741481781
 20
194.99999999999989
 30
0.0
 40
3.7320508076297458
 50
266.53982103032439
 51
93.460178969685316
  0
ARC
  5
41BC
  8
0
 10
634.10000741481781
 20
194.99999999999989
 30
0.0
 40
2.650000000000039
 50
280.87571649463177
 51
30.50935688750366
  0
ARC
  5
41BD
  8
0
 10
634.10000741481781
 20
194.99999999999989
 30
0.0
 40
2.6500000000000039
 50
30.50935688750366
 51
79.124283505368197
  0
ARC
  5
41BE
  8
0
 10
634.10000741481781
 20
194.99999999999989
 30
0.0
 40
2.0670000000109039
 50
30.50935688750366
 51
76.001501471734883
  0
ARC
  5
41BF
  8
0
 10
634.10000741481781
 20
194.99999999999989
 30
0.0
 40
2.067000000010939
 50
283.99849852826509
 51
30.50935688750366
  0
ARC
  5
41C1
  8
0
 10
689.10000741481781
 20
194.99999999999989
 30
0.0
 40
3.7320508076296921
 50
130.6077650541117
 51
229.3922349458858
  0
ARC
  5
41C2
  8
0
 10
689.10000741481781
 20
194.99999999999989
 30
0.0
 40
2.649999999999995
 50
138.9183234115963
 51
221.08167658840389
  0
ARC
  5
41C3
  8
0
 10
689.10000741481781
 20
195.0
 30
0.0
 40
2.067000000010867
 50
152.03377029057421
 51
207.9662297094261
  0
ARC
  5
41C4
  8
0
 10
517.0000074148179
 20
220.00000000000011
 30
0.0
 40
5.715000000004764
 50
307.37924270159237
 51
5.3151719144438641
  0
ARC
  5
41C6
  8
0
 10
517.0000074148179
 20
220.00000000000011
 30
0.0
 40
5.715000000004709
 50
187.37924270159149
 51
245.31517191444459
  0
ARC
  5
41C8
  8
0
 10
517.0000074148179
 20
220.00000000000011
 30
0.0
 40
5.7150000000047676
 50
7.3792427015915472
 51
65.315171914444534
  0
ARC
  5
41CA
  8
0
 10
517.0000074148179
 20
220.00000000000011
 30
0.0
 40
5.7150000000047596
 50
247.3792427015932
 51
305.31517191444539
  0
ARC
  5
41CC
  8
0
 10
517.0000074148179
 20
220.00000000000011
 30
0.0
 40
5.7150000000047596
 50
67.379242701590513
 51
125.3151719144454
  0
ARC
  5
41CE
  8
0
 10
517.0000074148179
 20
220.00000000000011
 30
0.0
 40
5.7150000000047623
 50
127.3792427015924
 51
185.31517191444399
  0
LINE
  5
41D3
  8
0
 10
511.26189510812952
 20
219.36172068095101
 30
0.0
 11
513.57818515646966
 21
224.6502113678421
 31
0.0
  0
LINE
  5
41D4
  8
0
 10
513.57818515646829
 20
224.65021136783881
 30
0.0
 11
519.3162974631623
 21
225.2884906868855
 31
0.0
  0
LINE
  5
41D7
  8
0
 10
520.42182967316512
 20
215.34978863215551
 30
0.0
 11
514.68371736647339
 21
214.71150931311459
 31
0.0
  0
LINE
  5
41D9
  8
0
 10
519.31629746315991
 20
225.28849068688521
 30
0.0
 11
522.73811972151043
 21
220.63827931904339
 31
0.0
  0
LINE
  5
41DB
  8
0
 10
514.68371736647759
 20
214.7115093131151
 30
0.0
 11
511.26189510812537
 21
219.36172068095669
 31
0.0
  0
LINE
  5
41DD
  8
0
 10
522.73811972150008
 20
220.6382793190574
 30
0.0
 11
520.42182967316603
 21
215.3497886321579
 31
0.0
  0
CIRCLE
  5
41DE
  8
0
 10
517.0000074148179
 20
220.00000000000011
 30
0.0
 40
9.0000000000000231
  0
ARC
  5
4269
  8
0
 10
517.0000074148179
 20
243.00000000000011
 30
0.0
 40
2.3094010767746318
 50
29.99999999949307
 51
90.0
  0
LINE
  5
426A
  8
0
 10
519.00000741482506
 20
244.15470053837501
 30
0.0
 11
517.00000741480915
 21
245.30940107676341
 31
0.0
  0
LINE
  5
426B
  8
0
 10
515.00000741481063
 20
241.8452994616251
 30
0.0
 11
517.00000741482654
 21
240.69059892323639
 31
0.0
  0
ARC
  5
426C
  8
0
 10
517.0000074148179
 20
243.00000000000011
 30
0.0
 40
2.3094010767724522
 50
210.00000000000051
 51
270.0000000000025
  0
ARC
  5
426D
  8
0
 10
517.0000074148179
 20
243.00000000000011
 30
0.0
 40
2.309401076772466
 50
270.0000000000025
 51
330.00000000000108
  0
LINE
  5
426E
  8
0
 10
517.00000741480915
 20
240.69059892323639
 30
0.0
 11
519.0000074148254
 21
241.8452994616251
 31
0.0
  0
LINE
  5
426F
  8
0
 10
517.00000741482654
 20
245.30940107676341
 30
0.0
 11
515.00000741481063
 21
244.1547005383749
 31
0.0
  0
ARC
  5
4270
  8
0
 10
517.0000074148179
 20
243.00000000000011
 30
0.0
 40
2.3094010767724171
 50
90.0
 51
149.99999999999989
  0
ARC
  5
4271
  8
0
 10
517.0000074148179
 20
243.00000000000011
 30
0.0
 40
2.3094010767746318
 50
330.00000000000108
 51
29.99999999949307
  0
LINE
  5
4272
  8
0
 10
519.00000741481836
 20
244.15470053838791
 30
0.0
 11
519.0000074148179
 21
241.84529946161209
 31
0.0
  0
ARC
  5
4273
  8
0
 10
517.0000074148179
 20
243.00000000000011
 30
0.0
 40
2.3094010767724051
 50
149.99999999999989
 51
210.00000000000051
  0
LINE
  5
4274
  8
0
 10
515.00000741481745
 20
241.84529946161209
 30
0.0
 11
515.0000074148179
 21
244.15470053838791
 31
0.0
  0
CIRCLE
  5
4275
  8
0
 10
517.0000074148179
 20
243.00000000000011
 30
0.0
 40
3.2329999999659971
  0
LINE
  5
4276
  8
0
 10
519.0571969046199
 20
146.99999999999949
 30
0.0
 11
519.90004425700545
 21
146.51679887487319
 31
0.0
  0
ARC
  5
4277
  8
0
 10
513.69824052399804
 20
154.71716755831289
 30
0.0
 40
8.8644907988903583
 50
273.70188078658902
 51
299.47495261633588
  0
LINE
  5
4278
  8
0
 10
514.27282938615906
 20
145.7499999999994
 30
0.0
 11
519.72718544347663
 21
145.7499999999994
 31
0.0
  0
LINE
  5
4279
  8
0
 10
643.30484423781331
 20
132.74999999999929
 30
0.0
 11
635.70000741481795
 21
132.74999999999929
 31
0.0
  0
LINE
  5
427A
  8
0
 10
634.20000741481772
 20
134.2499999999994
 30
0.0
 11
642.93095930966319
 21
134.2499999999994
 31
0.0
  0
LINE
  5
427B
  8
0
 10
642.93095930966319
 20
255.74999999999969
 30
0.0
 11
634.20000741481772
 21
255.7499999999996
 31
0.0
  0
LINE
  5
427C
  8
0
 10
635.70000741481772
 20
257.24999999999972
 30
0.0
 11
643.30484423781331
 21
257.24999999999972
 31
0.0
  0
LINE
  5
427D
  8
0
 10
565.5000074148179
 20
181.1999999999999
 30
0.0
 11
565.5000074148179
 21
208.7999999999999
 31
0.0
  0
LINE
  5
427E
  8
0
 10
566.0000074148179
 20
208.29999999999981
 30
0.0
 11
566.0000074148179
 21
181.69999999999979
 31
0.0
  0
LINE
  5
427F
  8
0
 10
568.63205822238649
 20
185.99999999999949
 30
0.0
 11
568.63205822238649
 21
203.9999999999996
 31
0.0
  0
LINE
  5
4280
  8
0
 10
566.90000741481788
 20
186.99999999999949
 30
0.0
 11
566.90000741481788
 21
202.99999999999949
 31
0.0
  0
POLYLINE
  5
4281
  8
0
 66
     1
 10
0.0
 20
0.0
 30
0.0
 70
   128
  0
VERTEX
  5
8BE6
  8
0
 10
551.56605335975291
 20
178.83785052189211
 30
0.0
  0
VERTEX
  5
8BE7
  8
0
 10
552.25878488760054
 20
178.74005437388519
 30
0.0
  0
VERTEX
  5
8BE8
  8
0
 10
552.77389900484866
 20
178.59674664971669
 30
0.0
  0
VERTEX
  5
8BE9
  8
0
 10
553.07817230670344
 20
178.43853710719151
 30
0.0
  0
VERTEX
  5
8BEA
  8
0
 10
553.14409233717595
 20
178.29600872256961
 30
0.0
  0
VERTEX
  5
8BEB
  8
0
 10
552.97970580067545
 20
178.18563472753419
 30
0.0
  0
VERTEX
  5
8BEC
  8
0
 10
552.60724256985065
 20
178.11042278190999
 30
0.0
  0
VERTEX
  5
8BED
  8
0
 10
552.05611860472163
 20
178.0664027060742
 30
0.0
  0
VERTEX
  5
8BEE
  8
0
 10
551.56605335975291
 20
178.05008993623289
 30
0.0
  0
SEQEND
  5
8BEF
  8
0
  0
POLYLINE
  5
4282
  8
0
 66
     1
 10
0.0
 20
0.0
 30
0.0
 70
   128
  0
VERTEX
  5
8BF0
  8
0
 10
550.43396146988243
 20
178.83785052189211
 30
0.0
  0
VERTEX
  5
8BF1
  8
0
 10
551.13049016685875
 20
178.86101604077371
 30
0.0
  0
VERTEX
  5
8BF2
  8
0
 10
551.56605335975291
 20
178.83785052189211
 30
0.0
  0
SEQEND
  5
8BF3
  8
0
  0
POLYLINE
  5
4283
  8
0
 66
     1
 10
0.0
 20
0.0
 30
0.0
 70
   128
  0
VERTEX
  5
8BF4
  8
0
 10
550.43396146988243
 20
178.05008993623289
 30
0.0
  0
VERTEX
  5
8BF5
  8
0
 10
549.74122994203094
 20
178.07811088902139
 30
0.0
  0
VERTEX
  5
8BF6
  8
0
 10
549.2261158247843
 20
178.13541665193571
 30
0.0
  0
VERTEX
  5
8BF7
  8
0
 10
548.92184252293089
 20
178.22926216211121
 30
0.0
  0
VERTEX
  5
8BF8
  8
0
 10
548.85592249245974
 20
178.35652647820831
 30
0.0
  0
VERTEX
  5
8BF9
  8
0
 10
549.02030902896195
 20
178.50409080741741
 30
0.0
  0
VERTEX
  5
8BFA
  8
0
 10
549.39277225978799
 20
178.6527334898027
 30
0.0
  0
VERTEX
  5
8BFB
  8
0
 10
549.94389622491781
 20
178.77763912129541
 30
0.0
  0
VERTEX
  5
8BFC
  8
0
 10
550.43396146988243
 20
178.83785052189211
 30
0.0
  0
SEQEND
  5
8BFD
  8
0
  0
POLYLINE
  5
4284
  8
0
 66
     1
 10
0.0
 20
0.0
 30
0.0
 70
   128
  0
VERTEX
  5
8BFE
  8
0
 10
551.56605335975291
 20
178.05008993623289
 30
0.0
  0
VERTEX
  5
8BFF
  8
0
 10
550.86952466277671
 20
178.0445585348354
 30
0.0
  0
VERTEX
  5
8C00
  8
0
 10
550.43396146988243
 20
178.05008993623289
 30
0.0
  0
SEQEND
  5
8C01
  8
0
  0
ARC
  5
4285
  8
0
 10
551.10167859428918
 20
198.28759581390801
 30
0.0
 40
2.037178005463014
 50
283.17641079013868
 51
76.823589209861268
  0
POLYLINE
  5
4286
  8
0
 66
     1
 10
0.0
 20
0.0
 30
0.0
 70
   128
  0
VERTEX
  5
8C02
  8
0
 10
550.43396146988243
 20
200.27114069697541
 30
0.0
  0
VERTEX
  5
8C03
  8
0
 10
551.13049016685875
 20
200.34164738295701
 30
0.0
  0
VERTEX
  5
8C04
  8
0
 10
551.56605335975291
 20
200.27114069697541
 30
0.0
  0
SEQEND
  5
8C05
  8
0
  0
POLYLINE
  5
4287
  8
0
 66
     1
 10
0.0
 20
0.0
 30
0.0
 70
   128
  0
VERTEX
  5
8C06
  8
0
 10
550.43396146988243
 20
196.30405093084059
 30
0.0
  0
VERTEX
  5
8C07
  8
0
 10
549.74122994203094
 20
196.62778036471781
 30
0.0
  0
VERTEX
  5
8C08
  8
0
 10
549.5000074148179
 20
196.86832868604111
 30
0.0
  0
SEQEND
  5
8C09
  8
0
  0
POLYLINE
  5
4288
  8
0
 66
     1
 10
0.0
 20
0.0
 30
0.0
 70
   128
  0
VERTEX
  5
8C0A
  8
0
 10
549.5000074148179
 20
199.74669812133689
 30
0.0
  0
VERTEX
  5
8C0B
  8
0
 10
549.94389622491781
 20
200.08281492099499
 30
0.0
  0
VERTEX
  5
8C0C
  8
0
 10
550.43396146988243
 20
200.27114069697541
 30
0.0
  0
SEQEND
  5
8C0D
  8
0
  0
POLYLINE
  5
4289
  8
0
 66
     1
 10
0.0
 20
0.0
 30
0.0
 70
   128
  0
VERTEX
  5
8C0E
  8
0
 10
551.56605335975291
 20
196.30405093084059
 30
0.0
  0
VERTEX
  5
8C0F
  8
0
 10
550.86952466277671
 20
196.23004256893651
 30
0.0
  0
VERTEX
  5
8C10
  8
0
 10
550.43396146988243
 20
196.30405093084059
 30
0.0
  0
SEQEND
  5
8C11
  8
0
  0
LINE
  5
428A
  8
0
 10
561.5000074148179
 20
177.99999999999949
 30
0.0
 11
561.5000074148179
 21
211.99999999999949
 31
0.0
  0
LINE
  5
428D
  8
0
 10
562.00000741481756
 20
211.49999999999949
 30
0.0
 11
562.00000741481756
 21
178.4999999999994
 31
0.0
  0
ARC
  5
428E
  8
0
 10
551.04517868786479
 20
198.28759581390801
 30
0.0
 40
2.0507951450492579
 50
284.71355011070358
 51
75.286449889298893
  0
ARC
  5
4291
  8
0
 10
550.99652150557836
 20
197.9289428074463
 30
0.0
 40
2.106759214863839
 50
5.4469961463458798
 51
135.2625371031088
  0
ARC
  5
4292
  8
0
 10
551.85062544474658
 20
180.125740521484
 30
0.0
 40
2.0950672121940559
 50
262.19340719531732
 51
306.60854340024451
  0
ARC
  5
4293
  8
0
 10
550.14938938488922
 20
180.12574052148409
 30
0.0
 40
2.095067212194142
 50
233.39145659975861
 51
277.80659280468029
  0
LINE
  5
4294
  8
0
 10
615.6000074148177
 20
189.49999999999989
 30
0.0
 11
615.6000074148177
 21
200.5
 31
0.0
  0
LINE
  5
4296
  8
0
 10
633.60000741481781
 20
191.1321840788373
 30
0.0
 11
633.60000741481781
 21
198.86781592116279
 31
0.0
  0
LINE
  5
4297
  8
0
 10
634.60000741481781
 20
198.0
 30
0.0
 11
634.60000741481781
 21
191.99999999999989
 31
0.0
  0
LINE
  5
4299
  8
0
 10
549.5000074148179
 20
200.50000000000011
 30
0.0
 11
549.5000074148179
 21
189.49999999999989
 31
0.0
  0
LINE
  5
429A
  8
0
 10
622.60000741481815
 20
145.2499999999994
 30
0.0
 11
622.60000741481815
 21
146.9999999999998
 31
0.0
  0
LINE
  5
429B
  8
0
 10
622.10000741481804
 20
145.7499999999994
 30
0.0
 11
622.10000741481804
 21
146.9999999999998
 31
0.0
  0
LINE
  5
429C
  8
0
 10
622.60000741481815
 20
242.9999999999998
 30
0.0
 11
622.60000741481815
 21
244.74999999999949
 31
0.0
  0
LINE
  5
429D
  8
0
 10
622.10000741481815
 20
242.9999999999998
 30
0.0
 11
622.10000741481815
 21
244.24999999999949
 31
0.0
  0
LINE
  5
429E
  8
0
 10
518.00000741481779
 20
149.82842712474621
 30
0.0
 11
518.00000741481779
 21
146.99999999999949
 31
0.0
  0
LINE
  5
42A0
  8
0
 10
516.0000074148179
 20
149.82842712474621
 30
0.0
 11
516.0000074148179
 21
146.99999999999949
 31
0.0
  0
LINE
  5
42A2
  8
0
 10
514.00000741481779
 20
146.99999999999949
 30
0.0
 11
520.0000074148179
 21
146.99999999999929
 31
0.0
  0
LINE
  5
42A3
  8
0
 10
518.98432089811604
 20
144.7499999999994
 30
0.0
 11
515.01569393151976
 21
144.7499999999994
 31
0.0
  0
LINE
  5
42A4
  8
0
 10
616.60000741481781
 20
201.5
 30
0.0
 11
616.60000741481781
 21
188.49999999999989
 31
0.0
  0
LINE
  5
42A5
  8
0
 10
548.5000074148179
 20
188.49999999999989
 30
0.0
 11
548.5000074148179
 21
201.5
 31
0.0
  0
LINE
  5
42A6
  8
0
 10
621.85858605858084
 20
146.85857864376209
 30
0.0
 11
621.85858605858084
 21
146.9999999999998
 31
0.0
  0
LINE
  5
42A7
  8
0
 10
621.85858605858084
 20
242.9999999999998
 30
0.0
 11
621.85858605858084
 21
243.1414213562368
 31
0.0
  0
LINE
  5
42C3
  8
1
 10
454.00000699758527
 20
930.5000002235173
 30
0.0
 11
454.0000069975851
 21
891.44999766051785
 31
0.0
  0
LINE
  5
42C4
  8
1
 10
441.5000074148179
 20
917.99999766051769
 30
0.0
 11
466.5000074148179
 21
917.99999766051769
 31
0.0
  0
CIRCLE
  5
42C5
  8
0
 10
454.0000074148179
 20
917.99999766051769
 30
0.0
 40
9.5000000000000284
  0
LINE
  5
42CC
  8
1
 10
486.00000699758527
 20
930.50000022351708
 30
0.0
 11
486.00000699758527
 21
891.44999766051785
 31
0.0
  0
LINE
  5
42CD
  8
1
 10
473.5000074148179
 20
917.99999766051735
 30
0.0
 11
498.5000074148179
 21
917.99999766051735
 31
0.0
  0
CIRCLE
  5
42CE
  8
0
 10
486.0000074148179
 20
917.99999766051735
 30
0.0
 40
9.5000000000000284
  0
LINE
  5
42D5
  8
1
 10
637.1000069975853
 20
930.50000022351685
 30
0.0
 11
637.1000069975853
 21
891.44999766051785
 31
0.0
  0
LINE
  5
42D6
  8
1
 10
624.6000074148177
 20
917.99999766051724
 30
0.0
 11
649.6000074148177
 21
917.99999766051724
 31
0.0
  0
CIRCLE
  5
42D7
  8
0
 10
637.1000074148177
 20
917.99999766051724
 30
0.0
 40
9.5000000000000284
  0
LINE
  5
42D9
  8
0
 10
631.61518013477325
 20
908.49999897181965
 30
0.0
 11
642.58483386039734
 21
908.49999897181965
 31
0.0
  0
LINE
  5
42DD
  8
0
 10
642.58483386039734
 20
927.50000022351696
 30
0.0
 11
631.61518013477325
 21
927.50000022351696
 31
0.0
  0
LINE
  5
42DE
  8
1
 10
711.10000699758552
 20
930.50000022351685
 30
0.0
 11
711.10000699758552
 21
891.44999766051785
 31
0.0
  0
LINE
  5
42DF
  8
1
 10
698.60000741481804
 20
917.99999766051724
 30
0.0
 11
723.60000741481781
 21
917.99999766051724
 31
0.0
  0
CIRCLE
  5
42E0
  8
0
 10
711.10000741481804
 20
917.99999766051724
 30
0.0
 40
9.5000000000000284
  0
LINE
  5
42E7
  8
1
 10
711.10000699758552
 20
784.54999766051765
 30
0.0
 11
711.10000699758552
 21
745.49999897181976
 31
0.0
  0
LINE
  5
42E8
  8
1
 10
698.60000741481804
 20
757.99999766051735
 30
0.0
 11
723.60000741481781
 21
757.99999766051735
 31
0.0
  0
CIRCLE
  5
42E9
  8
0
 10
711.10000741481804
 20
757.99999766051735
 30
0.0
 40
9.5000000000000284
  0
LINE
  5
42F0
  8
1
 10
637.10000699758552
 20
784.54999766051765
 30
0.0
 11
637.10000699758552
 21
745.49999897181965
 31
0.0
  0
LINE
  5
42F1
  8
1
 10
624.60000741481804
 20
757.99999766051724
 30
0.0
 11
649.60000741481804
 21
757.99999766051724
 31
0.0
  0
CIRCLE
  5
42F2
  8
0
 10
637.10000741481804
 20
757.99999766051724
 30
0.0
 40
9.5000000000000284
  0
LINE
  5
42F9
  8
1
 10
454.00000699758527
 20
784.54999766051765
 30
0.0
 11
454.00000699758527
 21
745.49999897181976
 31
0.0
  0
LINE
  5
42FA
  8
1
 10
441.5000074148179
 20
757.99999766051735
 30
0.0
 11
466.5000074148179
 21
757.99999766051735
 31
0.0
  0
CIRCLE
  5
42FB
  8
0
 10
454.0000074148179
 20
757.99999766051735
 30
0.0
 40
9.5000000000000284
  0
LINE
  5
4302
  8
1
 10
486.00000699758527
 20
784.54999766051765
 30
0.0
 11
486.00000699758527
 21
745.49999897181976
 31
0.0
  0
LINE
  5
4303
  8
1
 10
473.5000074148179
 20
757.99999766051735
 30
0.0
 11
498.5000074148179
 21
757.99999766051735
 31
0.0
  0
CIRCLE
  5
4304
  8
0
 10
486.0000074148179
 20
757.99999766051735
 30
0.0
 40
9.5000000000000284
  0
LINE
  5
430B
  8
1
 10
444.4500078320504
 20
900.99999766051769
 30
0.0
 11
463.55000783205031
 21
900.99999766051769
 31
0.0
  0
LINE
  5
430F
  8
1
 10
476.45000741481789
 20
900.99999766051735
 30
0.0
 11
495.5500074148178
 21
900.99999766051735
 31
0.0
  0
LINE
  5
4310
  8
1
 10
627.55000699758534
 20
900.99999766051769
 30
0.0
 11
646.65000699758525
 21
900.99999766051769
 31
0.0
  0
LINE
  5
4311
  8
1
 10
701.55000741481808
 20
900.99999766051735
 30
0.0
 11
720.65000741481799
 21
900.99999766051735
 31
0.0
  0
LINE
  5
4312
  8
1
 10
701.55000741481808
 20
774.99999766051769
 30
0.0
 11
720.65000741481799
 21
774.99999766051769
 31
0.0
  0
LINE
  5
4313
  8
1
 10
627.55000741481786
 20
774.99999766051769
 30
0.0
 11
646.65000741481776
 21
774.99999766051769
 31
0.0
  0
LINE
  5
4314
  8
1
 10
476.45000741481789
 20
774.99999766051769
 30
0.0
 11
495.5500074148178
 21
774.99999766051769
 31
0.0
  0
LINE
  5
4315
  8
1
 10
444.45000741481789
 20
774.99999766051769
 30
0.0
 11
463.5500074148178
 21
774.99999766051769
 31
0.0
  0
POLYLINE
  5
4340
  8
0
 66
     1
 10
0.0
 20
0.0
 30
0.0
 70
   128
  0
VERTEX
  5
8C12
  8
0
 10
141.92524298411121
 20
580.42256585277289
 30
0.0
  0
VERTEX
  5
8C13
  8
0
 10
142.42108392727619
 20
580.31871729622503
 30
0.0
  0
VERTEX
  5
8C14
  8
0
 10
143.24999999999909
 20
580.21181023698932
 30
0.0
  0
SEQEND
  5
8C15
  8
0
  0
LINE
  5
4343
  8
0
 10
241.9999999999998
 20
593.99999932944786
 30
0.0
 11
242.9999999999998
 21
593.58578576707487
 31
0.0
  0
LINE
  5
4397
  8
1
 10
970.10001325188205
 20
637.99999600622425
 30
0.0
 11
970.10001325188205
 21
420.99999932944769
 31
0.0
  0
LINE
  5
4398
  8
1
 10
1047.3500168877649
 20
589.99999932944752
 30
0.0
 11
892.85001688776538
 21
589.99999932944775
 31
0.0
  0
LINE
  5
439C
  8
1
 10
1050.100009441376
 20
494.89935916630651
 30
0.0
 11
1050.100009441376
 21
399.99999932944689
 31
0.0
  0
LINE
  5
43A0
  8
1
 10
890.10000556707416
 20
494.89935916630651
 30
0.0
 11
890.10000556707382
 21
399.99999932944718
 31
0.0
  0
LINE
  5
533C
  8
0
 10
281.00000000000023
 20
429.9999993294478
 30
0.0
 11
281.00000000000023
 21
439.99999932944769
 31
0.0
  0
LINE
  5
533D
  8
0
 10
269.00000000000023
 20
439.99999932944769
 30
0.0
 11
269.00000000000023
 21
429.9999993294478
 31
0.0
  0
LINE
  5
5340
  8
0
 10
121.0000000000002
 20
429.9999993294478
 30
0.0
 11
121.0000000000002
 21
439.99999932944769
 31
0.0
  0
LINE
  5
5341
  8
0
 10
109.0000000000002
 20
439.99999932944769
 30
0.0
 11
109.0000000000002
 21
429.9999993294478
 31
0.0
  0
LINE
  5
5398
  8
0
 10
203.7000000000003
 20
435.9999993294478
 30
0.0
 11
186.30000000000021
 21
435.9999993294478
 31
0.0
  0
LINE
  5
5399
  8
0
 10
186.30000000000021
 20
435.9999993294478
 30
0.0
 11
186.0
 21
436.29999932944781
 31
0.0
  0
LINE
  5
539A
  8
0
 10
186.0
 20
436.29999932944781
 30
0.0
 11
186.0
 21
440.59999932944788
 31
0.0
  0
LINE
  5
539B
  8
0
 10
186.0
 20
440.59999932944788
 30
0.0
 11
185.60000000000011
 21
440.9999993294478
 31
0.0
  0
LINE
  5
539C
  8
0
 10
185.60000000000011
 20
440.9999993294478
 30
0.0
 11
185.3000000000001
 21
440.9999993294478
 31
0.0
  0
LINE
  5
539D
  8
0
 10
185.3000000000001
 20
440.9999993294478
 30
0.0
 11
185.0
 21
441.29999932944781
 31
0.0
  0
LINE
  5
53A0
  8
0
 10
205.0000000000002
 20
441.29999932944781
 30
0.0
 11
204.7000000000003
 21
440.9999993294478
 31
0.0
  0
LINE
  5
53A1
  8
0
 10
204.7000000000003
 20
440.9999993294478
 30
0.0
 11
204.40000000000009
 21
440.9999993294478
 31
0.0
  0
LINE
  5
53A2
  8
0
 10
204.40000000000009
 20
440.9999993294478
 30
0.0
 11
204.0000000000002
 21
440.59999932944788
 31
0.0
  0
LINE
  5
53A3
  8
0
 10
204.0000000000002
 20
440.59999932944788
 30
0.0
 11
204.0000000000002
 21
436.29999932944781
 31
0.0
  0
LINE
  5
53A4
  8
0
 10
204.0000000000002
 20
436.29999932944781
 30
0.0
 11
203.7000000000003
 21
435.9999993294478
 31
0.0
  0
ARC
  5
53A8
  8
0
 10
284.40000000000282
 20
420.39999932944772
 30
0.0
 40
0.3999999999999915
 50
180.0
 51
270.0
  0
LINE
  5
53A9
  8
0
 10
284.40000000000282
 20
419.99999932944769
 30
0.0
 11
289.00000000000267
 21
419.99999932944769
 31
0.0
  0
LINE
  5
53AA
  8
0
 10
289.00000000000267
 20
419.99999932944769
 30
0.0
 11
289.00000000000267
 21
412.49999932944769
 31
0.0
  0
LINE
  5
53AB
  8
0
 10
289.00000000000267
 20
412.49999932944769
 30
0.0
 11
286.50000000000267
 21
409.99999932944769
 31
0.0
  0
LINE
  5
53AC
  8
0
 10
286.50000000000267
 20
409.99999932944769
 30
0.0
 11
263.50000000000267
 21
409.99999932944769
 31
0.0
  0
ARC
  5
53AD
  8
0
 10
265.60000000000292
 20
420.39999932944772
 30
0.0
 40
0.4000000000000626
 50
270.0
 51
0.0
  0
LINE
  5
53AE
  8
0
 10
266.00000000000267
 20
420.39999932944772
 30
0.0
 11
266.00000000000267
 21
429.9999993294478
 31
0.0
  0
LINE
  5
53AF
  8
0
 10
266.00000000000267
 20
429.9999993294478
 30
0.0
 11
284.00000000000267
 21
429.9999993294478
 31
0.0
  0
LINE
  5
53B0
  8
0
 10
284.00000000000267
 20
429.9999993294478
 30
0.0
 11
284.00000000000267
 21
420.39999932944772
 31
0.0
  0
LINE
  5
53B1
  8
0
 10
263.50000000000267
 20
409.99999932944769
 30
0.0
 11
261.00000000000267
 21
412.49999932944769
 31
0.0
  0
LINE
  5
53B2
  8
0
 10
261.00000000000267
 20
412.49999932944769
 30
0.0
 11
261.00000000000267
 21
419.99999932944769
 31
0.0
  0
LINE
  5
53B3
  8
0
 10
261.00000000000267
 20
419.99999932944769
 30
0.0
 11
265.60000000000292
 21
419.99999932944769
 31
0.0
  0
ARC
  5
53B4
  8
0
 10
124.40000000000011
 20
420.39999932944772
 30
0.0
 40
0.3999999999999915
 50
180.0
 51
270.0
  0
LINE
  5
53B5
  8
0
 10
124.40000000000011
 20
419.99999932944769
 30
0.0
 11
129.0000000000002
 21
419.99999932944769
 31
0.0
  0
LINE
  5
53B6
  8
0
 10
129.0000000000002
 20
419.99999932944769
 30
0.0
 11
129.0000000000002
 21
412.49999932944769
 31
0.0
  0
LINE
  5
53B7
  8
0
 10
129.0000000000002
 20
412.49999932944769
 30
0.0
 11
126.5000000000002
 21
409.99999932944769
 31
0.0
  0
LINE
  5
53B8
  8
0
 10
126.5000000000002
 20
409.99999932944769
 30
0.0
 11
103.5000000000002
 21
409.99999932944769
 31
0.0
  0
ARC
  5
53B9
  8
0
 10
105.60000000000009
 20
420.39999932944772
 30
0.0
 40
0.3999999999999915
 50
270.0
 51
0.0
  0
LINE
  5
53BA
  8
0
 10
106.0000000000002
 20
420.39999932944772
 30
0.0
 11
106.0000000000002
 21
429.9999993294478
 31
0.0
  0
LINE
  5
53BB
  8
0
 10
106.0000000000002
 20
429.9999993294478
 30
0.0
 11
124.0000000000002
 21
429.9999993294478
 31
0.0
  0
LINE
  5
53BC
  8
0
 10
124.0000000000002
 20
429.9999993294478
 30
0.0
 11
124.0000000000002
 21
420.39999932944772
 31
0.0
  0
LINE
  5
53BD
  8
0
 10
103.5000000000002
 20
409.99999932944769
 30
0.0
 11
101.0000000000002
 21
412.49999932944769
 31
0.0
  0
LINE
  5
53BE
  8
0
 10
101.0000000000002
 20
412.49999932944769
 30
0.0
 11
101.0000000000002
 21
419.99999932944769
 31
0.0
  0
LINE
  5
53BF
  8
0
 10
101.0000000000002
 20
419.99999932944769
 30
0.0
 11
105.60000000000009
 21
419.99999932944769
 31
0.0
  0
LINE
  5
54B6
  8
0
 10
896.10000556707371
 20
429.9999993294478
 30
0.0
 11
896.10000556707371
 21
439.9999993294478
 31
0.0
  0
LINE
  5
54B7
  8
0
 10
884.10000556707382
 20
439.9999993294478
 30
0.0
 11
884.10000556707382
 21
429.9999993294478
 31
0.0
  0
LINE
  5
54BA
  8
0
 10
1056.100005567074
 20
429.9999993294478
 30
0.0
 11
1056.100005567074
 21
439.9999993294478
 31
0.0
  0
LINE
  5
54BB
  8
0
 10
1044.100005567074
 20
439.9999993294478
 30
0.0
 11
1044.100005567074
 21
429.9999993294478
 31
0.0
  0
LINE
  5
5514
  8
0
 10
899.10000556707382
 20
429.9999993294478
 30
0.0
 11
881.10000556707394
 21
429.9999993294478
 31
0.0
  0
LINE
  5
5515
  8
0
 10
899.10000556707382
 20
420.39999932944778
 30
0.0
 11
899.10000556707382
 21
429.9999993294478
 31
0.0
  0
ARC
  5
5516
  8
0
 10
899.50000556707403
 20
420.39999932944778
 30
0.0
 40
0.4000000000000626
 50
180.0
 51
270.0
  0
LINE
  5
5517
  8
0
 10
904.10000556707371
 20
412.4999993294478
 30
0.0
 11
904.10000556707371
 21
419.9999993294478
 31
0.0
  0
LINE
  5
5518
  8
0
 10
876.10000556707382
 20
412.4999993294478
 30
0.0
 11
878.60000556707382
 21
409.9999993294478
 31
0.0
  0
LINE
  5
5519
  8
0
 10
876.10000556707382
 20
419.9999993294478
 30
0.0
 11
876.10000556707382
 21
412.4999993294478
 31
0.0
  0
LINE
  5
551A
  8
0
 10
880.70000556707407
 20
419.9999993294478
 30
0.0
 11
876.10000556707382
 21
419.9999993294478
 31
0.0
  0
ARC
  5
551B
  8
0
 10
880.70000556707407
 20
420.39999932944778
 30
0.0
 40
0.3999999999999204
 50
270.0
 51
0.0
  0
LINE
  5
551C
  8
0
 10
881.10000556707394
 20
429.9999993294478
 30
0.0
 11
881.10000556707394
 21
420.39999932944778
 31
0.0
  0
LINE
  5
551D
  8
0
 10
878.60000556707382
 20
409.9999993294478
 30
0.0
 11
901.60000556707394
 21
409.9999993294478
 31
0.0
  0
LINE
  5
551E
  8
0
 10
904.10000556707371
 20
419.9999993294478
 30
0.0
 11
899.50000556707403
 21
419.9999993294478
 31
0.0
  0
LINE
  5
551F
  8
0
 10
901.60000556707394
 20
409.9999993294478
 30
0.0
 11
904.10000556707371
 21
412.4999993294478
 31
0.0
  0
LINE
  5
5520
  8
0
 10
1059.100005567074
 20
429.9999993294478
 30
0.0
 11
1041.100005567074
 21
429.9999993294478
 31
0.0
  0
LINE
  5
5521
  8
0
 10
1059.100005567074
 20
420.39999932944778
 30
0.0
 11
1059.100005567074
 21
429.9999993294478
 31
0.0
  0
ARC
  5
5522
  8
0
 10
1059.5000055670739
 20
420.39999932944778
 30
0.0
 40
0.4000000000000626
 50
180.0
 51
270.0
  0
LINE
  5
5523
  8
0
 10
1061.600005567074
 20
409.9999993294478
 30
0.0
 11
1064.100005567074
 21
412.4999993294478
 31
0.0
  0
LINE
  5
5524
  8
0
 10
1038.600005567074
 20
409.9999993294478
 30
0.0
 11
1061.600005567074
 21
409.9999993294478
 31
0.0
  0
LINE
  5
5525
  8
0
 10
1036.100005567074
 20
412.4999993294478
 30
0.0
 11
1038.600005567074
 21
409.9999993294478
 31
0.0
  0
LINE
  5
5526
  8
0
 10
1036.100005567074
 20
419.9999993294478
 30
0.0
 11
1036.100005567074
 21
412.4999993294478
 31
0.0
  0
LINE
  5
5527
  8
0
 10
1040.700005567074
 20
419.9999993294478
 30
0.0
 11
1036.100005567074
 21
419.9999993294478
 31
0.0
  0
ARC
  5
5528
  8
0
 10
1040.700005567074
 20
420.39999932944778
 30
0.0
 40
0.3999999999999204
 50
270.0
 51
0.0
  0
LINE
  5
5529
  8
0
 10
1041.100005567074
 20
429.9999993294478
 30
0.0
 11
1041.100005567074
 21
420.39999932944778
 31
0.0
  0
LINE
  5
552A
  8
0
 10
1064.100005567074
 20
419.9999993294478
 30
0.0
 11
1059.5000055670739
 21
419.9999993294478
 31
0.0
  0
LINE
  5
552B
  8
0
 10
1064.100005567074
 20
412.4999993294478
 30
0.0
 11
1064.100005567074
 21
419.9999993294478
 31
0.0
  0
LINE
  5
5D52
  8
0
 10
725.10000741481826
 20
931.99999766051735
 30
0.0
 11
725.10000741481826
 21
903.99999766051747
 31
0.0
  0
LINE
  5
5D53
  8
0
 10
723.10000741481815
 20
903.99999766051747
 30
0.0
 11
725.10000741481826
 21
903.99999766051747
 31
0.0
  0
LINE
  5
5D55
  8
0
 10
623.10000741481838
 20
931.99999766051758
 30
0.0
 11
623.10000741481815
 21
903.99999766051747
 31
0.0
  0
LINE
  5
5D57
  8
0
 10
623.10000741481815
 20
903.99999766051747
 30
0.0
 11
625.10000741481781
 21
903.99999766051747
 31
0.0
  0
LINE
  5
5D59
  8
0
 10
623.10000741481815
 20
931.99999766051735
 30
0.0
 11
625.10000741481781
 21
931.99999766051735
 31
0.0
  0
LINE
  5
5D5B
  8
0
 10
723.10000741481815
 20
931.99999766051735
 30
0.0
 11
725.10000741481826
 21
931.99999766051735
 31
0.0
  0
LINE
  5
5D61
  8
0
 10
723.10000741481815
 20
926.99999766051747
 30
0.0
 11
725.10000741481826
 21
926.99999766051747
 31
0.0
  0
LINE
  5
5D62
  8
0
 10
723.10000741481815
 20
908.99999766051735
 30
0.0
 11
725.10000741481826
 21
908.99999766051735
 31
0.0
  0
LINE
  5
5D64
  8
0
 10
623.10000741481815
 20
908.99999766051735
 30
0.0
 11
625.10000741481781
 21
908.99999766051735
 31
0.0
  0
LINE
  5
5D65
  8
0
 10
623.10000741481815
 20
926.99999766051747
 30
0.0
 11
625.10000741481781
 21
926.99999766051747
 31
0.0
  0
LINE
  5
5D67
  8
0
 10
723.10000741481815
 20
743.99999766051769
 30
0.0
 11
725.10000741481826
 21
743.99999766051769
 31
0.0
  0
LINE
  5
5D69
  8
0
 10
623.10000741481815
 20
743.99999766051769
 30
0.0
 11
625.10000741481781
 21
743.99999766051769
 31
0.0
  0
LINE
  5
5D6A
  8
0
 10
623.10000741481815
 20
771.99999766051758
 30
0.0
 11
623.10000741481815
 21
743.99999766051769
 31
0.0
  0
LINE
  5
5D6C
  8
0
 10
623.10000741481815
 20
771.99999766051758
 30
0.0
 11
625.10000741481781
 21
771.99999766051758
 31
0.0
  0
LINE
  5
5D6D
  8
0
 10
725.10000741481826
 20
771.99999766051758
 30
0.0
 11
725.10000741481826
 21
743.99999766051769
 31
0.0
  0
LINE
  5
5D6E
  8
0
 10
723.10000741481815
 20
771.99999766051758
 30
0.0
 11
725.10000741481826
 21
771.99999766051758
 31
0.0
  0
LINE
  5
5D75
  8
0
 10
723.10000741481815
 20
748.99999766051769
 30
0.0
 11
725.10000741481826
 21
748.99999766051769
 31
0.0
  0
LINE
  5
5D76
  8
0
 10
723.10000741481815
 20
766.99999766051758
 30
0.0
 11
725.10000741481826
 21
766.99999766051758
 31
0.0
  0
LINE
  5
5D78
  8
0
 10
623.10000741481815
 20
748.99999766051769
 30
0.0
 11
625.10000741481781
 21
748.99999766051769
 31
0.0
  0
LINE
  5
5D79
  8
0
 10
623.10000741481815
 20
766.99999766051758
 30
0.0
 11
625.10000741481781
 21
766.99999766051758
 31
0.0
  0
LINE
  5
5D7D
  8
0
 10
440.0000074148179
 20
903.99999766051747
 30
0.0
 11
442.0000074148179
 21
903.99999766051747
 31
0.0
  0
LINE
  5
5D7E
  8
0
 10
440.0000074148179
 20
931.99999766051735
 30
0.0
 11
440.0000074148179
 21
903.99999766051747
 31
0.0
  0
LINE
  5
5D7F
  8
0
 10
440.0000074148179
 20
931.99999766051735
 30
0.0
 11
442.0000074148179
 21
931.99999766051735
 31
0.0
  0
LINE
  5
5D83
  8
0
 10
440.0000074148179
 20
908.99999766051735
 30
0.0
 11
442.0000074148179
 21
908.99999766051735
 31
0.0
  0
LINE
  5
5D84
  8
0
 10
440.0000074148179
 20
926.99999766051747
 30
0.0
 11
442.0000074148179
 21
926.99999766051747
 31
0.0
  0
LINE
  5
5D85
  8
0
 10
440.0000074148187
 20
771.99999766051496
 30
0.0
 11
440.00000741481881
 21
743.99999766051485
 31
0.0
  0
LINE
  5
5D86
  8
0
 10
440.00000741481881
 20
743.99999766051485
 30
0.0
 11
442.00000741482017
 21
743.99999766051485
 31
0.0
  0
LINE
  5
5D89
  8
0
 10
440.00000741481881
 20
771.99999766051496
 30
0.0
 11
442.0000074148179
 21
771.99999766051496
 31
0.0
  0
LINE
  5
5D8E
  8
0
 10
440.00000741481881
 20
766.99999766051485
 30
0.0
 11
442.0000074148179
 21
766.99999766051485
 31
0.0
  0
LINE
  5
5D8F
  8
0
 10
440.00000741481881
 20
748.99999766051485
 30
0.0
 11
442.0000074148179
 21
748.99999766051485
 31
0.0
  0
LINE
  5
5E8C
  8
3
 10
120.0529962747098
 20
429.9999993294478
 30
0.0
 11
120.0529962747098
 21
439.99999910593021
 31
0.0
  0
LINE
  5
5E8D
  8
3
 10
109.9469962747098
 20
429.9999993294478
 30
0.0
 11
109.9469962747098
 21
439.99999910593021
 31
0.0
  0
LINE
  5
5FEC
  8
3
 10
280.05300372529018
 20
429.9999993294478
 30
0.0
 11
280.05300372529018
 21
439.99999910593021
 31
0.0
  0
LINE
  5
5FED
  8
3
 10
269.94700372529019
 20
429.9999993294478
 30
0.0
 11
269.94700372529019
 21
439.99999910593021
 31
0.0
  0
LINE
  5
5FEE
  8
0
 10
651.1000083386898
 20
429.99999955296522
 30
0.0
 11
651.1000083386898
 21
410.0
 31
0.0
  0
LINE
  5
5FEF
  8
0
 10
623.10000747442245
 20
429.99999955296522
 30
0.0
 11
623.10000747442234
 21
410.0
 31
0.0
  0
LINE
  5
5FF0
  8
0
 10
623.10000747442245
 20
429.99999955296522
 30
0.0
 11
651.1000083386898
 21
429.99999955296522
 31
0.0
  0
LINE
  5
5FF1
  8
0
 10
725.10000556707382
 20
429.99999955296522
 30
0.0
 11
725.10000556707382
 21
410.0
 31
0.0
  0
LINE
  5
5FF2
  8
0
 10
697.10000842809723
 20
429.99999955296522
 30
0.0
 11
697.10000842809734
 21
410.0
 31
0.0
  0
LINE
  5
5FF3
  8
0
 10
697.10000842809723
 20
429.99999955296522
 30
0.0
 11
725.10000556707382
 21
429.99999955296522
 31
0.0
  0
LINE
  5
5FF9
  8
0
 10
623.10000747442245
 20
419.9999997764827
 30
0.0
 11
651.1000083386898
 21
419.9999997764827
 31
0.0
  0
LINE
  5
5FFD
  8
0
 10
697.10000842809723
 20
419.9999997764827
 30
0.0
 11
725.10000556707382
 21
419.9999997764827
 31
0.0
  0
LINE
  5
6000
  8
0
 10
697.10000842809723
 20
410.0
 30
0.0
 11
725.10000556707382
 21
410.0
 31
0.0
  0
LINE
  5
6001
  8
0
 10
697.10000842809723
 20
412.49999947845947
 30
0.0
 11
725.10000556707382
 21
412.49999947845947
 31
0.0
  0
LINE
  5
6003
  8
0
 10
623.10000747442245
 20
410.0
 30
0.0
 11
651.1000083386898
 21
410.0
 31
0.0
  0
LINE
  5
6004
  8
0
 10
623.10000747442245
 20
412.49999947845947
 30
0.0
 11
651.1000083386898
 21
412.49999947845947
 31
0.0
  0
LINE
  5
6008
  8
0
 10
705.10000973939896
 20
435.999999139458
 30
0.0
 11
671.10000789165542
 21
435.999999139458
 31
0.0
  0
LINE
  5
6009
  8
0
 10
723.10000896453857
 20
435.999999139458
 30
0.0
 11
717.10000425577209
 21
435.999999139458
 31
0.0
  0
LINE
  5
600A
  8
0
 10
723.10000896453857
 20
440.49999935319659
 30
0.0
 11
723.10000896453857
 21
435.999999139458
 31
0.0
  0
LINE
  5
600B
  8
0
 10
671.10000789165542
 20
439.9999993294478
 30
0.0
 11
671.10000789165531
 21
435.99999913945788
 31
0.0
  0
LINE
  5
600C
  8
0
 10
631.10000738874078
 20
439.9999993294478
 30
0.0
 11
631.10000738874078
 21
429.99999955296522
 31
0.0
  0
LINE
  5
600D
  8
0
 10
643.10000702738796
 20
429.99999955296522
 30
0.0
 11
643.10000702738796
 21
439.9999993294478
 31
0.0
  0
LINE
  5
600E
  8
0
 10
705.10000973939896
 20
439.9999993294478
 30
0.0
 11
705.10000973939896
 21
429.99999955296522
 31
0.0
  0
LINE
  5
600F
  8
0
 10
717.10000425577209
 20
429.99999955296522
 30
0.0
 11
717.10000425577209
 21
439.9999993294478
 31
0.0
  0
LINE
  5
6012
  8
0
 10
440.00000000000023
 20
429.99999955296522
 30
0.0
 11
440.00000000000023
 21
410.00000000000011
 31
0.0
  0
LINE
  5
6013
  8
0
 10
468.00001204013819
 20
429.99999955296522
 30
0.0
 11
468.00001204013819
 21
410.00000000000011
 31
0.0
  0
LINE
  5
6014
  8
0
 10
440.00000000000023
 20
429.99999955296522
 30
0.0
 11
468.00001204013819
 21
429.99999955296522
 31
0.0
  0
LINE
  5
6015
  8
0
 10
500.00000238418602
 20
429.99999955296522
 30
0.0
 11
500.00000238418602
 21
410.00000000000011
 31
0.0
  0
LINE
  5
6016
  8
0
 10
472.00000524520868
 20
429.99999955296522
 30
0.0
 11
472.00000524520868
 21
410.00000000000011
 31
0.0
  0
LINE
  5
6017
  8
0
 10
472.00000524520868
 20
429.99999955296522
 30
0.0
 11
500.00000238418602
 21
429.99999955296522
 31
0.0
  0
LINE
  5
601E
  8
0
 10
440.00000000000023
 20
419.9999997764827
 30
0.0
 11
468.00001204013819
 21
419.9999997764827
 31
0.0
  0
LINE
  5
6021
  8
0
 10
440.00000000000023
 20
410.0
 30
0.0
 11
468.00001204013819
 21
410.0
 31
0.0
  0
LINE
  5
6022
  8
0
 10
440.00000000000023
 20
412.49999947845947
 30
0.0
 11
468.00001204013819
 21
412.49999947845947
 31
0.0
  0
LINE
  5
6025
  8
0
 10
472.00000524520868
 20
419.9999997764827
 30
0.0
 11
500.00000238418602
 21
419.9999997764827
 31
0.0
  0
LINE
  5
6027
  8
0
 10
472.00000524520868
 20
410.0
 30
0.0
 11
500.00000238418602
 21
410.0
 31
0.0
  0
LINE
  5
6029
  8
0
 10
472.00000524520868
 20
412.49999947845947
 30
0.0
 11
500.00000238418602
 21
412.49999947845947
 31
0.0
  0
LINE
  5
602C
  8
0
 10
448.0000013113023
 20
435.999999139458
 30
0.0
 11
442.00000405311579
 21
435.999999139458
 31
0.0
  0
LINE
  5
602D
  8
0
 10
480.0000065565111
 20
435.999999139458
 30
0.0
 11
460.000010728836
 21
435.999999139458
 31
0.0
  0
LINE
  5
602E
  8
0
 10
494.00000512599939
 20
435.999999139458
 30
0.0
 11
492.00000107288378
 21
435.999999139458
 31
0.0
  0
LINE
  5
602F
  8
0
 10
494.00000512599939
 20
439.9999993294478
 30
0.0
 11
494.00000512599939
 21
435.999999139458
 31
0.0
  0
LINE
  5
6030
  8
0
 10
442.00000405311579
 20
440.49999935319659
 30
0.0
 11
442.00000405311579
 21
435.999999139458
 31
0.0
  0
LINE
  5
6032
  8
0
 10
480.0000065565111
 20
439.9999993294478
 30
0.0
 11
480.0000065565111
 21
429.99999955296522
 31
0.0
  0
LINE
  5
6033
  8
0
 10
492.00000107288378
 20
429.99999955296522
 30
0.0
 11
492.00000107288378
 21
439.9999993294478
 31
0.0
  0
LINE
  5
6034
  8
0
 10
448.0000013113023
 20
439.9999993294478
 30
0.0
 11
448.0000013113023
 21
429.99999955296522
 31
0.0
  0
LINE
  5
6035
  8
0
 10
460.000010728836
 20
429.99999955296522
 30
0.0
 11
460.000010728836
 21
439.9999993294478
 31
0.0
  0
LINE
  5
603A
  8
3
 10
459.05300252900679
 20
429.9999993294457
 30
0.0
 11
459.05300252900679
 21
439.99999910592823
 31
0.0
  0
LINE
  5
603B
  8
3
 10
448.94700252900668
 20
429.9999993294457
 30
0.0
 11
448.94700252900668
 21
439.99999910592823
 31
0.0
  0
LINE
  5
603C
  8
3
 10
491.05300777421542
 20
429.99999932944672
 30
0.0
 11
491.05300777421542
 21
439.99999910592908
 31
0.0
  0
LINE
  5
603D
  8
3
 10
480.94700777421542
 20
429.99999932944672
 30
0.0
 11
480.94700777421542
 21
439.99999910592908
 31
0.0
  0
LINE
  5
603E
  8
3
 10
642.15301140041299
 20
429.99999932944638
 30
0.0
 11
642.15301140041299
 21
439.99999910592879
 31
0.0
  0
LINE
  5
603F
  8
3
 10
632.04701140041288
 20
429.99999932944638
 30
0.0
 11
632.04701140041288
 21
439.99999910592879
 31
0.0
  0
LINE
  5
6040
  8
3
 10
716.15301095710356
 20
429.99999955296522
 30
0.0
 11
716.15301095710356
 21
439.99999932944769
 31
0.0
  0
LINE
  5
6041
  8
3
 10
706.04701095710368
 20
429.99999955296522
 30
0.0
 11
706.04701095710368
 21
439.99999932944769
 31
0.0
  0
LINE
  5
626F
  8
3
 10
895.15300952659209
 20
429.9999993294478
 30
0.0
 11
895.15300952659209
 21
439.99999910593033
 31
0.0
  0
LINE
  5
6270
  8
3
 10
885.04700952659198
 20
429.9999993294478
 30
0.0
 11
885.04700952659198
 21
439.99999910593033
 31
0.0
  0
LINE
  5
6271
  8
3
 10
1055.153013400894
 20
429.9999993294478
 30
0.0
 11
1055.153013400894
 21
439.99999910593033
 31
0.0
  0
LINE
  5
6272
  8
3
 10
1045.047013400894
 20
429.9999993294478
 30
0.0
 11
1045.047013400894
 21
439.99999910593033
 31
0.0
  0
LINE
  5
647E
  8
0
 10
440.0000074148179
 20
261.00000000000011
 30
0.0
 11
468.00000741481779
 21
261.00000000000011
 31
0.0
  0
LINE
  5
647F
  8
0
 10
440.0000074148179
 20
263.50000000000011
 30
0.0
 11
468.00000741481779
 21
263.50000000000011
 31
0.0
  0
LINE
  5
6480
  8
0
 10
440.0000074148179
 20
289.0
 30
0.0
 11
440.0000074148179
 21
261.00000000000011
 31
0.0
  0
LINE
  5
6481
  8
0
 10
440.0000074148179
 20
289.0
 30
0.0
 11
468.00000741481779
 21
289.0
 31
0.0
  0
LINE
  5
6482
  8
0
 10
440.0000074148179
 20
286.50000000000011
 30
0.0
 11
468.00000741481779
 21
286.50000000000011
 31
0.0
  0
LINE
  5
6483
  8
0
 10
468.00000741481779
 20
289.0
 30
0.0
 11
468.00000741481779
 21
261.00000000000011
 31
0.0
  0
CIRCLE
  5
6484
  8
3
 10
454.00000741481671
 20
274.99999999999761
 30
0.0
 40
5.0530037252904094
  0
CIRCLE
  5
6485
  8
0
 10
454.0000074148179
 20
275.00000000000011
 30
0.0
 40
6.000000000001136
  0
LINE
  5
6488
  8
0
 10
472.00000741481858
 20
289.0
 30
0.0
 11
472.00000741481858
 21
261.00000000000011
 31
0.0
  0
LINE
  5
6489
  8
0
 10
472.00000741481858
 20
263.50000000000011
 30
0.0
 11
500.00000741481858
 21
263.50000000000011
 31
0.0
  0
LINE
  5
648A
  8
0
 10
472.00000741481858
 20
261.00000000000011
 30
0.0
 11
500.00000741481858
 21
261.00000000000011
 31
0.0
  0
CIRCLE
  5
648C
  8
0
 10
486.00000741481853
 20
275.00000000000011
 30
0.0
 40
6.000000000001136
  0
CIRCLE
  5
648D
  8
3
 10
486.00000741481739
 20
274.99999999999761
 30
0.0
 40
5.0530037252904094
  0
LINE
  5
648E
  8
0
 10
472.00000741481858
 20
286.50000000000011
 30
0.0
 11
500.00000741481858
 21
286.50000000000011
 31
0.0
  0
LINE
  5
648F
  8
0
 10
472.00000741481858
 20
289.0
 30
0.0
 11
500.00000741481858
 21
289.0
 31
0.0
  0
LINE
  5
6490
  8
0
 10
500.00000741481858
 20
289.0
 30
0.0
 11
500.00000741481858
 21
261.00000000000011
 31
0.0
  0
LINE
  5
6491
  8
0
 10
472.00000741481898
 20
129.00000000000239
 30
0.0
 11
472.00000741481898
 21
101.0000000000023
 31
0.0
  0
LINE
  5
6492
  8
0
 10
472.00000741481898
 20
103.5000000000024
 30
0.0
 11
500.00000741481898
 21
103.5000000000024
 31
0.0
  0
LINE
  5
6493
  8
0
 10
472.00000741481898
 20
101.0000000000023
 30
0.0
 11
500.00000741481898
 21
101.0000000000023
 31
0.0
  0
CIRCLE
  5
6495
  8
0
 10
486.00000741481898
 20
115.0000000000024
 30
0.0
 40
6.000000000001136
  0
CIRCLE
  5
6496
  8
3
 10
486.0000074148179
 20
114.9999999999999
 30
0.0
 40
5.0530037252904094
  0
LINE
  5
6497
  8
0
 10
472.00000741481898
 20
126.5000000000023
 30
0.0
 11
500.00000741481898
 21
126.5000000000023
 31
0.0
  0
LINE
  5
6498
  8
0
 10
472.00000741481898
 20
129.00000000000239
 30
0.0
 11
500.00000741481898
 21
129.00000000000239
 31
0.0
  0
LINE
  5
6499
  8
0
 10
500.00000741481898
 20
129.00000000000239
 30
0.0
 11
500.00000741481898
 21
101.0000000000023
 31
0.0
  0
LINE
  5
649A
  8
0
 10
440.0000074148179
 20
129.00000000000239
 30
0.0
 11
440.0000074148179
 21
101.0000000000023
 31
0.0
  0
LINE
  5
649B
  8
0
 10
440.0000074148179
 20
103.5000000000024
 30
0.0
 11
468.00000741481779
 21
103.5000000000024
 31
0.0
  0
LINE
  5
649C
  8
0
 10
440.0000074148179
 20
101.0000000000023
 30
0.0
 11
468.00000741481779
 21
101.0000000000023
 31
0.0
  0
CIRCLE
  5
649E
  8
0
 10
454.0000074148179
 20
115.0000000000024
 30
0.0
 40
6.000000000001136
  0
CIRCLE
  5
649F
  8
3
 10
454.00000741481671
 20
114.9999999999999
 30
0.0
 40
5.0530037252904094
  0
LINE
  5
64A0
  8
0
 10
440.0000074148179
 20
126.5000000000023
 30
0.0
 11
468.00000741481779
 21
126.5000000000023
 31
0.0
  0
LINE
  5
64A1
  8
0
 10
440.0000074148179
 20
129.00000000000239
 30
0.0
 11
468.00000741481779
 21
129.00000000000239
 31
0.0
  0
LINE
  5
64A2
  8
0
 10
468.00000741481779
 20
129.00000000000239
 30
0.0
 11
468.00000741481779
 21
101.0000000000023
 31
0.0
  0
LINE
  5
64AA
  8
0
 10
651.10000741481906
 20
289.00000000000023
 30
0.0
 11
651.10000741481906
 21
261.00000000000023
 31
0.0
  0
LINE
  5
64AB
  8
0
 10
623.10000741481906
 20
261.00000000000023
 30
0.0
 11
651.10000741481906
 21
261.00000000000023
 31
0.0
  0
LINE
  5
64AC
  8
0
 10
623.10000741481906
 20
263.50000000000023
 30
0.0
 11
651.10000741481906
 21
263.50000000000023
 31
0.0
  0
LINE
  5
64AD
  8
0
 10
623.10000741481906
 20
289.00000000000023
 30
0.0
 11
651.10000741481906
 21
289.00000000000023
 31
0.0
  0
LINE
  5
64AE
  8
0
 10
623.10000741481906
 20
286.50000000000011
 30
0.0
 11
651.10000741481906
 21
286.50000000000011
 31
0.0
  0
LINE
  5
64AF
  8
0
 10
623.10000741481906
 20
289.00000000000023
 30
0.0
 11
623.10000741481906
 21
261.00000000000023
 31
0.0
  0
CIRCLE
  5
64B0
  8
3
 10
637.10000741481804
 20
274.99999999999773
 30
0.0
 40
5.0530037252904094
  0
CIRCLE
  5
64B1
  8
0
 10
637.10000741481917
 20
275.00000000000023
 30
0.0
 40
6.000000000001136
  0
LINE
  5
64B3
  8
0
 10
725.10000741481906
 20
289.00000000000023
 30
0.0
 11
725.10000741481906
 21
261.00000000000023
 31
0.0
  0
LINE
  5
64B4
  8
0
 10
697.10000741481895
 20
261.00000000000023
 30
0.0
 11
725.10000741481906
 21
261.00000000000023
 31
0.0
  0
LINE
  5
64B5
  8
0
 10
697.10000741481895
 20
263.50000000000023
 30
0.0
 11
725.10000741481906
 21
263.50000000000023
 31
0.0
  0
LINE
  5
64B6
  8
0
 10
697.10000741481895
 20
289.00000000000023
 30
0.0
 11
725.10000741481906
 21
289.00000000000023
 31
0.0
  0
LINE
  5
64B7
  8
0
 10
697.10000741481895
 20
286.50000000000011
 30
0.0
 11
725.10000741481906
 21
286.50000000000011
 31
0.0
  0
LINE
  5
64B8
  8
0
 10
697.10000741481895
 20
289.00000000000023
 30
0.0
 11
697.10000741481895
 21
261.00000000000023
 31
0.0
  0
CIRCLE
  5
64B9
  8
3
 10
711.10000741481792
 20
274.99999999999773
 30
0.0
 40
5.0530037252904094
  0
CIRCLE
  5
64BA
  8
0
 10
711.10000741481895
 20
275.00000000000023
 30
0.0
 40
6.000000000001136
  0
LINE
  5
64BC
  8
0
 10
725.10000741481895
 20
128.9999999999998
 30
0.0
 11
725.10000741481895
 21
100.9999999999997
 31
0.0
  0
LINE
  5
64BD
  8
0
 10
697.10000741481895
 20
100.9999999999997
 30
0.0
 11
725.10000741481895
 21
100.9999999999997
 31
0.0
  0
LINE
  5
64BE
  8
0
 10
697.10000741481895
 20
103.4999999999998
 30
0.0
 11
725.10000741481895
 21
103.4999999999998
 31
0.0
  0
LINE
  5
64BF
  8
0
 10
697.10000741481895
 20
128.9999999999998
 30
0.0
 11
725.10000741481895
 21
128.9999999999998
 31
0.0
  0
LINE
  5
64C0
  8
0
 10
697.10000741481895
 20
126.4999999999997
 30
0.0
 11
725.10000741481895
 21
126.4999999999997
 31
0.0
  0
LINE
  5
64C1
  8
0
 10
697.10000741481895
 20
128.9999999999998
 30
0.0
 11
697.10000741481895
 21
100.9999999999997
 31
0.0
  0
CIRCLE
  5
64C2
  8
3
 10
711.10000741481781
 20
114.9999999999973
 30
0.0
 40
5.0530037252904094
  0
CIRCLE
  5
64C3
  8
0
 10
711.10000741481895
 20
114.9999999999998
 30
0.0
 40
6.000000000001136
  0
LINE
  5
64C5
  8
0
 10
651.10000252723705
 20
128.9999999999998
 30
0.0
 11
651.10000252723705
 21
100.9999999999997
 31
0.0
  0
LINE
  5
64C6
  8
0
 10
623.10000252723705
 20
100.9999999999997
 30
0.0
 11
651.10000252723705
 21
100.9999999999997
 31
0.0
  0
LINE
  5
64C7
  8
0
 10
623.10000252723705
 20
103.4999999999998
 30
0.0
 11
651.10000252723705
 21
103.4999999999998
 31
0.0
  0
LINE
  5
64C8
  8
0
 10
623.10000252723705
 20
128.9999999999998
 30
0.0
 11
651.10000252723705
 21
128.9999999999998
 31
0.0
  0
LINE
  5
64C9
  8
0
 10
623.10000252723705
 20
126.4999999999997
 30
0.0
 11
651.10000252723705
 21
126.4999999999997
 31
0.0
  0
LINE
  5
64CA
  8
0
 10
623.10000252723705
 20
128.9999999999998
 30
0.0
 11
623.10000252723705
 21
100.9999999999997
 31
0.0
  0
CIRCLE
  5
64CB
  8
3
 10
637.10000252723603
 20
114.9999999999973
 30
0.0
 40
5.0530037252904094
  0
CIRCLE
  5
64CC
  8
0
 10
637.10000252723717
 20
114.9999999999998
 30
0.0
 40
6.000000000001136
  0
LINE
  5
7724
  8
0
 10
244.21965511460371
 20
580.49999932943058
 30
0.0
 11
244.2500000000002
 21
580.53034421482755
 31
0.0
  0
LINE
  5
7725
  8
0
 10
244.2500000000002
 20
599.46965444403338
 30
0.0
 11
244.219655114603
 21
599.49999932943069
 31
0.0
  0
ARC
  5
7726
  8
0
 10
245.2500000000002
 20
597.89999932943056
 30
0.0
 40
1.000000000000014
 50
179.99999999999591
 51
270.0
  0
ARC
  5
7727
  8
0
 10
245.2500000000002
 20
582.09999932943037
 30
0.0
 40
1.000000000000014
 50
90.0
 51
179.99999999999429
  0
LINE
  5
772A
  8
0
 10
245.2500000000002
 20
583.09999932943049
 30
0.0
 11
251.7500000000002
 21
583.09999932943026
 31
0.0
  0
LINE
  5
772B
  8
0
 10
251.7500000000002
 20
596.89999932943056
 30
0.0
 11
245.2500000000002
 21
596.89999932943056
 31
0.0
  0
LINE
  5
772C
  8
0
 10
251.7500000000002
 20
583.09999932943026
 30
0.0
 11
253.25000000000071
 21
584.59999932943026
 31
0.0
  0
LINE
  5
772D
  8
0
 10
253.25000000000071
 20
595.39999932943056
 30
0.0
 11
251.7500000000002
 21
596.89999932943056
 31
0.0
  0
LINE
  5
772E
  8
0
 10
246.75
 20
579.12102355038405
 30
0.0
 11
248.25
 21
580.53034421482801
 31
0.0
  0
LINE
  5
772F
  8
0
 10
248.25
 20
599.46965444403395
 30
0.0
 11
247.4043810221535
 21
600.31527342188065
 31
0.0
  0
ARC
  5
7730
  8
0
 10
249.25
 20
597.8999993294309
 30
0.0
 40
1.000000000000085
 50
180.0
 51
270.0
  0
ARC
  5
7731
  8
0
 10
249.25
 20
582.09999932943094
 30
0.0
 40
1.000000000000014
 50
90.0
 51
180.0
  0
LINE
  5
7732
  8
0
 10
251.75000000000119
 20
583.09999932943106
 30
0.0
 11
255.75
 21
583.09999932943106
 31
0.0
  0
LINE
  5
7733
  8
0
 10
255.75
 20
596.89999932943101
 30
0.0
 11
251.75
 21
596.89999932943101
 31
0.0
  0
LINE
  5
7734
  8
0
 10
255.75
 20
583.09999932943083
 30
0.0
 11
257.25000000000023
 21
584.59999932943094
 31
0.0
  0
LINE
  5
7735
  8
0
 10
257.25000000000023
 20
595.39999932943101
 30
0.0
 11
255.75
 21
596.89999932943124
 31
0.0
  0
ARC
  5
77C1
  8
0
 10
236.15615874061899
 20
594.74045852199401
 30
0.0
 40
8.0387400082119331
 50
328.35962237942448
 51
31.64037762057642
  0
LINE
  5
77C2
  8
0
 10
243.00000000000051
 20
580.49999932943058
 30
0.0
 11
244.21736474945371
 21
580.49999932943058
 31
0.0
  0
ARC
  5
77C3
  8
0
 10
236.1561587406197
 20
585.24045852199345
 30
0.0
 40
8.0387400082113007
 50
328.35962237942613
 51
31.640377620576579
  0
LINE
  5
77C4
  8
0
 10
243.00000000000051
 20
599.49999932943069
 30
0.0
 11
244.2173647499005
 21
599.49999932943035
 31
0.0
  0
LINE
  5
77C7
  8
0
 10
251.7500000000002
 20
583.09999932943049
 30
0.0
 11
251.7500000000002
 21
596.89999932943056
 31
0.0
  0
LINE
  5
77C8
  8
0
 10
253.25000000000071
 20
595.39999932943056
 30
0.0
 11
253.25000000000071
 21
584.59999932943026
 31
0.0
  0
ARC
  5
77C9
  8
0
 10
243.537763682308
 20
597.55227485849014
 30
0.0
 40
4.624434745346476
 50
351.89140264466499
 51
46.002858860653198
  0
LINE
  5
77CA
  8
0
 10
246.75
 20
600.87897510847745
 30
0.0
 11
247.4043810221535
 21
600.31527342188065
 31
0.0
  0
POLYLINE
  5
77CB
  8
0
 66
     1
 10
0.0
 20
0.0
 30
0.0
 70
   128
  0
VERTEX
  5
8C16
  8
0
 10
246.75
 20
579.12102355038405
 30
0.0
  0
VERTEX
  5
8C17
  8
0
 10
247.69567676419371
 20
580.00068959267901
 30
0.0
  0
VERTEX
  5
8C18
  8
0
 10
248.1947189309324
 20
580.96627558454361
 30
0.0
  0
VERTEX
  5
8C19
  8
0
 10
248.15965286736741
 20
581.64272685441085
 30
0.0
  0
VERTEX
  5
8C1A
  8
0
 10
247.80107872508461
 20
582.32817872096825
 30
0.0
  0
VERTEX
  5
8C1B
  8
0
 10
247.00052335310579
 20
583.09999932943049
 30
0.0
  0
SEQEND
  5
8C1C
  8
0
  0
LINE
  5
77CD
  8
0
 10
248.25
 20
580.53034421482801
 30
0.0
 11
248.25
 21
583.09999932943049
 31
0.0
  0
LINE
  5
77CE
  8
0
 10
248.25
 20
596.89999932943056
 30
0.0
 11
248.25
 21
599.46965444403395
 31
0.0
  0
LINE
  5
77CF
  8
0
 10
246.75
 20
600.87897510847745
 30
0.0
 11
243.0
 21
600.87897510847768
 31
0.0
  0
LINE
  5
77D1
  8
0
 10
255.75
 20
583.09999932943106
 30
0.0
 11
255.75
 21
596.89999932943101
 31
0.0
  0
LINE
  5
77D2
  8
0
 10
257.25000000000023
 20
595.39999932943101
 30
0.0
 11
257.25000000000023
 21
584.59999932943094
 31
0.0
  0
LINE
  5
77D4
  8
0
 10
246.75
 20
579.12102355038405
 30
0.0
 11
243.0
 21
579.12102355038405
 31
0.0
  0
LINE
  5
787D
  8
0
 10
245.2500000000002
 20
596.89999932943056
 30
0.0
 11
245.2500000000002
 21
583.09999932943049
 31
0.0
  0
LINE
  5
788C
  8
0
 10
1023.174762582962
 20
580.42256585277289
 30
0.0
 11
1023.350005567075
 21
580.53034421484506
 31
0.0
  0
LINE
  5
788D
  8
0
 10
1023.350005567075
 20
599.46965444405089
 30
0.0
 11
1023.317370316527
 21
599.4970363287722
 31
0.0
  0
ARC
  5
788E
  8
0
 10
1024.350005567074
 20
597.89999932944795
 30
0.0
 40
1.000000000000085
 50
180.0
 51
270.0
  0
ARC
  5
788F
  8
0
 10
1024.350005567074
 20
582.09999932944788
 30
0.0
 40
1.000000000000014
 50
90.0
 51
179.99999999999591
  0
LINE
  5
7890
  8
0
 10
1024.350005567074
 20
583.09999932944811
 30
0.0
 11
1030.850005567074
 21
583.09999932944811
 31
0.0
  0
LINE
  5
7891
  8
0
 10
1030.850005567074
 20
596.89999932944795
 30
0.0
 11
1024.350005567074
 21
596.89999932944795
 31
0.0
  0
LINE
  5
7892
  8
0
 10
1030.850005567074
 20
583.09999932944777
 30
0.0
 11
1032.350005567075
 21
584.59999932944811
 31
0.0
  0
LINE
  5
7893
  8
0
 10
1032.350005567075
 20
595.39999932944795
 30
0.0
 11
1030.850005567074
 21
596.89999932944795
 31
0.0
  0
LINE
  5
7896
  8
0
 10
1018.928062826964
 20
580.10840147473436
 30
0.0
 11
1019.031471589219
 21
580.21181023698932
 31
0.0
  0
LINE
  5
7897
  8
0
 10
1019.03147158922
 20
599.78818842190606
 30
0.0
 11
1018.928062826964
 21
599.89159718416113
 31
0.0
  0
POLYLINE
  5
7919
  8
0
 66
     1
 10
0.0
 20
0.0
 30
0.0
 70
   128
  0
VERTEX
  5
8C1D
  8
0
 10
1021.850005567074
 20
599.18286009892915
 30
0.0
  0
VERTEX
  5
8C1E
  8
0
 10
1022.678921649545
 20
599.28976715970293
 30
0.0
  0
VERTEX
  5
8C1F
  8
0
 10
1023.163888227739
 20
599.39020225146032
 30
0.0
  0
VERTEX
  5
8C20
  8
0
 10
1023.317370316527
 20
599.4970363287722
 30
0.0
  0
VERTEX
  5
8C21
  8
0
 10
1023.076348739034
 20
599.60492847171724
 30
0.0
  0
VERTEX
  5
8C22
  8
0
 10
1022.468329514568
 20
599.71237599533038
 30
0.0
  0
VERTEX
  5
8C23
  8
0
 10
1021.850005567074
 20
599.78818842190594
 30
0.0
  0
SEQEND
  5
8C24
  8
0
  0
POLYLINE
  5
791C
  8
0
 66
     1
 10
0.0
 20
0.0
 30
0.0
 70
   128
  0
VERTEX
  5
8C25
  8
0
 10
1023.350005567075
 20
580.53034421484506
 30
0.0
  0
VERTEX
  5
8C26
  8
0
 10
1023.174762582962
 20
580.42256585277289
 30
0.0
  0
VERTEX
  5
8C27
  8
0
 10
1022.678921639797
 20
580.31871729622537
 30
0.0
  0
VERTEX
  5
8C28
  8
0
 10
1021.850005567074
 20
580.21181023698955
 30
0.0
  0
SEQEND
  5
8C29
  8
0
  0
ARC
  5
791D
  8
0
 10
1015.12847800639
 20
584.80324062172997
 30
0.0
 40
8.1400347497383638
 50
325.66327918334269
 51
34.336720816659231
  0
ARC
  5
791E
  8
0
 10
1014.1357964826381
 20
594.28876555270006
 30
0.0
 40
9.1357092349650202
 50
327.60789744909272
 51
32.392102550909762
  0
LINE
  5
791F
  8
0
 10
1021.850005567074
 20
599.18286009892915
 30
0.0
 11
1018.100005567074
 21
599.18286009892938
 31
0.0
  0
LINE
  5
7920
  8
0
 10
1021.850005567074
 20
589.39467100647096
 30
0.0
 11
1018.100005567074
 21
589.39467100647084
 31
0.0
  0
LINE
  5
7921
  8
0
 10
1021.850005567074
 20
580.21181023698955
 30
0.0
 11
1018.100005567074
 21
580.21181023698932
 31
0.0
  0
LINE
  5
7922
  8
0
 10
1030.850005567074
 20
596.88948585825779
 30
0.0
 11
1030.850005567074
 21
596.89999932944795
 31
0.0
  0
LINE
  5
7923
  8
0
 10
1030.850005567074
 20
583.09999932944811
 30
0.0
 11
1030.850005567074
 21
596.88948585825779
 31
0.0
  0
LINE
  5
7924
  8
0
 10
1032.350005567075
 20
595.39999932944795
 30
0.0
 11
1032.350005567075
 21
584.59999932944811
 31
0.0
  0
LINE
  5
7925
  8
0
 10
1021.850005567074
 20
599.78818842190594
 30
0.0
 11
1018.100005567074
 21
599.78818842190606
 31
0.0
  0
POLYLINE
  5
7926
  8
0
 66
     1
 10
0.0
 20
0.0
 30
0.0
 70
   128
  0
VERTEX
  5
8C2A
  8
0
 10
1019.007446471271
 20
599.78818842190606
 30
0.0
  0
VERTEX
  5
8C2B
  8
0
 10
1018.4683295145689
 20
600.26916570899425
 30
0.0
  0
VERTEX
  5
8C2C
  8
0
 10
1018.100005567074
 20
600.49715621598193
 30
0.0
  0
SEQEND
  5
8C2D
  8
0
  0
POLYLINE
  5
7927
  8
0
 66
     1
 10
0.0
 20
0.0
 30
0.0
 70
   128
  0
VERTEX
  5
8C2E
  8
0
 10
1018.928062826964
 20
580.10840147473436
 30
0.0
  0
VERTEX
  5
8C2F
  8
0
 10
1018.678921639798
 20
579.88781424501303
 30
0.0
  0
VERTEX
  5
8C30
  8
0
 10
1018.100005567074
 20
579.51087278622208
 30
0.0
  0
SEQEND
  5
8C31
  8
0
  0
LINE
  5
7928
  8
0
 10
1018.100005567074
 20
579.76662709599429
 30
0.0
 11
1018.365924167587
 21
580.21181023698932
 31
0.0
  0
LINE
  5
7992
  8
0
 10
1024.350005567074
 20
596.89999932944795
 30
0.0
 11
1024.350005567074
 21
583.09999932944777
 31
0.0
  0
LINE
  5
7C36
  8
0
 10
244.2500000000002
 20
580.53034421482755
 30
0.0
 11
244.2500000000002
 21
599.46965444403338
 31
0.0
  0
LINE
  5
7C39
  8
0
 10
1023.350005567075
 20
580.53034421484506
 30
0.0
 11
1023.350005567075
 21
599.46965444405089
 31
0.0
  0
TEXT
  5
7CD8
  8
0
 62
     3
 10
0.0
 20
0.0
 30
0.0
 40
10.0
  1
SCS5AX-18CL
  7
STANDARD1
  0
LINE
  5
7D2E
  8
0
 10
508.48111406607501
 20
789.99999766051724
 30
0.0
 11
507.00000741481767
 21
791.04729821728142
 31
0.0
  0
LINE
  5
7D2F
  8
0
 10
507.00000741481767
 20
791.04729821728142
 30
0.0
 11
486.00000741481767
 21
791.04729821728142
 31
0.0
  0
LINE
  5
7D30
  8
0
 10
535.00000741481779
 20
807.24999766051735
 30
0.0
 11
535.50000741481779
 21
807.74999766051735
 31
0.0
  0
LINE
  5
7D31
  8
0
 10
535.50000741481779
 20
814.24999766051724
 30
0.0
 11
535.00000741481779
 21
814.74999766051747
 31
0.0
  0
LINE
  5
7D32
  8
0
 10
535.50000741481779
 20
808.61715494804287
 30
0.0
 11
535.74142877105533
 21
808.85857630427984
 31
0.0
  0
LINE
  5
7D33
  8
0
 10
535.74142877105533
 20
813.14141901675453
 30
0.0
 11
535.50000741481779
 21
813.38284037299195
 31
0.0
  0
ARC
  5
7D34
  8
0
 10
535.60000741481804
 20
812.99999766051735
 30
0.0
 40
0.2000000000000313
 50
0.0
 51
45.000000000000568
  0
ARC
  5
7D35
  8
0
 10
535.60000741481804
 20
808.99999766051735
 30
0.0
 40
0.2000000000000313
 50
315.00000000000142
 51
0.0
  0
LINE
  5
7D36
  8
0
 10
535.80000741481797
 20
808.99999766051735
 30
0.0
 11
535.80000741481797
 21
812.99999766051735
 31
0.0
  0
LINE
  5
7D37
  8
0
 10
535.00000741481779
 20
814.74999766051747
 30
0.0
 11
535.00000741481779
 21
807.24999766051735
 31
0.0
  0
LINE
  5
7D38
  8
0
 10
535.50000741481779
 20
814.24999766051724
 30
0.0
 11
535.50000741481779
 21
807.74999766051735
 31
0.0
  0
LINE
  5
7D39
  8
0
 10
535.74142877105533
 20
813.14141901675453
 30
0.0
 11
535.74142877105533
 21
808.85857630427972
 31
0.0
  0
LINE
  5
7D3A
  8
0
 10
535.00000741481779
 20
842.24999766051747
 30
0.0
 11
535.50000741481779
 21
842.74999766051735
 31
0.0
  0
LINE
  5
7D3B
  8
0
 10
535.50000741481779
 20
849.24999766051724
 30
0.0
 11
535.00000741481779
 21
849.74999766051735
 31
0.0
  0
LINE
  5
7D3C
  8
0
 10
535.50000741481779
 20
843.61715494804298
 30
0.0
 11
535.74142877105533
 21
843.85857630427995
 31
0.0
  0
LINE
  5
7D3D
  8
0
 10
535.74142877105533
 20
848.14141901675441
 30
0.0
 11
535.50000741481779
 21
848.38284037299195
 31
0.0
  0
ARC
  5
7D3E
  8
0
 10
535.60000741481804
 20
847.99999766051735
 30
0.0
 40
0.2000000000000313
 50
0.0
 51
45.000000000000568
  0
ARC
  5
7D3F
  8
0
 10
535.60000741481804
 20
843.99999766051747
 30
0.0
 40
0.2000000000000313
 50
315.00000000000142
 51
0.0
  0
LINE
  5
7D40
  8
0
 10
535.80000741481797
 20
843.99999766051747
 30
0.0
 11
535.80000741481797
 21
847.99999766051735
 31
0.0
  0
LINE
  5
7D41
  8
0
 10
535.00000741481779
 20
849.74999766051735
 30
0.0
 11
535.00000741481779
 21
842.24999766051747
 31
0.0
  0
LINE
  5
7D42
  8
0
 10
535.50000741481779
 20
849.24999766051724
 30
0.0
 11
535.50000741481779
 21
842.74999766051735
 31
0.0
  0
LINE
  5
7D43
  8
0
 10
535.74142877105533
 20
848.14141901675441
 30
0.0
 11
535.74142877105533
 21
843.85857630427961
 31
0.0
  0
LINE
  5
7D44
  8
0
 10
535.00000741481779
 20
861.24999766051758
 30
0.0
 11
535.50000741481779
 21
861.74999766051769
 31
0.0
  0
LINE
  5
7D45
  8
0
 10
535.50000741481779
 20
868.24999766051747
 30
0.0
 11
535.00000741481779
 21
868.74999766051769
 31
0.0
  0
LINE
  5
7D46
  8
0
 10
535.50000741481779
 20
862.61715494804321
 30
0.0
 11
535.74142877105533
 21
862.85857630428006
 31
0.0
  0
LINE
  5
7D47
  8
0
 10
535.74142877105533
 20
867.14141901675475
 30
0.0
 11
535.50000741481779
 21
867.38284037299218
 31
0.0
  0
ARC
  5
7D48
  8
0
 10
535.60000741481804
 20
866.99999766051735
 30
0.0
 40
0.2000000000000313
 50
0.0
 51
45.000000000000568
  0
ARC
  5
7D49
  8
0
 10
535.60000741481804
 20
862.99999766051758
 30
0.0
 40
0.2000000000000313
 50
315.00000000000159
 51
0.0
  0
LINE
  5
7D4A
  8
0
 10
535.80000741481797
 20
862.99999766051758
 30
0.0
 11
535.80000741481797
 21
866.99999766051735
 31
0.0
  0
LINE
  5
7D4B
  8
0
 10
535.00000741481779
 20
868.74999766051769
 30
0.0
 11
535.00000741481779
 21
861.24999766051758
 31
0.0
  0
LINE
  5
7D4C
  8
0
 10
535.50000741481779
 20
868.24999766051747
 30
0.0
 11
535.50000741481779
 21
861.74999766051769
 31
0.0
  0
LINE
  5
7D4D
  8
0
 10
535.74142877105533
 20
867.14141901675475
 30
0.0
 11
535.74142877105533
 21
862.85857630427995
 31
0.0
  0
LINE
  5
7D4E
  8
0
 10
535.00000741481779
 20
880.24999766051758
 30
0.0
 11
535.50000741481779
 21
880.74999766051769
 31
0.0
  0
LINE
  5
7D4F
  8
0
 10
535.50000741481779
 20
887.24999766051735
 30
0.0
 11
535.00000741481779
 21
887.74999766051769
 31
0.0
  0
LINE
  5
7D50
  8
0
 10
535.50000741481779
 20
881.61715494804309
 30
0.0
 11
535.74142877105533
 21
881.85857630428018
 31
0.0
  0
LINE
  5
7D51
  8
0
 10
535.74142877105533
 20
886.14141901675475
 30
0.0
 11
535.50000741481779
 21
886.38284037299218
 31
0.0
  0
ARC
  5
7D52
  8
0
 10
535.60000741481804
 20
885.99999766051747
 30
0.0
 40
0.2000000000000313
 50
0.0
 51
45.000000000000568
  0
ARC
  5
7D53
  8
0
 10
535.60000741481804
 20
881.99999766051758
 30
0.0
 40
0.2000000000000313
 50
315.00000000000159
 51
0.0
  0
LINE
  5
7D54
  8
0
 10
535.80000741481797
 20
881.99999766051758
 30
0.0
 11
535.80000741481797
 21
885.99999766051747
 31
0.0
  0
LINE
  5
7D55
  8
0
 10
535.00000741481779
 20
887.74999766051769
 30
0.0
 11
535.00000741481779
 21
880.24999766051758
 31
0.0
  0
LINE
  5
7D56
  8
0
 10
535.50000741481779
 20
887.24999766051735
 30
0.0
 11
535.50000741481779
 21
880.74999766051769
 31
0.0
  0
LINE
  5
7D57
  8
0
 10
535.74142877105533
 20
886.14141901675475
 30
0.0
 11
535.74142877105533
 21
881.85857630427995
 31
0.0
  0
LINE
  5
7D58
  8
0
 10
535.00000741481779
 20
826.24999766051769
 30
0.0
 11
535.50000741481779
 21
826.74999766051758
 31
0.0
  0
LINE
  5
7D59
  8
0
 10
535.50000741481779
 20
833.24999766051735
 30
0.0
 11
535.00000741481779
 21
833.74999766051758
 31
0.0
  0
LINE
  5
7D5A
  8
0
 10
535.50000741481779
 20
827.61715494804321
 30
0.0
 11
535.74142877105533
 21
827.85857630428006
 31
0.0
  0
LINE
  5
7D5B
  8
0
 10
535.74142877105533
 20
832.14141901675475
 30
0.0
 11
535.50000741481779
 21
832.38284037299206
 31
0.0
  0
ARC
  5
7D5C
  8
0
 10
535.60000741481804
 20
831.99999766051735
 30
0.0
 40
0.2000000000000313
 50
0.0
 51
45.000000000000568
  0
ARC
  5
7D5D
  8
0
 10
535.60000741481804
 20
827.99999766051769
 30
0.0
 40
0.2000000000000313
 50
315.00000000000142
 51
0.0
  0
LINE
  5
7D5E
  8
0
 10
535.80000741481797
 20
827.99999766051769
 30
0.0
 11
535.80000741481797
 21
831.99999766051735
 31
0.0
  0
LINE
  5
7D5F
  8
0
 10
535.00000741481779
 20
833.74999766051758
 30
0.0
 11
535.00000741481779
 21
826.24999766051769
 31
0.0
  0
LINE
  5
7D60
  8
0
 10
535.50000741481779
 20
833.24999766051735
 30
0.0
 11
535.50000741481779
 21
826.74999766051758
 31
0.0
  0
LINE
  5
7D61
  8
0
 10
535.74142877105533
 20
832.14141901675475
 30
0.0
 11
535.74142877105533
 21
827.85857630427995
 31
0.0
  0
LINE
  5
7D62
  8
0
 10
642.58483386039734
 20
927.50000022351696
 30
0.0
 11
648.06966684508905
 21
917.99998526896877
 31
0.0
  0
LINE
  5
7D63
  8
0
 10
648.06966684508905
 20
917.99998526896877
 30
0.0
 11
642.58483386039734
 21
908.49999897181965
 31
0.0
  0
LINE
  5
7D64
  8
0
 10
631.61518013477325
 20
927.50000022351696
 30
0.0
 11
626.13034715008143
 21
917.99998526896877
 31
0.0
  0
LINE
  5
7D65
  8
0
 10
626.13034715008143
 20
917.99998526896877
 30
0.0
 11
631.61518013477325
 21
908.49999897181965
 31
0.0
  0
LINE
  5
7D66
  8
0
 10
705.61518055200588
 20
908.49999897181965
 30
0.0
 11
716.58483427762997
 21
908.49999897181965
 31
0.0
  0
LINE
  5
7D67
  8
0
 10
716.58483427762997
 20
927.50000022351696
 30
0.0
 11
705.61518055200588
 21
927.50000022351696
 31
0.0
  0
LINE
  5
7D68
  8
0
 10
716.58483427762997
 20
927.50000022351696
 30
0.0
 11
722.06966726232167
 21
917.99998526896877
 31
0.0
  0
LINE
  5
7D69
  8
0
 10
722.06966726232167
 20
917.99998526896877
 30
0.0
 11
716.58483427762997
 21
908.49999897181965
 31
0.0
  0
LINE
  5
7D6A
  8
0
 10
705.61518055200588
 20
927.50000022351696
 30
0.0
 11
700.13034756731395
 21
917.99998526896877
 31
0.0
  0
LINE
  5
7D6B
  8
0
 10
700.13034756731395
 20
917.99998526896877
 30
0.0
 11
705.61518055200588
 21
908.49999897181965
 31
0.0
  0
LINE
  5
7D6C
  8
0
 10
705.61518013477337
 20
748.49999897181988
 30
0.0
 11
716.58483386039745
 21
748.49999897181988
 31
0.0
  0
LINE
  5
7D6D
  8
0
 10
716.58483386039745
 20
767.50000022351708
 30
0.0
 11
705.61518013477337
 21
767.50000022351708
 31
0.0
  0
LINE
  5
7D6E
  8
0
 10
716.58483386039745
 20
767.50000022351708
 30
0.0
 11
722.06966684508927
 21
757.99998526896911
 31
0.0
  0
LINE
  5
7D6F
  8
0
 10
722.06966684508927
 20
757.99998526896911
 30
0.0
 11
716.58483386039745
 21
748.49999897181988
 31
0.0
  0
LINE
  5
7D70
  8
0
 10
705.61518013477337
 20
767.50000022351708
 30
0.0
 11
700.13034715008166
 21
757.99998526896911
 31
0.0
  0
LINE
  5
7D71
  8
0
 10
700.13034715008166
 20
757.99998526896911
 30
0.0
 11
705.61518013477337
 21
748.49999897181988
 31
0.0
  0
LINE
  5
7D72
  8
0
 10
631.615180552006
 20
748.49999897181965
 30
0.0
 11
642.58483427762997
 21
748.49999897181965
 31
0.0
  0
LINE
  5
7D73
  8
0
 10
642.58483427762997
 20
767.50000022351696
 30
0.0
 11
631.615180552006
 21
767.50000022351696
 31
0.0
  0
LINE
  5
7D74
  8
0
 10
642.58483427762997
 20
767.50000022351696
 30
0.0
 11
648.0696672623219
 21
757.99998526896877
 31
0.0
  0
LINE
  5
7D75
  8
0
 10
648.0696672623219
 20
757.99998526896877
 30
0.0
 11
642.58483427762997
 21
748.49999897181965
 31
0.0
  0
LINE
  5
7D76
  8
0
 10
631.615180552006
 20
767.50000022351696
 30
0.0
 11
626.13034756731406
 21
757.99998526896877
 31
0.0
  0
LINE
  5
7D77
  8
0
 10
626.13034756731406
 20
757.99998526896877
 30
0.0
 11
631.615180552006
 21
748.49999897181965
 31
0.0
  0
LINE
  5
7D78
  8
0
 10
480.51518013477329
 20
748.49999897181988
 30
0.0
 11
491.48483386039737
 21
748.49999897181988
 31
0.0
  0
LINE
  5
7D79
  8
0
 10
491.48483386039737
 20
767.50000022351708
 30
0.0
 11
480.51518013477329
 21
767.50000022351708
 31
0.0
  0
LINE
  5
7D7A
  8
0
 10
491.48483386039737
 20
767.50000022351708
 30
0.0
 11
496.96966684508919
 21
757.99998526896911
 31
0.0
  0
LINE
  5
7D7B
  8
0
 10
496.96966684508919
 20
757.99998526896911
 30
0.0
 11
491.48483386039737
 21
748.49999897181988
 31
0.0
  0
LINE
  5
7D7C
  8
0
 10
480.51518013477329
 20
767.50000022351708
 30
0.0
 11
475.03034715008152
 21
757.99998526896911
 31
0.0
  0
LINE
  5
7D7D
  8
0
 10
475.03034715008152
 20
757.99998526896911
 30
0.0
 11
480.51518013477329
 21
748.49999897181988
 31
0.0
  0
LINE
  5
7D7E
  8
0
 10
448.51518013477329
 20
748.49999897181988
 30
0.0
 11
459.48483386039737
 21
748.49999897181988
 31
0.0
  0
LINE
  5
7D7F
  8
0
 10
459.48483386039737
 20
767.50000022351708
 30
0.0
 11
448.51518013477329
 21
767.50000022351708
 31
0.0
  0
LINE
  5
7D80
  8
0
 10
459.48483386039737
 20
767.50000022351708
 30
0.0
 11
464.96966684508919
 21
757.99998526896911
 31
0.0
  0
LINE
  5
7D81
  8
0
 10
464.96966684508919
 20
757.99998526896911
 30
0.0
 11
459.48483386039737
 21
748.49999897181988
 31
0.0
  0
LINE
  5
7D82
  8
0
 10
448.51518013477329
 20
767.50000022351708
 30
0.0
 11
443.03034715008152
 21
757.99998526896911
 31
0.0
  0
LINE
  5
7D83
  8
0
 10
443.03034715008152
 20
757.99998526896911
 30
0.0
 11
448.51518013477329
 21
748.49999897181988
 31
0.0
  0
LINE
  5
7D84
  8
0
 10
448.5151805520058
 20
908.49999897181999
 30
0.0
 11
459.48483427762989
 21
908.49999897181999
 31
0.0
  0
LINE
  5
7D85
  8
0
 10
459.48483427762989
 20
927.50000022351742
 30
0.0
 11
448.5151805520058
 21
927.50000022351742
 31
0.0
  0
LINE
  5
7D86
  8
0
 10
459.48483427762989
 20
927.50000022351742
 30
0.0
 11
464.96966726232182
 21
917.99998526896934
 31
0.0
  0
LINE
  5
7D87
  8
0
 10
464.96966726232182
 20
917.99998526896934
 30
0.0
 11
459.48483427762989
 21
908.49999897181999
 31
0.0
  0
LINE
  5
7D88
  8
0
 10
448.5151805520058
 20
927.50000022351742
 30
0.0
 11
443.03034756731398
 21
917.99998526896934
 31
0.0
  0
LINE
  5
7D89
  8
0
 10
443.03034756731398
 20
917.99998526896934
 30
0.0
 11
448.5151805520058
 21
908.49999897181999
 31
0.0
  0
LINE
  5
7D8A
  8
0
 10
480.51518055200592
 20
908.49999897181976
 30
0.0
 11
491.48483427762989
 21
908.49999897181976
 31
0.0
  0
LINE
  5
7D8B
  8
0
 10
491.48483427762989
 20
927.50000022351719
 30
0.0
 11
480.51518055200592
 21
927.50000022351719
 31
0.0
  0
LINE
  5
7D8C
  8
0
 10
491.48483427762989
 20
927.50000022351719
 30
0.0
 11
496.96966726232171
 21
917.99998526896911
 31
0.0
  0
LINE
  5
7D8D
  8
0
 10
496.96966726232171
 20
917.99998526896911
 30
0.0
 11
491.48483427762989
 21
908.49999897181976
 31
0.0
  0
LINE
  5
7D8E
  8
0
 10
480.51518055200592
 20
927.50000022351719
 30
0.0
 11
475.03034756731398
 21
917.99998526896911
 31
0.0
  0
LINE
  5
7D8F
  8
0
 10
475.03034756731398
 20
917.99998526896911
 30
0.0
 11
480.51518055200592
 21
908.49999897181976
 31
0.0
  0
CIRCLE
  5
7E2C
  8
0
 10
195.0000036358831
 20
589.99999932944775
 30
0.0
 40
17.5
  0
CIRCLE
  5
7E78
  8
0
 10
195.0000036358831
 20
589.99999932944775
 30
0.0
 40
12.25
  0
CIRCLE
  5
7E79
  8
0
 10
195.0000036358831
 20
589.99999932944775
 30
0.0
 40
9.25
  0
LINE
  5
7E7A
  8
0
 10
284.0000038743018
 20
475.9999993294478
 30
0.0
 11
284.0000038743018
 21
476.9999993294478
 31
0.0
  0
LINE
  5
7E7B
  8
0
 10
266.0000038743018
 20
476.9999993294478
 30
0.0
 11
266.0000038743018
 21
475.9999993294478
 31
0.0
  0
POLYLINE
  5
7E7C
  8
0
 66
     1
 10
0.0
 20
0.0
 30
0.0
 70
   128
  0
VERTEX
  5
8C6B
  8
0
 10
265.5000038743018
 20
484.151493553416
 30
0.0
  0
VERTEX
  5
8C6C
  8
0
 10
267.8271631107051
 20
484.76710949581849
 30
0.0
  0
VERTEX
  5
8C6D
  8
0
 10
270.2500038743018
 20
484.99999932944792
 30
0.0
  0
SEQEND
  5
8C6E
  8
0
  0
POLYLINE
  5
7E7D
  8
0
 66
     1
 10
0.0
 20
0.0
 30
0.0
 70
   128
  0
VERTEX
  5
8C6F
  8
0
 10
270.2500038743018
 20
484.99999932944792
 30
0.0
  0
VERTEX
  5
8C70
  8
0
 10
272.6250038743018
 20
484.77603736726462
 30
0.0
  0
VERTEX
  5
8C71
  8
0
 10
275.0000038743018
 20
484.151493553416
 30
0.0
  0
SEQEND
  5
8C72
  8
0
  0
LINE
  5
7E7E
  8
0
 10
275.0000038743018
 20
484.151493553416
 30
0.0
 11
275.0000038743018
 21
477.59999932944788
 31
0.0
  0
LINE
  5
7E7F
  8
0
 10
284.5000038743018
 20
477.59999932944839
 30
0.0
 11
265.5000038743018
 21
477.59999932944788
 31
0.0
  0
POLYLINE
  5
7E80
  8
0
 66
     1
 10
0.0
 20
0.0
 30
0.0
 70
   128
  0
VERTEX
  5
8C73
  8
0
 10
279.75000387430202
 20
484.99999932944792
 30
0.0
  0
VERTEX
  5
8C74
  8
0
 10
282.1250038743018
 20
484.77603736726468
 30
0.0
  0
VERTEX
  5
8C75
  8
0
 10
284.5000038743018
 20
484.151493553416
 30
0.0
  0
SEQEND
  5
8C76
  8
0
  0
POLYLINE
  5
7E81
  8
0
 66
     1
 10
0.0
 20
0.0
 30
0.0
 70
   128
  0
VERTEX
  5
8C77
  8
0
 10
275.0000038743018
 20
484.151493553416
 30
0.0
  0
VERTEX
  5
8C78
  8
0
 10
277.32716311070533
 20
484.76710949581849
 30
0.0
  0
VERTEX
  5
8C79
  8
0
 10
279.75000387430202
 20
484.99999932944792
 30
0.0
  0
SEQEND
  5
8C7A
  8
0
  0
LINE
  5
7E82
  8
0
 10
284.5000038743018
 20
476.9999993294478
 30
0.0
 11
265.5000038743018
 21
476.9999993294478
 31
0.0
  0
LINE
  5
7E83
  8
0
 10
265.5000038743018
 20
484.99999932944792
 30
0.0
 11
265.5000038743018
 21
476.9999993294478
 31
0.0
  0
LINE
  5
7E84
  8
0
 10
284.5000038743018
 20
484.99999932944792
 30
0.0
 11
265.5000038743018
 21
484.99999932944792
 31
0.0
  0
LINE
  5
7E85
  8
0
 10
284.5000038743018
 20
476.9999993294478
 30
0.0
 11
284.5000038743018
 21
484.99999932944792
 31
0.0
  0
LINE
  5
8797
  8
0
 10
960.10001325188205
 20
440.29999932944799
 30
0.0
 11
959.80001325188186
 21
439.9999993294478
 31
0.0
  0
LINE
  5
8799
  8
0
 10
980.10001325188205
 20
445.9999993294478
 30
0.0
 11
960.10001325188205
 21
445.9999993294478
 31
0.0
  0
LINE
  5
879B
  8
0
 10
980.40001325188189
 20
439.9999993294478
 30
0.0
 11
980.10001325188205
 21
440.29999932944747
 31
0.0
  0
LINE
  5
879C
  8
0
 10
979.80001325188198
 20
445.9999993294478
 30
0.0
 11
980.10001325188205
 21
445.69999932944779
 31
0.0
  0
LINE
  5
879D
  8
0
 10
980.10001325188205
 20
445.9999993294478
 30
0.0
 11
980.10001325188205
 21
440.29999932944781
 31
0.0
  0
LINE
  5
879E
  8
0
 10
960.10001325188205
 20
445.69999932944779
 30
0.0
 11
960.40001325188177
 21
445.9999993294478
 31
0.0
  0
LINE
  5
879F
  8
0
 10
960.10001325188205
 20
440.29999932944799
 30
0.0
 11
960.10001325188205
 21
445.9999993294478
 31
0.0
  0
LINE
  5
87A0
  8
0
 10
978.80001325188186
 20
435.9999993294478
 30
0.0
 11
961.40001325188189
 21
435.9999993294478
 31
0.0
  0
LINE
  5
87A1
  8
0
 10
961.40001325188189
 20
435.9999993294478
 30
0.0
 11
961.10001325188171
 21
436.29999932944781
 31
0.0
  0
LINE
  5
87A2
  8
0
 10
961.10001325188171
 20
436.29999932944781
 30
0.0
 11
961.10001325188171
 21
440.59999932944788
 31
0.0
  0
LINE
  5
87A3
  8
0
 10
961.10001325188171
 20
440.59999932944788
 30
0.0
 11
960.70001325188196
 21
440.9999993294478
 31
0.0
  0
LINE
  5
87A4
  8
0
 10
960.70001325188196
 20
440.9999993294478
 30
0.0
 11
960.40001325188177
 21
440.9999993294478
 31
0.0
  0
LINE
  5
87A5
  8
0
 10
960.40001325188177
 20
440.9999993294478
 30
0.0
 11
960.10001325188182
 21
441.29999932944781
 31
0.0
  0
LINE
  5
87A6
  8
0
 10
980.10001325188205
 20
441.29999932944781
 30
0.0
 11
979.80001325188198
 21
440.9999993294478
 31
0.0
  0
LINE
  5
87A7
  8
0
 10
979.80001325188198
 20
440.9999993294478
 30
0.0
 11
979.5000132518818
 21
440.9999993294478
 31
0.0
  0
LINE
  5
87A8
  8
0
 10
979.5000132518818
 20
440.9999993294478
 30
0.0
 11
979.10001325188205
 21
440.59999932944788
 31
0.0
  0
LINE
  5
87A9
  8
0
 10
979.10001325188205
 20
440.59999932944788
 30
0.0
 11
979.10001325188205
 21
436.29999932944781
 31
0.0
  0
LINE
  5
87AA
  8
0
 10
979.10001325188205
 20
436.29999932944781
 30
0.0
 11
978.80001325188186
 21
435.9999993294478
 31
0.0
  0
LINE
  5
87BF
  8
0
 10
899.1000132518825
 20
475.9999993294478
 30
0.0
 11
899.1000132518825
 21
476.9999993294478
 31
0.0
  0
LINE
  5
87C0
  8
0
 10
881.10001325188239
 20
476.9999993294478
 30
0.0
 11
881.10001325188239
 21
475.9999993294478
 31
0.0
  0
POLYLINE
  5
87C1
  8
0
 66
     1
 10
0.0
 20
0.0
 30
0.0
 70
   128
  0
VERTEX
  5
8C7B
  8
0
 10
880.60001325188227
 20
484.151493553416
 30
0.0
  0
VERTEX
  5
8C7C
  8
0
 10
882.92717248828558
 20
484.76710949581849
 30
0.0
  0
VERTEX
  5
8C7D
  8
0
 10
885.35001325188239
 20
484.99999932944792
 30
0.0
  0
SEQEND
  5
8C7E
  8
0
  0
POLYLINE
  5
87C2
  8
0
 66
     1
 10
0.0
 20
0.0
 30
0.0
 70
   128
  0
VERTEX
  5
8C7F
  8
0
 10
885.35001325188239
 20
484.99999932944792
 30
0.0
  0
VERTEX
  5
8C80
  8
0
 10
887.72501325188239
 20
484.77603736726462
 30
0.0
  0
VERTEX
  5
8C81
  8
0
 10
890.1000132518825
 20
484.151493553416
 30
0.0
  0
SEQEND
  5
8C82
  8
0
  0
LINE
  5
87C3
  8
0
 10
890.1000132518825
 20
484.151493553416
 30
0.0
 11
890.1000132518825
 21
477.59999932944788
 31
0.0
  0
LINE
  5
87C4
  8
0
 10
899.60001325188227
 20
477.59999932944839
 30
0.0
 11
880.60001325188227
 21
477.59999932944788
 31
0.0
  0
POLYLINE
  5
87C5
  8
0
 66
     1
 10
0.0
 20
0.0
 30
0.0
 70
   128
  0
VERTEX
  5
8C83
  8
0
 10
894.8500132518825
 20
484.99999932944792
 30
0.0
  0
VERTEX
  5
8C84
  8
0
 10
897.2250132518825
 20
484.77603736726468
 30
0.0
  0
VERTEX
  5
8C85
  8
0
 10
899.60001325188239
 20
484.151493553416
 30
0.0
  0
SEQEND
  5
8C86
  8
0
  0
POLYLINE
  5
87C6
  8
0
 66
     1
 10
0.0
 20
0.0
 30
0.0
 70
   128
  0
VERTEX
  5
8C87
  8
0
 10
890.1000132518825
 20
484.151493553416
 30
0.0
  0
VERTEX
  5
8C88
  8
0
 10
892.42717248828603
 20
484.76710949581849
 30
0.0
  0
VERTEX
  5
8C89
  8
0
 10
894.8500132518825
 20
484.99999932944792
 30
0.0
  0
SEQEND
  5
8C8A
  8
0
  0
LINE
  5
87C7
  8
0
 10
899.60001325188239
 20
476.9999993294478
 30
0.0
 11
880.60001325188227
 21
476.9999993294478
 31
0.0
  0
LINE
  5
87C8
  8
0
 10
880.60001325188227
 20
484.99999932944792
 30
0.0
 11
880.60001325188227
 21
476.9999993294478
 31
0.0
  0
LINE
  5
87C9
  8
0
 10
899.60001325188227
 20
484.99999932944792
 30
0.0
 11
880.60001325188227
 21
484.99999932944792
 31
0.0
  0
LINE
  5
87CA
  8
0
 10
899.60001325188239
 20
476.9999993294478
 30
0.0
 11
899.60001325188239
 21
484.99999932944792
 31
0.0
  0
LINE
  5
87CB
  8
0
 10
1059.100017126183
 20
475.9999993294478
 30
0.0
 11
1059.100017126183
 21
476.9999993294478
 31
0.0
  0
LINE
  5
87CC
  8
0
 10
1041.100017126184
 20
476.9999993294478
 30
0.0
 11
1041.100017126184
 21
475.9999993294478
 31
0.0
  0
POLYLINE
  5
87CD
  8
0
 66
     1
 10
0.0
 20
0.0
 30
0.0
 70
   128
  0
VERTEX
  5
8C8B
  8
0
 10
1040.600017126183
 20
484.151493553416
 30
0.0
  0
VERTEX
  5
8C8C
  8
0
 10
1042.927176362587
 20
484.76710949581849
 30
0.0
  0
VERTEX
  5
8C8D
  8
0
 10
1045.350017126184
 20
484.99999932944792
 30
0.0
  0
SEQEND
  5
8C8E
  8
0
  0
POLYLINE
  5
87CE
  8
0
 66
     1
 10
0.0
 20
0.0
 30
0.0
 70
   128
  0
VERTEX
  5
8C8F
  8
0
 10
1045.350017126184
 20
484.99999932944792
 30
0.0
  0
VERTEX
  5
8C90
  8
0
 10
1047.725017126184
 20
484.77603736726462
 30
0.0
  0
VERTEX
  5
8C91
  8
0
 10
1050.100017126184
 20
484.151493553416
 30
0.0
  0
SEQEND
  5
8C92
  8
0
  0
LINE
  5
87CF
  8
0
 10
1050.100017126184
 20
484.151493553416
 30
0.0
 11
1050.100017126184
 21
477.59999932944788
 31
0.0
  0
LINE
  5
87D0
  8
0
 10
1059.600017126183
 20
477.59999932944839
 30
0.0
 11
1040.600017126183
 21
477.59999932944788
 31
0.0
  0
POLYLINE
  5
87D1
  8
0
 66
     1
 10
0.0
 20
0.0
 30
0.0
 70
   128
  0
VERTEX
  5
8C93
  8
0
 10
1054.850017126184
 20
484.99999932944792
 30
0.0
  0
VERTEX
  5
8C94
  8
0
 10
1057.225017126183
 20
484.77603736726468
 30
0.0
  0
VERTEX
  5
8C95
  8
0
 10
1059.600017126183
 20
484.151493553416
 30
0.0
  0
SEQEND
  5
8C96
  8
0
  0
POLYLINE
  5
87D2
  8
0
 66
     1
 10
0.0
 20
0.0
 30
0.0
 70
   128
  0
VERTEX
  5
8C97
  8
0
 10
1050.100017126184
 20
484.151493553416
 30
0.0
  0
VERTEX
  5
8C98
  8
0
 10
1052.427176362587
 20
484.76710949581849
 30
0.0
  0
VERTEX
  5
8C99
  8
0
 10
1054.850017126184
 20
484.99999932944792
 30
0.0
  0
SEQEND
  5
8C9A
  8
0
  0
LINE
  5
87D3
  8
0
 10
1059.600017126183
 20
476.9999993294478
 30
0.0
 11
1040.600017126183
 21
476.9999993294478
 31
0.0
  0
LINE
  5
87D4
  8
0
 10
1040.600017126183
 20
484.99999932944792
 30
0.0
 11
1040.600017126183
 21
476.9999993294478
 31
0.0
  0
LINE
  5
87D5
  8
0
 10
1059.600017126183
 20
484.99999932944792
 30
0.0
 11
1040.600017126183
 21
484.99999932944792
 31
0.0
  0
LINE
  5
87D6
  8
0
 10
1059.600017126183
 20
476.9999993294478
 30
0.0
 11
1059.600017126183
 21
484.99999932944792
 31
0.0
  0
LINE
  5
87D7
  8
0
 10
495.5000156164167
 20
476.99999980628502
 30
0.0
 11
495.5000156164167
 21
477.59999878704559
 31
0.0
  0
LINE
  5
87D8
  8
0
 10
476.50000691413862
 20
477.59999878704559
 30
0.0
 11
476.50000691413862
 21
476.99999980628502
 31
0.0
  0
LINE
  5
87D9
  8
0
 10
476.50000691413862
 20
485.0000011175872
 30
0.0
 11
475.0303649902342
 21
484.15149174630648
 31
0.0
  0
LINE
  5
87DA
  8
0
 10
496.96967244148237
 20
484.15149174630648
 30
0.0
 11
495.5000156164167
 21
485.0000011175872
 31
0.0
  0
LINE
  5
87DB
  8
0
 10
495.0000071525572
 20
475.9999977797271
 30
0.0
 11
495.0000071525572
 21
476.99999980628502
 31
0.0
  0
LINE
  5
87DC
  8
0
 10
477.00001537799818
 20
476.99999980628502
 30
0.0
 11
477.00001537799818
 21
475.9999977797271
 31
0.0
  0
POLYLINE
  5
87DD
  8
0
 66
     1
 10
0.0
 20
0.0
 30
0.0
 70
   128
  0
VERTEX
  5
8C9B
  8
0
 10
486.00001871585829
 20
485.0000011175872
 30
0.0
  0
VERTEX
  5
8C9C
  8
0
 10
488.74242842197401
 20
484.77603666484367
 30
0.0
  0
VERTEX
  5
8C9D
  8
0
 10
491.48483812808968
 20
484.15149174630648
 30
0.0
  0
SEQEND
  5
8C9E
  8
0
  0
LINE
  5
87DE
  8
0
 10
491.48483812808968
 20
477.59999878704559
 30
0.0
 11
491.48483812808968
 21
484.15149174630648
 31
0.0
  0
LINE
  5
87DF
  8
0
 10
480.51518440246559
 20
484.15149174630648
 30
0.0
 11
480.51518440246559
 21
477.59999878704559
 31
0.0
  0
POLYLINE
  5
87E0
  8
0
 66
     1
 10
0.0
 20
0.0
 30
0.0
 70
   128
  0
VERTEX
  5
8C9F
  8
0
 10
480.51518440246559
 20
484.15149174630648
 30
0.0
  0
VERTEX
  5
8CA0
  8
0
 10
483.20235550403578
 20
484.7671108692885
 30
0.0
  0
VERTEX
  5
8CA1
  8
0
 10
486.00001871585829
 20
485.0000011175872
 30
0.0
  0
SEQEND
  5
8CA2
  8
0
  0
POLYLINE
  5
87E1
  8
0
 66
     1
 10
0.0
 20
0.0
 30
0.0
 70
   128
  0
VERTEX
  5
8CA3
  8
0
 10
477.77277469634993
 20
485.0000011175872
 30
0.0
  0
VERTEX
  5
8CA4
  8
0
 10
479.14397954940779
 20
484.77603666484367
 30
0.0
  0
VERTEX
  5
8CA5
  8
0
 10
480.51518440246559
 20
484.15149174630648
 30
0.0
  0
SEQEND
  5
8CA6
  8
0
  0
LINE
  5
87E2
  8
0
 10
475.0303649902342
 20
484.15149174630648
 30
0.0
 11
475.0303649902342
 21
477.59999878704559
 31
0.0
  0
POLYLINE
  5
87E3
  8
0
 66
     1
 10
0.0
 20
0.0
 30
0.0
 70
   128
  0
VERTEX
  5
8CA7
  8
0
 10
475.0303649902342
 20
484.15149174630648
 30
0.0
  0
VERTEX
  5
8CA8
  8
0
 10
476.37394309043867
 20
484.7671108692885
 30
0.0
  0
VERTEX
  5
8CA9
  8
0
 10
477.77277469634993
 20
485.0000011175872
 30
0.0
  0
SEQEND
  5
8CAA
  8
0
  0
POLYLINE
  5
87E4
  8
0
 66
     1
 10
0.0
 20
0.0
 30
0.0
 70
   128
  0
VERTEX
  5
8CAB
  8
0
 10
494.2272478342054
 20
485.0000011175872
 30
0.0
  0
VERTEX
  5
8CAC
  8
0
 10
495.59846758842451
 20
484.77603666484367
 30
0.0
  0
VERTEX
  5
8CAD
  8
0
 10
496.96967244148237
 20
484.15149174630648
 30
0.0
  0
SEQEND
  5
8CAE
  8
0
  0
LINE
  5
87E5
  8
0
 10
496.96967244148237
 20
477.59999878704559
 30
0.0
 11
496.96967244148237
 21
484.15149174630648
 31
0.0
  0
LINE
  5
87E6
  8
0
 10
496.96967244148237
 20
477.59999878704559
 30
0.0
 11
475.0303649902342
 21
477.59999878704559
 31
0.0
  0
POLYLINE
  5
87E7
  8
0
 66
     1
 10
0.0
 20
0.0
 30
0.0
 70
   128
  0
VERTEX
  5
8CAF
  8
0
 10
491.48483812808968
 20
484.15149174630648
 30
0.0
  0
VERTEX
  5
8CB0
  8
0
 10
492.8284311294554
 20
484.7671108692885
 30
0.0
  0
VERTEX
  5
8CB1
  8
0
 10
494.2272478342054
 20
485.0000011175872
 30
0.0
  0
SEQEND
  5
8CB2
  8
0
  0
LINE
  5
87E8
  8
0
 10
495.5000156164167
 20
476.99999980628502
 30
0.0
 11
476.50000691413862
 21
476.99999980628502
 31
0.0
  0
LINE
  5
87E9
  8
0
 10
495.5000156164167
 20
485.0000011175872
 30
0.0
 11
476.50000691413862
 21
485.0000011175872
 31
0.0
  0
LINE
  5
87EA
  8
0
 10
505.03035128116608
 20
590.00000528991222
 30
0.0
 11
510.51517814397812
 21
599.5000021904707
 31
0.0
  0
LINE
  5
87EB
  8
0
 10
521.4848318696022
 20
599.5000021904707
 30
0.0
 11
526.96966618299484
 21
590.00000528991222
 31
0.0
  0
LINE
  5
87EC
  8
0
 10
505.03035128116608
 20
590.00000528991222
 30
0.0
 11
510.51517814397812
 21
580.49999348819256
 31
0.0
  0
LINE
  5
87ED
  8
0
 10
521.4848318696022
 20
580.49999348819256
 30
0.0
 11
526.96966618299484
 21
590.00000528991222
 31
0.0
  0
LINE
  5
87F4
  8
0
 10
639.69282816368195
 20
600.87901960295881
 30
0.0
 11
649.81792952718024
 21
596.65816557925859
 31
0.0
  0
LINE
  5
87F5
  8
0
 10
630.9749053830659
 20
594.22085924163412
 30
0.0
 11
632.3820834997673
 21
583.34182995546405
 31
0.0
  0
LINE
  5
87F6
  8
0
 10
642.50718486326548
 20
579.12097593176395
 30
0.0
 11
651.22510787671195
 21
585.77913629308046
 31
0.0
  0
LINE
  5
87F7
  8
0
 10
720.60000715777278
 20
476.99999980628502
 30
0.0
 11
720.60000715777278
 21
477.59999878704559
 31
0.0
  0
LINE
  5
87F8
  8
0
 10
701.60000683739781
 20
477.59999878704559
 30
0.0
 11
701.60000683739781
 21
476.99999980628502
 31
0.0
  0
LINE
  5
87F9
  8
0
 10
701.60000683739781
 20
485.0000011175872
 30
0.0
 11
700.13035187497735
 21
484.15149174630648
 31
0.0
  0
LINE
  5
87FA
  8
0
 10
722.06966212019324
 20
484.15149174630648
 30
0.0
 11
720.60000715777278
 21
485.0000011175872
 31
0.0
  0
LINE
  5
87FB
  8
0
 10
720.10000707581639
 20
475.9999977797271
 30
0.0
 11
720.10000707581639
 21
476.99999980628502
 31
0.0
  0
LINE
  5
87FC
  8
0
 10
702.1000069193542
 20
476.99999980628502
 30
0.0
 11
702.1000069193542
 21
475.9999977797271
 31
0.0
  0
POLYLINE
  5
87FD
  8
0
 66
     1
 10
0.0
 20
0.0
 30
0.0
 70
   128
  0
VERTEX
  5
8CB3
  8
0
 10
711.1000069975853
 20
485.0000011175872
 30
0.0
  0
VERTEX
  5
8CB4
  8
0
 10
713.84242089465261
 20
484.77603666484367
 30
0.0
  0
VERTEX
  5
8CB5
  8
0
 10
716.58483432605863
 20
484.15149174630648
 30
0.0
  0
SEQEND
  5
8CB6
  8
0
  0
LINE
  5
87FE
  8
0
 10
716.58483432605863
 20
477.59999878704559
 30
0.0
 11
716.58483432605863
 21
484.15149174630648
 31
0.0
  0
LINE
  5
87FF
  8
0
 10
705.61517943628132
 20
484.15149174630648
 30
0.0
 11
705.61517943628132
 21
477.59999878704559
 31
0.0
  0
POLYLINE
  5
8800
  8
0
 66
     1
 10
0.0
 20
0.0
 30
0.0
 70
   128
  0
VERTEX
  5
8CB7
  8
0
 10
705.61517943628132
 20
484.15149174630648
 30
0.0
  0
VERTEX
  5
8CB8
  8
0
 10
708.3023514400702
 20
484.7671108692885
 30
0.0
  0
VERTEX
  5
8CB9
  8
0
 10
711.1000069975853
 20
485.0000011175872
 30
0.0
  0
SEQEND
  5
8CBA
  8
0
  0
POLYLINE
  5
8801
  8
0
 66
     1
 10
0.0
 20
0.0
 30
0.0
 70
   128
  0
VERTEX
  5
8CBB
  8
0
 10
702.87276577204454
 20
485.0000011175872
 30
0.0
  0
VERTEX
  5
8CBC
  8
0
 10
704.24397248774767
 20
484.77603666484367
 30
0.0
  0
VERTEX
  5
8CBD
  8
0
 10
705.61517943628132
 20
484.15149174630648
 30
0.0
  0
SEQEND
  5
8CBE
  8
0
  0
LINE
  5
8802
  8
0
 10
700.13035187497735
 20
484.15149174630648
 30
0.0
 11
700.13035187497735
 21
477.59999878704559
 31
0.0
  0
POLYLINE
  5
8803
  8
0
 66
     1
 10
0.0
 20
0.0
 30
0.0
 70
   128
  0
VERTEX
  5
8CBF
  8
0
 10
700.13035187497735
 20
484.15149174630648
 30
0.0
  0
VERTEX
  5
8CC0
  8
0
 10
701.4739378914237
 20
484.7671108692885
 30
0.0
  0
VERTEX
  5
8CC1
  8
0
 10
702.87276577204454
 20
485.0000011175872
 30
0.0
  0
SEQEND
  5
8CC2
  8
0
  0
POLYLINE
  5
8804
  8
0
 66
     1
 10
0.0
 20
0.0
 30
0.0
 70
   128
  0
VERTEX
  5
8CC3
  8
0
 10
719.32724868878722
 20
485.0000011175872
 30
0.0
  0
VERTEX
  5
8CC4
  8
0
 10
720.69845540449023
 20
484.77603666484367
 30
0.0
  0
VERTEX
  5
8CC5
  8
0
 10
722.06966212019324
 20
484.15149174630648
 30
0.0
  0
SEQEND
  5
8CC6
  8
0
  0
LINE
  5
8805
  8
0
 10
722.06966212019324
 20
477.59999878704559
 30
0.0
 11
722.06966212019324
 21
484.15149174630648
 31
0.0
  0
LINE
  5
8806
  8
0
 10
722.06966212019324
 20
477.59999878704559
 30
0.0
 11
700.13035187497735
 21
477.59999878704559
 31
0.0
  0
POLYLINE
  5
8807
  8
0
 66
     1
 10
0.0
 20
0.0
 30
0.0
 70
   128
  0
VERTEX
  5
8CC7
  8
0
 10
716.58483432605863
 20
484.15149174630648
 30
0.0
  0
VERTEX
  5
8CC8
  8
0
 10
717.92842080816627
 20
484.7671108692885
 30
0.0
  0
VERTEX
  5
8CC9
  8
0
 10
719.32724868878722
 20
485.0000011175872
 30
0.0
  0
SEQEND
  5
8CCA
  8
0
  0
LINE
  5
8808
  8
0
 10
720.60000715777289
 20
476.99999980628502
 30
0.0
 11
701.60000683739781
 21
476.99999980628502
 31
0.0
  0
LINE
  5
8809
  8
0
 10
720.60000715777278
 20
485.0000011175872
 30
0.0
 11
701.60000683739793
 21
485.0000011175872
 31
0.0
  0
CIRCLE
  5
88A0
  8
0
 10
517.0000074148179
 20
220.00000000000011
 30
0.0
 40
7.7999999999999989
  0
CIRCLE
  5
88A1
  8
0
 10
517.0000074148179
 20
220.00000000000011
 30
0.0
 40
5.0
  0
CIRCLE
  5
8938
  8
0
 10
517.0000074148179
 20
169.99999999999989
 30
0.0
 40
10.0
  0
ARC
  5
8939
  8
0
 10
517.0000074148179
 20
169.99999999999989
 30
0.0
 40
5.715000000004764
 50
307.37924270159237
 51
5.3151719144438641
  0
ARC
  5
893A
  8
0
 10
517.0000074148179
 20
169.99999999999989
 30
0.0
 40
5.715000000004709
 50
187.37924270159149
 51
245.31517191444459
  0
ARC
  5
893B
  8
0
 10
517.0000074148179
 20
169.99999999999989
 30
0.0
 40
5.7150000000047676
 50
7.3792427015915472
 51
65.315171914444534
  0
ARC
  5
893C
  8
0
 10
517.0000074148179
 20
169.99999999999989
 30
0.0
 40
5.7150000000047596
 50
247.3792427015932
 51
305.31517191444539
  0
ARC
  5
893D
  8
0
 10
517.0000074148179
 20
169.99999999999989
 30
0.0
 40
5.7150000000047596
 50
67.379242701590513
 51
125.3151719144454
  0
ARC
  5
893E
  8
0
 10
517.0000074148179
 20
169.99999999999989
 30
0.0
 40
5.7150000000047623
 50
127.3792427015924
 51
185.31517191444379
  0
LINE
  5
893F
  8
0
 10
511.26189510812952
 20
169.36172068095081
 30
0.0
 11
513.57818515646966
 21
174.65021136784199
 31
0.0
  0
LINE
  5
8940
  8
0
 10
513.57818515646829
 20
174.65021136783861
 30
0.0
 11
519.3162974631623
 21
175.28849068688541
 31
0.0
  0
LINE
  5
8941
  8
0
 10
520.42182967316512
 20
165.34978863215539
 30
0.0
 11
514.68371736647339
 21
164.7115093131145
 31
0.0
  0
LINE
  5
8942
  8
0
 10
519.31629746315991
 20
175.2884906868851
 30
0.0
 11
522.73811972151043
 21
170.63827931904319
 31
0.0
  0
LINE
  5
8943
  8
0
 10
514.68371736647759
 20
164.7115093131149
 30
0.0
 11
511.26189510812537
 21
169.36172068095661
 31
0.0
  0
LINE
  5
8944
  8
0
 10
522.73811972150008
 20
170.6382793190572
 30
0.0
 11
520.42182967316603
 21
165.34978863215781
 31
0.0
  0
CIRCLE
  5
8945
  8
0
 10
517.0000074148179
 20
169.99999999999989
 30
0.0
 40
9.0000000000000231
  0
CIRCLE
  5
8946
  8
0
 10
517.0000074148179
 20
169.99999999999989
 30
0.0
 40
7.7999999999999989
  0
CIRCLE
  5
8947
  8
0
 10
517.0000074148179
 20
169.99999999999989
 30
0.0
 40
5.0
  0
CIRCLE
  5
8948
  8
0
 10
689.10000741481781
 20
158.49999999999989
 30
0.0
 40
10.0
  0
ARC
  5
8949
  8
0
 10
689.10000741481781
 20
158.49999999999989
 30
0.0
 40
5.715000000004764
 50
307.37924270159328
 51
5.3151719144438641
  0
ARC
  5
894A
  8
0
 10
689.10000741481781
 20
158.49999999999989
 30
0.0
 40
5.715000000004709
 50
187.37924270159149
 51
245.31517191444539
  0
ARC
  5
894B
  8
0
 10
689.10000741481781
 20
158.49999999999989
 30
0.0
 40
5.7150000000047676
 50
7.3792427015915472
 51
65.315171914445401
  0
ARC
  5
894C
  8
0
 10
689.10000741481781
 20
158.49999999999989
 30
0.0
 40
5.7150000000047596
 50
247.3792427015932
 51
305.31517191444539
  0
ARC
  5
894D
  8
0
 10
689.10000741481781
 20
158.49999999999989
 30
0.0
 40
5.7150000000047596
 50
67.379242701589661
 51
125.3151719144454
  0
ARC
  5
894E
  8
0
 10
689.10000741481781
 20
158.49999999999989
 30
0.0
 40
5.7150000000047623
 50
127.3792427015933
 51
185.31517191444379
  0
LINE
  5
894F
  8
0
 10
683.36189510812949
 20
157.86172068095081
 30
0.0
 11
685.67818515646957
 21
163.15021136784199
 31
0.0
  0
LINE
  5
8950
  8
0
 10
685.6781851564682
 20
163.15021136783861
 30
0.0
 11
691.41629746316221
 21
163.78849068688541
 31
0.0
  0
LINE
  5
8951
  8
0
 10
692.52182967316503
 20
153.84978863215539
 30
0.0
 11
686.7837173664733
 21
153.2115093131145
 31
0.0
  0
LINE
  5
8952
  8
0
 10
691.41629746315982
 20
163.7884906868851
 30
0.0
 11
694.83811972151034
 21
159.13827931904319
 31
0.0
  0
LINE
  5
8953
  8
0
 10
686.78371736647739
 20
153.2115093131149
 30
0.0
 11
683.36189510812528
 21
157.86172068095661
 31
0.0
  0
LINE
  5
8954
  8
0
 10
694.83811972149999
 20
159.1382793190572
 30
0.0
 11
692.52182967316594
 21
153.84978863215781
 31
0.0
  0
CIRCLE
  5
8955
  8
0
 10
689.10000741481781
 20
158.49999999999989
 30
0.0
 40
9.0000000000000231
  0
CIRCLE
  5
8956
  8
0
 10
689.10000741481781
 20
158.49999999999989
 30
0.0
 40
7.7999999999999989
  0
CIRCLE
  5
8957
  8
0
 10
689.10000741481781
 20
158.49999999999989
 30
0.0
 40
5.0
  0
CIRCLE
  5
8958
  8
0
 10
649.1000074148177
 20
195.0
 30
0.0
 40
10.0
  0
ARC
  5
8959
  8
0
 10
649.1000074148177
 20
195.0
 30
0.0
 40
5.715000000004764
 50
307.37924270159328
 51
5.3151719144440666
  0
ARC
  5
895A
  8
0
 10
649.1000074148177
 20
195.0
 30
0.0
 40
5.715000000004709
 50
187.37924270159149
 51
245.31517191444539
  0
ARC
  5
895B
  8
0
 10
649.1000074148177
 20
195.0
 30
0.0
 40
5.7150000000047676
 50
7.3792427015915472
 51
65.315171914445415
  0
ARC
  5
895C
  8
0
 10
649.1000074148177
 20
195.0
 30
0.0
 40
5.7150000000047596
 50
247.3792427015932
 51
305.31517191444539
  0
ARC
  5
895D
  8
0
 10
649.1000074148177
 20
195.0
 30
0.0
 40
5.7150000000047596
 50
67.379242701589675
 51
125.3151719144454
  0
ARC
  5
895E
  8
0
 10
649.1000074148177
 20
195.0
 30
0.0
 40
5.7150000000047623
 50
127.3792427015933
 51
185.31517191444399
  0
LINE
  5
895F
  8
0
 10
643.36189510812937
 20
194.3617206809509
 30
0.0
 11
645.67818515646968
 21
199.6502113678421
 31
0.0
  0
LINE
  5
8960
  8
0
 10
645.6781851564682
 20
199.65021136783881
 30
0.0
 11
651.41629746316221
 21
200.2884906868855
 31
0.0
  0
LINE
  5
8961
  8
0
 10
652.52182967316503
 20
190.34978863215551
 30
0.0
 11
646.78371736647341
 21
189.71150931311459
 31
0.0
  0
LINE
  5
8962
  8
0
 10
651.41629746315982
 20
200.28849068688521
 30
0.0
 11
654.83811972151034
 21
195.63827931904331
 31
0.0
  0
LINE
  5
8963
  8
0
 10
646.7837173664775
 20
189.71150931311499
 30
0.0
 11
643.36189510812517
 21
194.36172068095669
 31
0.0
  0
LINE
  5
8964
  8
0
 10
654.83811972149988
 20
195.63827931905729
 30
0.0
 11
652.52182967316594
 21
190.3497886321579
 31
0.0
  0
CIRCLE
  5
8965
  8
0
 10
649.1000074148177
 20
195.0
 30
0.0
 40
9.0000000000000231
  0
CIRCLE
  5
8966
  8
0
 10
649.1000074148177
 20
195.0
 30
0.0
 40
7.7999999999999989
  0
CIRCLE
  5
8967
  8
0
 10
649.1000074148177
 20
195.0
 30
0.0
 40
5.0
  0
CIRCLE
  5
8968
  8
0
 10
689.10000741481781
 20
231.50000000000011
 30
0.0
 40
10.0
  0
ARC
  5
8969
  8
0
 10
689.10000741481781
 20
231.50000000000011
 30
0.0
 40
5.715000000004764
 50
307.37924270159328
 51
5.3151719144438641
  0
ARC
  5
896A
  8
0
 10
689.10000741481781
 20
231.50000000000011
 30
0.0
 40
5.715000000004709
 50
187.37924270159149
 51
245.31517191444539
  0
ARC
  5
896B
  8
0
 10
689.10000741481781
 20
231.50000000000011
 30
0.0
 40
5.7150000000047676
 50
7.3792427015915472
 51
65.315171914445401
  0
ARC
  5
896C
  8
0
 10
689.10000741481781
 20
231.50000000000011
 30
0.0
 40
5.7150000000047596
 50
247.3792427015932
 51
305.31517191444539
  0
ARC
  5
896D
  8
0
 10
689.10000741481781
 20
231.50000000000011
 30
0.0
 40
5.7150000000047596
 50
67.379242701589675
 51
125.3151719144453
  0
ARC
  5
896E
  8
0
 10
689.10000741481781
 20
231.50000000000011
 30
0.0
 40
5.7150000000047623
 50
127.3792427015933
 51
185.31517191444399
  0
LINE
  5
896F
  8
0
 10
683.36189510812949
 20
230.8617206809509
 30
0.0
 11
685.67818515646957
 21
236.1502113678421
 31
0.0
  0
LINE
  5
8970
  8
0
 10
685.6781851564682
 20
236.15021136783881
 30
0.0
 11
691.41629746316221
 21
236.7884906868855
 31
0.0
  0
LINE
  5
8971
  8
0
 10
692.52182967316503
 20
226.84978863215551
 30
0.0
 11
686.7837173664733
 21
226.21150931311459
 31
0.0
  0
LINE
  5
8972
  8
0
 10
691.41629746315982
 20
236.78849068688521
 30
0.0
 11
694.83811972151034
 21
232.13827931904339
 31
0.0
  0
LINE
  5
8973
  8
0
 10
686.78371736647739
 20
226.2115093131151
 30
0.0
 11
683.36189510812528
 21
230.86172068095669
 31
0.0
  0
LINE
  5
8974
  8
0
 10
694.83811972149999
 20
232.13827931905729
 30
0.0
 11
692.52182967316594
 21
226.8497886321579
 31
0.0
  0
CIRCLE
  5
8975
  8
0
 10
689.10000741481781
 20
231.50000000000011
 30
0.0
 40
9.0000000000000231
  0
CIRCLE
  5
8976
  8
0
 10
689.10000741481781
 20
231.50000000000011
 30
0.0
 40
7.7999999999999989
  0
CIRCLE
  5
8977
  8
0
 10
689.10000741481781
 20
231.50000000000011
 30
0.0
 40
5.0
  0
ENDSEC
  0
EOF
