  0
SECTION
  2
HEADER
  9
$ACADVER
  1
AC1009
  9
$INSBASE
 10
0.0
 20
0.0
 30
0.0
  9
$EXTMIN
 10
0.0
 20
-2.960436562073669
 30
0.0
  9
$EXTMAX
 10
1001.100000143051
 20
850.99999807775043
 30
0.0
  9
$LIMMIN
 10
0.0
 20
0.0
  9
$LIMMAX
 10
187.5
 20
135.0
  9
$ORTHOMODE
 70
     1
  9
$REGENMODE
 70
     1
  9
$FILLMODE
 70
     1
  9
$QTEXTMODE
 70
     0
  9
$MIRRTEXT
 70
     0
  9
$DRAGMODE
 70
     2
  9
$LTSCALE
 40
5.0
  9
$OSMODE
 70
    37
  9
$ATTMODE
 70
     1
  9
$TEXTSIZE
 40
4.0
  9
$TRACEWID
 40
0.05
  9
$TEXTSTYLE
  7
K80
  9
$CLAYER
  8
0
  9
$CELTYPE
  6
BYLAYER
  9
$CECOLOR
 62
   256
  9
$DIMSCALE
 40
1.0
  9
$DIMASZ
 40
3.0
  9
$DIMEXO
 40
2.0
  9
$DIMDLI
 40
10.0
  9
$DIMRND
 40
0.0
  9
$DIMDLE
 40
0.0
  9
$DIMEXE
 40
2.0
  9
$DIMTP
 40
0.0
  9
$DIMTM
 40
0.0
  9
$DIMTXT
 40
3.2000000000000002
  9
$DIMCEN
 40
0.0
  9
$DIMTSZ
 40
0.0
  9
$DIMTOL
 70
     0
  9
$DIMLIM
 70
     0
  9
$DIMTIH
 70
     0
  9
$DIMTOH
 70
     0
  9
$DIMSE1
 70
     0
  9
$DIMSE2
 70
     0
  9
$DIMTAD
 70
     1
  9
$DIMZIN
 70
     8
  9
$DIMBLK
  1

  9
$DIMASO
 70
     0
  9
$DIMSHO
 70
     0
  9
$DIMPOST
  1

  9
$DIMAPOST
  1

  9
$DIMALT
 70
     0
  9
$DIMALTD
 70
     2
  9
$DIMALTF
 40
25.399999999999999
  9
$DIMLFAC
 40
1.0
  9
$DIMTOFL
 70
     1
  9
$DIMTVP
 40
1.6000000000000001
  9
$DIMTIX
 70
     1
  9
$DIMSOXD
 70
     0
  9
$DIMSAH
 70
     0
  9
$DIMBLK1
  1

  9
$DIMBLK2
  1

  9
$DIMSTYLE
  2
STANDARD
  9
$DIMCLRD
 70
     0
  9
$DIMCLRE
 70
     0
  9
$DIMCLRT
 70
     0
  9
$DIMTFAC
 40
1.0
  9
$DIMGAP
 40
1.0
  9
$LUNITS
 70
     2
  9
$LUPREC
 70
     1
  9
$SKETCHINC
 40
0.1
  9
$FILLETRAD
 40
0.0
  9
$AUNITS
 70
     0
  9
$AUPREC
 70
     1
  9
$MENU
  1
E:\r13\win\SUPPORT\ACAD
  9
$ELEVATION
 40
0.0
  9
$PELEVATION
 40
0.0
  9
$THICKNESS
 40
0.0
  9
$LIMCHECK
 70
     0
  9
$BLIPMODE
 70
     0
  9
$CHAMFERA
 40
0.0
  9
$CHAMFERB
 40
0.0
  9
$SKPOLY
 70
     0
  9
$TDCREATE
 40
2455505.3813724308
  9
$TDUPDATE
 40
2458452.449184827
  9
$TDINDWG
 40
0.3091190394
  9
$TDUSRTIMER
 40
0.3091188542
  9
$USRTIMER
 70
     1
  9
$ANGBASE
 50
0.0
  9
$ANGDIR
 70
     0
  9
$PDMODE
 70
    35
  9
$PDSIZE
 40
0.0
  9
$PLINEWID
 40
0.0
  9
$COORDS
 70
     1
  9
$SPLFRAME
 70
     0
  9
$SPLINETYPE
 70
     6
  9
$SPLINESEGS
 70
     8
  9
$ATTDIA
 70
     0
  9
$ATTREQ
 70
     1
  9
$HANDLING
 70
     1
  9
$HANDSEED
  5
3388
  9
$SURFTAB1
 70
     6
  9
$SURFTAB2
 70
     6
  9
$SURFTYPE
 70
     6
  9
$SURFU
 70
     6
  9
$SURFV
 70
     6
  9
$UCSNAME
  2

  9
$UCSORG
 10
0.0
 20
0.0
 30
0.0
  9
$UCSXDIR
 10
1.0
 20
0.0
 30
0.0
  9
$UCSYDIR
 10
0.0
 20
1.0
 30
0.0
  9
$PUCSNAME
  2

  9
$PUCSORG
 10
0.0
 20
0.0
 30
0.0
  9
$PUCSXDIR
 10
1.0
 20
0.0
 30
0.0
  9
$PUCSYDIR
 10
0.0
 20
1.0
 30
0.0
  9
$USERI1
 70
     0
  9
$USERI2
 70
     1
  9
$USERI3
 70
     0
  9
$USERI4
 70
     0
  9
$USERI5
 70
     0
  9
$USERR1
 40
0.0
  9
$USERR2
 40
0.0
  9
$USERR3
 40
0.0
  9
$USERR4
 40
0.0
  9
$USERR5
 40
0.0
  9
$WORLDVIEW
 70
     1
  9
$SHADEDGE
 70
     3
  9
$SHADEDIF
 70
    70
  9
$TILEMODE
 70
     1
  9
$MAXACTVP
 70
    16
  9
$PLIMCHECK
 70
     0
  9
$PEXTMIN
 10
1.0000000000000000E+020
 20
1.0000000000000000E+020
 30
1.0000000000000000E+020
  9
$PEXTMAX
 10
-1.0000000000000000E+020
 20
-1.0000000000000000E+020
 30
-1.0000000000000000E+020
  9
$PLIMMIN
 10
0.0
 20
0.0
  9
$PLIMMAX
 10
12.0
 20
9.0
  9
$UNITMODE
 70
     0
  9
$VISRETAIN
 70
     0
  9
$PLINEGEN
 70
     0
  9
$PSLTSCALE
 70
     0
  0
ENDSEC
  0
SECTION
  2
TABLES
  0
TABLE
  2
VPORT
 70
     1
  0
VPORT
  2
*ACTIVE
 70
     0
 10
0.0
 20
0.0
 11
1.0
 21
1.0
 12
1379.7577854671281
 22
500.0
 13
0.0
 23
0.0
 14
5.0
 24
5.0
 15
5.0
 25
5.0
 16
0.0
 26
0.0
 36
1.0
 17
0.0
 27
0.0
 37
0.0
 40
1000.0
 41
2.7595155709342558
 42
50.0
 43
0.0
 44
0.0
 50
0.0
 51
0.0
 71
     0
 72
   100
 73
     1
 74
     0
 75
     0
 76
     0
 77
     0
 78
     2
  0
ENDTAB
  0
TABLE
  2
LTYPE
 70
     3
  0
LTYPE
  2
CONTINUOUS
 70
     0
  3
Solid Line
 72
    65
 73
     0
 40
0.0
  0
LTYPE
  2
CENTER
 70
     0
  3
____ _ ____ _ ____ _ ____ _ ____ _ ____ _ ____
 72
    65
 73
     4
 40
2.0
 49
1.25
 49
-0.25
 49
0.25
 49
-0.25
  0
LTYPE
  2
PHANTOM2
 70
     0
  3
___ _ _ ___ _ _ ___ _ _ ___ _ _
 72
    65
 73
     6
 40
1.25
 49
0.625
 49
-0.125
 49
0.125
 49
-0.125
 49
0.125
 49
-0.125
  0
ENDTAB
  0
TABLE
  2
LAYER
 70
     3
  0
LAYER
  2
0
 70
     0
 62
     7
  6
CONTINUOUS
  0
LAYER
  2
1
 70
     0
 62
     1
  6
CENTER
  0
LAYER
  2
3
 70
     0
 62
     3
  6
CONTINUOUS
  0
ENDTAB
  0
TABLE
  2
STYLE
 70
     3
  0
STYLE
  2
STANDARD
 70
     0
 40
0.0
 41
1.0
 50
0.0
 71
     0
 42
4.0
  3
ROMANS
  4

  0
STYLE
  2
K80
 70
     0
 40
0.0
 41
1.0
 50
0.0
 71
     0
 42
4.0
  3
romans.shx
  4

  0
STYLE
  2
STANDARD1
 70
     0
 40
0.0
 41
1.0
 50
0.0
 71
     0
 42
3.0
  3
txt
  4

  0
ENDTAB
  0
TABLE
  2
VIEW
 70
     1
  0
VIEW
  2
ALL
 70
     0
 40
175.0
 10
143.23529400000001
 20
87.5
 41
0.0
 11
0.0
 21
0.0
 31
1.0
 12
0.0
 22
0.0
 32
0.0
 42
0.0
 43
0.0
 44
0.0
 50
0.0
 71
     0
  0
ENDTAB
  0
TABLE
  2
UCS
 70
     0
  0
ENDTAB
  0
TABLE
  2
APPID
 70
     6
  0
APPID
  2
ACAD
 70
     0
  0
APPID
  2
ACAD_MLEADERVER
 70
     0
  0
APPID
  2
ACAD_EXEMPT_FROM_CAD_STANDARDS
 70
     0
  0
APPID
  2
ACAD_DSTYLE_DIMJAG
 70
     0
  0
APPID
  2
ACAD_DSTYLE_DIMTALN
 70
     0
  0
APPID
  2
ACAD_NAV_VCDISPLAY
 70
     0
  0
ENDTAB
  0
TABLE
  2
DIMSTYLE
 70
     1
  0
DIMSTYLE
  2
STANDARD
 70
     0
  3

  4

  5

  6

  7

 40
1.0
 41
0.18
 42
0.0625
 43
0.38
 44
0.18
 45
0.0
 46
0.0
 47
0.0
 48
0.0
140
0.18
141
0.09
142
0.0
143
25.399999999999999
144
1.0
145
0.0
146
1.0
147
0.09
 71
     0
 72
     0
 73
     1
 74
     1
 75
     0
 76
     0
 77
     0
 78
     0
170
     0
171
     2
172
     0
173
     0
174
     0
175
     0
176
     0
177
     0
178
     0
  0
ENDTAB
  0
ENDSEC
  0
SECTION
  2
BLOCKS
  0
BLOCK
  8
0
  2
$MODEL_SPACE
 70
     0
 10
0.0
 20
0.0
 30
0.0
  3
$MODEL_SPACE
  1

  0
ENDBLK
  5
1EF
  8
0
  0
BLOCK
 67
     1
  8
0
  2
$PAPER_SPACE
 70
     0
 10
0.0
 20
0.0
 30
0.0
  3
$PAPER_SPACE
  1

  0
ENDBLK
  5
1ED
 67
     1
  8
0
  0
ENDSEC
  0
SECTION
  2
ENTITIES
  0
LINE
  5
F93
  8
0
 10
614.60000116378069
 20
469.99999813735479
 30
0.0
 11
614.60000116378069
 21
470.59999711811548
 31
0.0
  0
LINE
  5
F94
  8
0
 10
595.60000084340572
 20
470.59999711811548
 30
0.0
 11
595.60000084340572
 21
469.99999813735479
 31
0.0
  0
LINE
  5
F95
  8
0
 10
599.1735009290278
 20
410.99999777972698
 30
0.0
 11
600.17350097652525
 21
409.99999761581421
 31
0.0
  0
LINE
  5
F96
  8
0
 10
610.02650137990713
 20
409.99999761581421
 30
0.0
 11
611.02650061249733
 21
410.99999777972698
 31
0.0
  0
LINE
  5
F97
  8
0
 10
611.10000059008598
 20
426.99999760836363
 30
0.0
 11
611.10000059008598
 21
432.99999766051769
 31
0.0
  0
LINE
  5
F98
  8
0
 10
599.10000095143914
 20
432.99999766051769
 30
0.0
 11
599.10000095143914
 21
426.99999760836363
 31
0.0
  0
LINE
  5
F99
  8
0
 10
616.06965612620115
 20
477.15149007737631
 30
0.0
 11
614.60000116378069
 21
477.99999944865698
 31
0.0
  0
LINE
  5
F9A
  8
0
 10
595.60000084340572
 20
477.99999944865698
 30
0.0
 11
594.13034588098515
 21
477.15149007737631
 31
0.0
  0
LINE
  5
F9B
  8
0
 10
463.49999427795422
 20
469.99999813735479
 30
0.0
 11
463.49999427795422
 21
470.59999711811548
 31
0.0
  0
LINE
  5
F9C
  8
0
 10
444.50000047683722
 20
470.59999711811548
 30
0.0
 11
444.50000047683722
 21
469.99999813735479
 31
0.0
  0
LINE
  5
F9D
  8
0
 10
448.0735075473786
 20
410.99999777972698
 30
0.0
 11
449.07349467277533
 21
409.99999761581421
 31
0.0
  0
LINE
  5
F9E
  8
0
 10
458.92650008201599
 20
409.99999761581421
 30
0.0
 11
459.92650210857403
 21
410.99999777972698
 31
0.0
  0
LINE
  5
F9F
  8
0
 10
459.99999463558203
 20
426.99999760836363
 30
0.0
 11
459.99999463558203
 21
432.99999766051769
 31
0.0
  0
LINE
  5
FA0
  8
0
 10
448.00000011920929
 20
432.99999766051769
 30
0.0
 11
448.00000011920929
 21
426.99999760836363
 31
0.0
  0
LINE
  5
FA1
  8
0
 10
464.96965110301983
 20
477.15149007737631
 30
0.0
 11
463.49999427795422
 21
477.99999944865698
 31
0.0
  0
LINE
  5
FA2
  8
0
 10
444.50000047683722
 20
477.99999944865698
 30
0.0
 11
443.03034365177172
 21
477.15149007737631
 31
0.0
  0
LINE
  5
FA3
  8
0
 10
431.50000393390661
 20
469.99999813735479
 30
0.0
 11
431.50000393390661
 21
470.59999711811548
 31
0.0
  0
LINE
  5
FA4
  8
0
 10
412.49999523162847
 20
470.59999711811548
 30
0.0
 11
412.49999523162847
 21
469.99999813735479
 31
0.0
  0
LINE
  5
FA5
  8
0
 10
428.00000429153448
 20
426.99999760836363
 30
0.0
 11
428.00000429153448
 21
432.99999766051769
 31
0.0
  0
LINE
  5
FA6
  8
0
 10
415.99999487400061
 20
432.99999766051769
 30
0.0
 11
415.99999487400061
 21
426.99999760836363
 31
0.0
  0
LINE
  5
FA7
  8
0
 10
416.07350230216991
 20
410.99999777972698
 30
0.0
 11
417.07350432872778
 21
409.99999761581421
 31
0.0
  0
LINE
  5
FA8
  8
0
 10
426.92649483680731
 20
409.99999761581421
 30
0.0
 11
427.92649686336517
 21
410.99999777972698
 31
0.0
  0
LINE
  5
FA9
  8
0
 10
432.96966075897222
 20
477.15149007737631
 30
0.0
 11
431.50000393390661
 21
477.99999944865698
 31
0.0
  0
LINE
  5
FAA
  8
0
 10
412.49999523162847
 20
477.99999944865698
 30
0.0
 11
411.03035330772411
 21
477.15149007737631
 31
0.0
  0
LINE
  5
FAB
  8
0
 10
688.59999746084213
 20
469.99999813735479
 30
0.0
 11
688.59999746084213
 21
470.59999711811548
 31
0.0
  0
LINE
  5
FAC
  8
0
 10
669.60000365972519
 20
470.59999711811548
 30
0.0
 11
669.60000365972519
 21
469.99999813735479
 31
0.0
  0
LINE
  5
FAD
  8
0
 10
685.09999781847
 20
426.99999760836363
 30
0.0
 11
685.09999781847
 21
432.99999766051769
 31
0.0
  0
LINE
  5
FAE
  8
0
 10
673.10000330209732
 20
432.99999766051769
 30
0.0
 11
673.10000330209732
 21
426.99999760836363
 31
0.0
  0
LINE
  5
FAF
  8
0
 10
673.17350327968586
 20
410.99999777972698
 30
0.0
 11
674.1734978556633
 21
409.99999761581421
 31
0.0
  0
LINE
  5
FB0
  8
0
 10
684.02650326490402
 20
409.99999761581421
 30
0.0
 11
685.02649784088135
 21
410.99999777972698
 31
0.0
  0
LINE
  5
FB1
  8
0
 10
669.60000365972519
 20
477.99999944865698
 30
0.0
 11
668.13034683465946
 21
477.15149007737631
 31
0.0
  0
LINE
  5
FB2
  8
0
 10
690.06965428590775
 20
477.15149007737631
 30
0.0
 11
688.59999746084213
 21
477.99999944865698
 31
0.0
  0
LINE
  5
FB3
  8
0
 10
688.10000389814365
 20
468.99999611079693
 30
0.0
 11
688.10000389814365
 21
469.99999813735479
 31
0.0
  0
LINE
  5
FB4
  8
0
 10
670.10000467300415
 20
469.99999813735479
 30
0.0
 11
670.10000467300415
 21
468.99999611079693
 31
0.0
  0
LINE
  5
FB5
  8
0
 10
614.1000010818243
 20
468.99999611079693
 30
0.0
 11
614.1000010818243
 21
469.99999813735479
 31
0.0
  0
LINE
  5
FB6
  8
0
 10
596.10000092536211
 20
469.99999813735479
 30
0.0
 11
596.10000092536211
 21
468.99999611079693
 31
0.0
  0
LINE
  5
FB7
  8
0
 10
430.99999547004711
 20
468.99999611079693
 30
0.0
 11
430.99999547004711
 21
469.99999813735479
 31
0.0
  0
LINE
  5
FB8
  8
0
 10
413.00000369548798
 20
469.99999813735479
 30
0.0
 11
413.00000369548798
 21
468.99999611079693
 31
0.0
  0
LINE
  5
FB9
  8
0
 10
463.00000071525579
 20
468.99999611079693
 30
0.0
 11
463.00000071525579
 21
469.99999813735479
 31
0.0
  0
LINE
  5
FBA
  8
0
 10
444.99999403953558
 20
469.99999813735479
 30
0.0
 11
444.99999403953558
 21
468.99999611079693
 31
0.0
  0
ARC
  5
FBB
  8
0
 10
584.60000097751629
 20
454.49999766051769
 30
0.0
 40
1.000000000000085
 50
90.0
 51
180.0
  0
ARC
  5
FBC
  8
0
 10
584.60000097751629
 20
443.49999766051758
 30
0.0
 40
1.000000000000085
 50
180.0
 51
270.0000000000008
  0
LINE
  5
FBD
  8
0
 10
585.10000005364407
 20
455.49999855458742
 30
0.0
 11
584.60000090301025
 21
455.49999855458742
 31
0.0
  0
LINE
  5
FBE
  8
0
 10
584.60000090301025
 20
442.49999735504389
 30
0.0
 11
585.10000005364407
 21
442.49999735504389
 31
0.0
  0
LINE
  5
FBF
  8
0
 10
516.00000381469715
 20
442.49999735504389
 30
0.0
 11
516.49999737739563
 21
442.49999735504389
 31
0.0
  0
LINE
  5
FC0
  8
0
 10
516.49999737739563
 20
455.49999855458742
 30
0.0
 11
516.00000381469715
 21
455.49999855458742
 31
0.0
  0
ARC
  5
FC1
  8
0
 10
516.50000097751615
 20
443.49999766051758
 30
0.0
 40
1.000000000000085
 50
270.0000000000008
 51
0.0
  0
ARC
  5
FC2
  8
0
 10
516.50000097751615
 20
454.49999766051769
 30
0.0
 40
1.000000000000085
 50
0.0
 51
90.0
  0
LINE
  5
FC3
  8
0
 10
530.00000238418579
 20
494.19999800622469
 30
0.0
 11
533.50000202655792
 21
494.19999800622469
 31
0.0
  0
LINE
  5
FC4
  8
0
 10
533.50000202655792
 20
521.79999582469475
 30
0.0
 11
530.00000238418579
 21
521.79999582469475
 31
0.0
  0
LINE
  5
FC5
  8
0
 10
533.50000202655792
 20
494.19999800622469
 30
0.0
 11
534.00000303983688
 21
494.69999901950371
 31
0.0
  0
LINE
  5
FC6
  8
0
 10
534.00000303983688
 20
521.29999481141567
 30
0.0
 11
533.50000202655792
 21
521.79999582469475
 31
0.0
  0
LINE
  5
FC7
  8
0
 10
487.99999922513967
 20
468.99999611079693
 30
0.0
 11
487.99999922513967
 21
482.30384595692152
 31
0.0
  0
LINE
  5
FC8
  8
0
 10
482.00000196695339
 20
482.30384595692152
 30
0.0
 11
482.00000196695339
 21
468.99999611079693
 31
0.0
  0
LINE
  5
FC9
  8
0
 10
487.99999922513967
 20
482.30384595692152
 30
0.0
 11
485.0000005960465
 21
487.49999634921551
 31
0.0
  0
LINE
  5
FCA
  8
0
 10
485.0000005960465
 20
487.49999634921551
 30
0.0
 11
482.00000196695339
 21
482.30384595692152
 31
0.0
  0
LINE
  5
FCB
  8
0
 10
593.60000051558006
 20
526.99999444186676
 30
0.0
 11
593.10000136494625
 21
526.50000087916851
 31
0.0
  0
LINE
  5
FCC
  8
0
 10
593.10000136494625
 20
489.49999667704111
 30
0.0
 11
593.60000051558006
 21
488.99999938905239
 31
0.0
  0
LINE
  5
FCD
  8
0
 10
536.63205474615086
 20
498.99999730288988
 30
0.0
 11
585.10000005364407
 21
498.99999730288988
 31
0.0
  0
LINE
  5
FCE
  8
0
 10
585.10000005364407
 20
516.99999652802944
 30
0.0
 11
536.63205474615086
 21
516.99999652802944
 31
0.0
  0
LINE
  5
FCF
  8
0
 10
534.00000303983688
 20
499.48038093745708
 30
0.0
 11
534.90000337362289
 21
499.99999932944769
 31
0.0
  0
LINE
  5
FD0
  8
0
 10
534.90000337362289
 20
515.99999450147152
 30
0.0
 11
534.00000303983688
 21
516.51961289346207
 31
0.0
  0
LINE
  5
FD1
  8
0
 10
536.63205474615086
 20
516.99999652802944
 30
0.0
 11
534.90000337362289
 21
515.99999450147152
 31
0.0
  0
LINE
  5
FD2
  8
0
 10
534.90000337362289
 20
499.99999932944769
 30
0.0
 11
536.63205474615086
 21
498.99999730288988
 31
0.0
  0
LINE
  5
FD3
  8
0
 10
508.00000250339508
 20
491.49999700486671
 30
0.0
 11
508.5000035166741
 21
490.99999599158758
 31
0.0
  0
LINE
  5
FD4
  8
0
 10
529.50000137090683
 20
490.99999599158758
 30
0.0
 11
530.00000238418579
 21
491.49999700486671
 31
0.0
  0
LINE
  5
FD5
  8
0
 10
530.00000238418579
 20
524.49999682605267
 30
0.0
 11
529.50000137090683
 21
524.99999783933163
 31
0.0
  0
LINE
  5
FD6
  8
0
 10
508.5000035166741
 20
490.99999599158758
 30
0.0
 11
512.00000315904606
 21
490.99999599158758
 31
0.0
  0
LINE
  5
FD7
  8
0
 10
516.00000381469715
 20
490.99999599158758
 30
0.0
 11
529.50000137090683
 21
490.99999599158758
 31
0.0
  0
LINE
  5
FD8
  8
0
 10
529.50000137090683
 20
524.99999783933163
 30
0.0
 11
516.00000381469715
 21
524.99999783933163
 31
0.0
  0
LINE
  5
FD9
  8
0
 10
500.00000119209301
 20
490.99999599158758
 30
0.0
 11
501.00000321865087
 21
491.9999980181455
 31
0.0
  0
LINE
  5
FDA
  8
0
 10
501.00000321865087
 20
523.9999958127737
 30
0.0
 11
500.00000119209301
 21
524.99999783933163
 31
0.0
  0
LINE
  5
FDB
  8
0
 10
463.24999749660498
 20
521.49999819695961
 30
0.0
 11
461.99999868869787
 21
520.24999938905239
 31
0.0
  0
LINE
  5
FDC
  8
0
 10
464.49999630451208
 20
521.49999819695961
 30
0.0
 11
463.24999749660498
 21
521.49999819695961
 31
0.0
  0
ARC
  5
FDD
  8
0
 10
501.80000097751611
 20
521.04999766051765
 30
0.0
 40
0.799999999999983
 50
180.0
 51
270.0000000000008
  0
ARC
  5
FDE
  8
0
 10
501.80000097751611
 20
494.94999766051779
 30
0.0
 40
0.799999999999983
 50
90.0
 51
180.0
  0
LINE
  5
FDF
  8
0
 10
502.3621034622193
 20
520.24999938905239
 30
0.0
 11
501.80000185966497
 21
520.24999938905239
 31
0.0
  0
LINE
  5
FE0
  8
0
 10
508.00000250339508
 20
520.24999938905239
 30
0.0
 11
505.6378927826882
 21
520.24999938905239
 31
0.0
  0
LINE
  5
FE1
  8
0
 10
501.80000185966497
 20
495.74999444186687
 30
0.0
 11
508.00000250339508
 21
495.74999444186687
 31
0.0
  0
LINE
  5
FE2
  8
0
 10
502.99999982118612
 20
540.74999623000622
 30
0.0
 11
500.50000220537191
 21
540.74999623000622
 31
0.0
  0
LINE
  5
FE3
  8
0
 10
500.50000220537191
 20
533.24999593198299
 30
0.0
 11
502.99999982118612
 21
533.24999593198299
 31
0.0
  0
LINE
  5
FE4
  8
0
 10
502.99999982118612
 20
533.24999593198299
 30
0.0
 11
503.50000083446508
 21
533.74999694526196
 31
0.0
  0
LINE
  5
FE5
  8
0
 10
503.50000083446508
 20
540.24999521672726
 30
0.0
 11
502.99999982118612
 21
540.74999623000622
 31
0.0
  0
LINE
  5
FE6
  8
0
 10
503.50000083446508
 20
534.61715511977673
 30
0.0
 11
503.74142199754721
 21
534.85857628285885
 31
0.0
  0
LINE
  5
FE7
  8
0
 10
503.74142199754721
 20
539.14141587913025
 30
0.0
 11
503.50000083446508
 21
539.38283704221249
 31
0.0
  0
ARC
  5
FE8
  8
0
 10
503.60000097751612
 20
538.99999766051792
 30
0.0
 40
0.2000000000001023
 50
0.0
 51
44.999999999971003
  0
ARC
  5
FE9
  8
0
 10
503.60000097751612
 20
534.99999766051781
 30
0.0
 40
0.2000000000001023
 50
315.00000000002939
 51
0.0
  0
LINE
  5
FEA
  8
0
 10
503.79999846220022
 20
534.99999575316895
 30
0.0
 11
503.79999846220022
 21
538.99999640882015
 31
0.0
  0
LINE
  5
FEB
  8
0
 10
590.60000095516443
 20
533.24999593198299
 30
0.0
 11
593.10000136494625
 21
533.24999593198299
 31
0.0
  0
LINE
  5
FEC
  8
0
 10
593.10000136494625
 20
540.74999623000622
 30
0.0
 11
590.60000095516443
 21
540.74999623000622
 31
0.0
  0
LINE
  5
FED
  8
0
 10
590.60000095516443
 20
540.74999623000622
 30
0.0
 11
590.10000087320805
 21
540.24999521672726
 31
0.0
  0
LINE
  5
FEE
  8
0
 10
590.10000087320805
 20
533.74999694526196
 30
0.0
 11
590.60000095516443
 21
533.24999593198299
 31
0.0
  0
LINE
  5
FEF
  8
0
 10
590.10000087320805
 20
539.38283704221249
 30
0.0
 11
589.85857971012592
 21
539.14141587913025
 31
0.0
  0
LINE
  5
FF0
  8
0
 10
589.85857971012592
 20
534.85857628285885
 30
0.0
 11
590.10000087320805
 21
534.61715511977673
 31
0.0
  0
ARC
  5
FF1
  8
0
 10
590.00000097751615
 20
534.99999766051758
 30
0.0
 40
0.2000000000001023
 50
180.0
 51
225.00000000000071
  0
ARC
  5
FF2
  8
0
 10
590.00000097751615
 20
538.99999766051747
 30
0.0
 40
0.2000000000001023
 50
135.0000000000002
 51
180.0
  0
LINE
  5
FF3
  8
0
 10
589.80000138282765
 20
538.99999640882015
 30
0.0
 11
589.80000138282765
 21
534.99999575316895
 31
0.0
  0
LINE
  5
FF7
  8
0
 10
461.99999868869787
 20
432.99999766051769
 30
0.0
 11
461.99999868869787
 21
429.29999765940011
 31
0.0
  0
LINE
  5
FF9
  8
0
 10
461.99999868869787
 20
428.99999747052789
 30
0.0
 11
459.99999463558203
 21
428.99999747052789
 31
0.0
  0
LINE
  5
FFA
  8
0
 10
448.00000011920929
 20
428.99999747052789
 30
0.0
 11
428.00000429153448
 21
428.99999747052789
 31
0.0
  0
LINE
  5
FFB
  8
0
 10
415.99999487400061
 20
428.99999747052789
 30
0.0
 11
409.99999761581432
 21
428.99999747052789
 31
0.0
  0
LINE
  5
FFC
  8
0
 10
461.99999868869787
 20
429.29999765940011
 30
0.0
 11
461.99999868869787
 21
428.99999747052789
 31
0.0
  0
LINE
  5
1000
  8
0
 10
691.10000252723694
 20
428.99999747052789
 30
0.0
 11
685.09999781847
 21
428.99999747052789
 31
0.0
  0
LINE
  5
1001
  8
0
 10
673.10000330209732
 20
428.99999747052789
 30
0.0
 11
639.10000145435333
 21
428.99999747052789
 31
0.0
  0
LINE
  5
1005
  8
0
 10
639.10000145435333
 20
432.99999766051769
 30
0.0
 11
639.10000145435333
 21
428.99999747052789
 31
0.0
  0
LINE
  5
1006
  8
0
 10
443.00000488758087
 20
413.49999725818628
 30
0.0
 11
465.00000476837158
 21
413.49999725818628
 31
0.0
  0
LINE
  5
1008
  8
0
 10
443.00000488758087
 20
410.99999777972698
 30
0.0
 11
465.00000476837158
 21
410.99999777972698
 31
0.0
  0
LINE
  5
100A
  8
0
 10
443.00000488758087
 20
418.99999722838402
 30
0.0
 11
465.00000476837158
 21
418.99999722838402
 31
0.0
  0
LINE
  5
100D
  8
0
 10
410.9999996423723
 20
418.99999722838402
 30
0.0
 11
432.99999952316301
 21
418.99999722838402
 31
0.0
  0
LINE
  5
100F
  8
0
 10
410.9999996423723
 20
413.49999725818628
 30
0.0
 11
432.99999952316301
 21
413.49999725818628
 31
0.0
  0
LINE
  5
1011
  8
0
 10
410.9999996423723
 20
410.99999777972698
 30
0.0
 11
432.99999952316301
 21
410.99999777972698
 31
0.0
  0
LINE
  5
101A
  8
0
 10
410.9999996423723
 20
426.99999760836363
 30
0.0
 11
432.99999952316301
 21
426.99999760836363
 31
0.0
  0
LINE
  5
101B
  8
0
 10
432.99999952316301
 20
426.99999760836363
 30
0.0
 11
432.99999952316301
 21
410.99999777972698
 31
0.0
  0
LINE
  5
101C
  8
0
 10
410.9999996423723
 20
426.99999760836363
 30
0.0
 11
410.9999996423723
 21
410.99999777972698
 31
0.0
  0
LINE
  5
101D
  8
0
 10
443.00000488758087
 20
426.99999760836363
 30
0.0
 11
465.00000476837158
 21
426.99999760836363
 31
0.0
  0
LINE
  5
101E
  8
0
 10
443.00000488758087
 20
426.99999760836363
 30
0.0
 11
443.00000488758087
 21
410.99999777972698
 31
0.0
  0
LINE
  5
101F
  8
0
 10
465.00000476837158
 20
426.99999760836363
 30
0.0
 11
465.00000476837158
 21
410.99999777972698
 31
0.0
  0
LINE
  5
1022
  8
0
 10
594.10000059753645
 20
413.49999725818628
 30
0.0
 11
616.10000140964985
 21
413.49999725818628
 31
0.0
  0
LINE
  5
1023
  8
0
 10
594.10000059753645
 20
418.99999722838402
 30
0.0
 11
616.10000140964985
 21
418.99999722838402
 31
0.0
  0
LINE
  5
1024
  8
0
 10
668.10000061988831
 20
413.49999725818628
 30
0.0
 11
690.10000050067902
 21
413.49999725818628
 31
0.0
  0
LINE
  5
1025
  8
0
 10
690.10000050067902
 20
426.99999760836369
 30
0.0
 11
690.10000050067902
 21
410.99999777972698
 31
0.0
  0
LINE
  5
1026
  8
0
 10
668.10000061988831
 20
410.99999777972698
 30
0.0
 11
690.10000050067902
 21
410.99999777972698
 31
0.0
  0
LINE
  5
1027
  8
0
 10
668.10000061988831
 20
426.99999760836369
 30
0.0
 11
668.10000061988831
 21
410.99999777972698
 31
0.0
  0
LINE
  5
1028
  8
0
 10
616.10000140964985
 20
426.99999760836363
 30
0.0
 11
616.10000140964985
 21
410.99999777972698
 31
0.0
  0
LINE
  5
1029
  8
0
 10
594.10000059753645
 20
410.99999777972698
 30
0.0
 11
616.10000140964985
 21
410.99999777972698
 31
0.0
  0
LINE
  5
102A
  8
0
 10
594.10000059753668
 20
426.99999760836363
 30
0.0
 11
594.10000059753645
 21
410.99999777972698
 31
0.0
  0
LINE
  5
102C
  8
0
 10
668.10000061988831
 20
418.99999722838402
 30
0.0
 11
690.10000050067902
 21
418.99999722838402
 31
0.0
  0
LINE
  5
1034
  8
0
 10
668.10000061988831
 20
426.99999760836363
 30
0.0
 11
690.10000050067902
 21
426.99999760836363
 31
0.0
  0
LINE
  5
1037
  8
0
 10
594.10000059753645
 20
426.99999760836363
 30
0.0
 11
616.10000140964985
 21
426.99999760836363
 31
0.0
  0
POLYLINE
  5
103A
  8
0
 66
     1
 10
0.0
 20
0.0
 30
0.0
 70
   128
  0
VERTEX
  5
3178
  8
0
 10
605.10000100359321
 20
477.99999944865698
 30
0.0
  0
VERTEX
  5
3179
  8
0
 10
607.84241490066051
 20
477.77603499591351
 30
0.0
  0
VERTEX
  5
317A
  8
0
 10
610.58482833206654
 20
477.15149007737631
 30
0.0
  0
SEQEND
  5
317B
  8
0
  0
LINE
  5
103B
  8
0
 10
610.58482833206654
 20
470.59999711811548
 30
0.0
 11
610.58482833206654
 21
477.15149007737631
 31
0.0
  0
LINE
  5
103D
  8
0
 10
616.06965612620115
 20
470.59999711811548
 30
0.0
 11
594.13034588098515
 21
470.59999711811548
 31
0.0
  0
LINE
  5
103E
  8
0
 10
599.61517344228923
 20
477.15149007737631
 30
0.0
 11
599.61517344228923
 21
470.59999711811548
 31
0.0
  0
POLYLINE
  5
103F
  8
0
 66
     1
 10
0.0
 20
0.0
 30
0.0
 70
   128
  0
VERTEX
  5
317C
  8
0
 10
599.61517344228923
 20
477.15149007737631
 30
0.0
  0
VERTEX
  5
317D
  8
0
 10
602.30234544607811
 20
477.76710920035839
 30
0.0
  0
VERTEX
  5
317E
  8
0
 10
605.10000100359321
 20
477.99999944865698
 30
0.0
  0
SEQEND
  5
317F
  8
0
  0
POLYLINE
  5
1040
  8
0
 66
     1
 10
0.0
 20
0.0
 30
0.0
 70
   128
  0
VERTEX
  5
3180
  8
0
 10
596.87275977805245
 20
477.99999944865698
 30
0.0
  0
VERTEX
  5
3181
  8
0
 10
598.24396649375547
 20
477.77603499591351
 30
0.0
  0
VERTEX
  5
3182
  8
0
 10
599.61517344228923
 20
477.15149007737631
 30
0.0
  0
SEQEND
  5
3183
  8
0
  0
LINE
  5
1043
  8
0
 10
594.13034588098515
 20
477.15149007737631
 30
0.0
 11
594.13034588098515
 21
470.59999711811548
 31
0.0
  0
POLYLINE
  5
1044
  8
0
 66
     1
 10
0.0
 20
0.0
 30
0.0
 70
   128
  0
VERTEX
  5
3184
  8
0
 10
594.13034588098515
 20
477.15149007737631
 30
0.0
  0
VERTEX
  5
3185
  8
0
 10
595.47393189743161
 20
477.76710920035839
 30
0.0
  0
VERTEX
  5
3186
  8
0
 10
596.87275977805245
 20
477.99999944865698
 30
0.0
  0
SEQEND
  5
3187
  8
0
  0
POLYLINE
  5
1045
  8
0
 66
     1
 10
0.0
 20
0.0
 30
0.0
 70
   128
  0
VERTEX
  5
3188
  8
0
 10
613.32724269479513
 20
477.99999944865698
 30
0.0
  0
VERTEX
  5
3189
  8
0
 10
614.69844941049814
 20
477.77603499591351
 30
0.0
  0
VERTEX
  5
318A
  8
0
 10
616.06965612620115
 20
477.15149007737631
 30
0.0
  0
SEQEND
  5
318B
  8
0
  0
LINE
  5
1046
  8
0
 10
616.06965612620115
 20
470.59999711811548
 30
0.0
 11
616.06965612620115
 21
477.15149007737631
 31
0.0
  0
POLYLINE
  5
1049
  8
0
 66
     1
 10
0.0
 20
0.0
 30
0.0
 70
   128
  0
VERTEX
  5
318C
  8
0
 10
610.58482833206654
 20
477.15149007737631
 30
0.0
  0
VERTEX
  5
318D
  8
0
 10
611.92841481417406
 20
477.76710920035839
 30
0.0
  0
VERTEX
  5
318E
  8
0
 10
613.32724269479513
 20
477.99999944865698
 30
0.0
  0
SEQEND
  5
318F
  8
0
  0
LINE
  5
104A
  8
0
 10
614.60000116378069
 20
469.99999813735479
 30
0.0
 11
595.60000084340572
 21
469.99999813735479
 31
0.0
  0
LINE
  5
104E
  8
0
 10
600.17350097652525
 20
409.99999761581421
 30
0.0
 11
610.02650137990713
 21
409.99999761581421
 31
0.0
  0
LINE
  5
1050
  8
0
 10
614.60000116378069
 20
477.99999944865698
 30
0.0
 11
595.60000084340572
 21
477.99999944865698
 31
0.0
  0
POLYLINE
  5
1051
  8
0
 66
     1
 10
0.0
 20
0.0
 30
0.0
 70
   128
  0
VERTEX
  5
3190
  8
0
 10
453.99999737739569
 20
477.99999944865698
 30
0.0
  0
VERTEX
  5
3191
  8
0
 10
456.7424219846726
 20
477.77603499591351
 30
0.0
  0
VERTEX
  5
3192
  8
0
 10
459.48483169078833
 20
477.15149007737631
 30
0.0
  0
SEQEND
  5
3193
  8
0
  0
LINE
  5
1052
  8
0
 10
459.48483169078833
 20
470.59999711811548
 30
0.0
 11
459.48483169078833
 21
477.15149007737631
 31
0.0
  0
LINE
  5
1055
  8
0
 10
448.51517796516418
 20
477.15149007737631
 30
0.0
 11
448.51517796516418
 21
470.59999711811548
 31
0.0
  0
POLYLINE
  5
1056
  8
0
 66
     1
 10
0.0
 20
0.0
 30
0.0
 70
   128
  0
VERTEX
  5
3194
  8
0
 10
448.51517796516418
 20
477.15149007737631
 30
0.0
  0
VERTEX
  5
3195
  8
0
 10
451.20234906673443
 20
477.76710920035839
 30
0.0
  0
VERTEX
  5
3196
  8
0
 10
453.99999737739569
 20
477.99999944865698
 30
0.0
  0
SEQEND
  5
3197
  8
0
  0
POLYLINE
  5
1057
  8
0
 66
     1
 10
0.0
 20
0.0
 30
0.0
 70
   128
  0
VERTEX
  5
3198
  8
0
 10
445.77275335788738
 20
477.99999944865698
 30
0.0
  0
VERTEX
  5
3199
  8
0
 10
447.14397311210638
 20
477.77603499591351
 30
0.0
  0
VERTEX
  5
319A
  8
0
 10
448.51517796516418
 20
477.15149007737631
 30
0.0
  0
SEQEND
  5
319B
  8
0
  0
LINE
  5
1059
  8
0
 10
443.03034365177172
 20
477.15149007737631
 30
0.0
 11
443.03034365177172
 21
470.59999711811548
 31
0.0
  0
POLYLINE
  5
105A
  8
0
 66
     1
 10
0.0
 20
0.0
 30
0.0
 70
   128
  0
VERTEX
  5
319C
  8
0
 10
443.03034365177172
 20
477.15149007737631
 30
0.0
  0
VERTEX
  5
319D
  8
0
 10
444.37393665313732
 20
477.76710920035839
 30
0.0
  0
VERTEX
  5
319E
  8
0
 10
445.77275335788738
 20
477.99999944865698
 30
0.0
  0
SEQEND
  5
319F
  8
0
  0
POLYLINE
  5
105C
  8
0
 66
     1
 10
0.0
 20
0.0
 30
0.0
 70
   128
  0
VERTEX
  5
31A0
  8
0
 10
462.22724139690399
 20
477.99999944865698
 30
0.0
  0
VERTEX
  5
31A1
  8
0
 10
463.59844624996191
 20
477.77603499591351
 30
0.0
  0
VERTEX
  5
31A2
  8
0
 10
464.96965110301983
 20
477.15149007737631
 30
0.0
  0
SEQEND
  5
31A3
  8
0
  0
LINE
  5
105D
  8
0
 10
464.96965110301983
 20
470.59999711811548
 30
0.0
 11
464.96965110301983
 21
477.15149007737631
 31
0.0
  0
LINE
  5
105E
  8
0
 10
464.96965110301983
 20
470.59999711811548
 30
0.0
 11
443.03034365177172
 21
470.59999711811548
 31
0.0
  0
POLYLINE
  5
105F
  8
0
 66
     1
 10
0.0
 20
0.0
 30
0.0
 70
   128
  0
VERTEX
  5
31A4
  8
0
 10
459.48483169078833
 20
477.15149007737631
 30
0.0
  0
VERTEX
  5
31A5
  8
0
 10
460.82840979099279
 20
477.76710920035839
 30
0.0
  0
VERTEX
  5
31A6
  8
0
 10
462.22724139690399
 20
477.99999944865698
 30
0.0
  0
SEQEND
  5
31A7
  8
0
  0
LINE
  5
1062
  8
0
 10
453.99999737739569
 20
469.99999813735479
 30
0.0
 11
444.50000047683722
 21
469.99999813735479
 31
0.0
  0
LINE
  5
1063
  8
0
 10
463.49999427795422
 20
469.99999813735479
 30
0.0
 11
453.99999737739569
 21
469.99999813735479
 31
0.0
  0
LINE
  5
1065
  8
0
 10
449.07349467277533
 20
409.99999761581421
 30
0.0
 11
458.92650008201599
 21
409.99999761581421
 31
0.0
  0
LINE
  5
1066
  8
0
 10
463.49999427795422
 20
477.99999944865698
 30
0.0
 11
444.50000047683722
 21
477.99999944865698
 31
0.0
  0
POLYLINE
  5
1068
  8
0
 66
     1
 10
0.0
 20
0.0
 30
0.0
 70
   128
  0
VERTEX
  5
31A8
  8
0
 10
422.00000703334808
 20
477.99999944865698
 30
0.0
  0
VERTEX
  5
31A9
  8
0
 10
424.74241673946392
 20
477.77603499591351
 30
0.0
  0
VERTEX
  5
31AA
  8
0
 10
427.48482644557959
 20
477.15149007737631
 30
0.0
  0
SEQEND
  5
31AB
  8
0
  0
LINE
  5
1069
  8
0
 10
427.48482644557959
 20
470.59999711811548
 30
0.0
 11
427.48482644557959
 21
477.15149007737631
 31
0.0
  0
LINE
  5
106C
  8
0
 10
416.5151727199555
 20
477.15149007737631
 30
0.0
 11
416.5151727199555
 21
470.59999711811548
 31
0.0
  0
POLYLINE
  5
106D
  8
0
 66
     1
 10
0.0
 20
0.0
 30
0.0
 70
   128
  0
VERTEX
  5
31AC
  8
0
 10
416.5151727199555
 20
477.15149007737631
 30
0.0
  0
VERTEX
  5
31AD
  8
0
 10
419.20234382152569
 20
477.76710920035839
 30
0.0
  0
VERTEX
  5
31AE
  8
0
 10
422.00000703334808
 20
477.99999944865698
 30
0.0
  0
SEQEND
  5
31AF
  8
0
  0
POLYLINE
  5
106E
  8
0
 66
     1
 10
0.0
 20
0.0
 30
0.0
 70
   128
  0
VERTEX
  5
31B0
  8
0
 10
413.77276301383978
 20
477.99999944865698
 30
0.0
  0
VERTEX
  5
31B1
  8
0
 10
415.14396786689758
 20
477.77603499591351
 30
0.0
  0
VERTEX
  5
31B2
  8
0
 10
416.5151727199555
 20
477.15149007737631
 30
0.0
  0
SEQEND
  5
31B3
  8
0
  0
LINE
  5
1071
  8
0
 10
411.03035330772411
 20
477.15149007737631
 30
0.0
 11
411.03035330772411
 21
470.59999711811548
 31
0.0
  0
POLYLINE
  5
1072
  8
0
 66
     1
 10
0.0
 20
0.0
 30
0.0
 70
   128
  0
VERTEX
  5
31B4
  8
0
 10
411.03035330772411
 20
477.15149007737631
 30
0.0
  0
VERTEX
  5
31B5
  8
0
 10
412.37393140792852
 20
477.76710920035839
 30
0.0
  0
VERTEX
  5
31B6
  8
0
 10
413.77276301383978
 20
477.99999944865698
 30
0.0
  0
SEQEND
  5
31B7
  8
0
  0
POLYLINE
  5
1073
  8
0
 66
     1
 10
0.0
 20
0.0
 30
0.0
 70
   128
  0
VERTEX
  5
31B8
  8
0
 10
430.22723615169531
 20
477.99999944865698
 30
0.0
  0
VERTEX
  5
31B9
  8
0
 10
431.59845590591442
 20
477.77603499591351
 30
0.0
  0
VERTEX
  5
31BA
  8
0
 10
432.96966075897222
 20
477.15149007737631
 30
0.0
  0
SEQEND
  5
31BB
  8
0
  0
LINE
  5
1074
  8
0
 10
432.96966075897222
 20
470.59999711811548
 30
0.0
 11
432.96966075897222
 21
477.15149007737631
 31
0.0
  0
LINE
  5
1075
  8
0
 10
432.96966075897222
 20
470.59999711811548
 30
0.0
 11
411.03035330772411
 21
470.59999711811548
 31
0.0
  0
POLYLINE
  5
1077
  8
0
 66
     1
 10
0.0
 20
0.0
 30
0.0
 70
   128
  0
VERTEX
  5
31BC
  8
0
 10
427.48482644557959
 20
477.15149007737631
 30
0.0
  0
VERTEX
  5
31BD
  8
0
 10
428.8284194469453
 20
477.76710920035839
 30
0.0
  0
VERTEX
  5
31BE
  8
0
 10
430.22723615169531
 20
477.99999944865698
 30
0.0
  0
SEQEND
  5
31BF
  8
0
  0
LINE
  5
1078
  8
0
 10
422.00000703334808
 20
469.99999813735479
 30
0.0
 11
412.49999523162847
 21
469.99999813735479
 31
0.0
  0
LINE
  5
1079
  8
0
 10
431.50000393390661
 20
469.99999813735479
 30
0.0
 11
422.00000703334808
 21
469.99999813735479
 31
0.0
  0
LINE
  5
107C
  8
0
 10
417.07350432872778
 20
409.99999761581421
 30
0.0
 11
426.92649483680731
 21
409.99999761581421
 31
0.0
  0
LINE
  5
107E
  8
0
 10
431.50000393390661
 20
477.99999944865698
 30
0.0
 11
412.49999523162847
 21
477.99999944865698
 31
0.0
  0
POLYLINE
  5
107F
  8
0
 66
     1
 10
0.0
 20
0.0
 30
0.0
 70
   128
  0
VERTEX
  5
31C0
  8
0
 10
670.8727565407753
 20
477.99999944865698
 30
0.0
  0
VERTEX
  5
31C1
  8
0
 10
672.24396884441364
 20
477.77603499591351
 30
0.0
  0
VERTEX
  5
31C2
  8
0
 10
673.61517369747162
 20
477.15149007737631
 30
0.0
  0
SEQEND
  5
31C3
  8
0
  0
LINE
  5
1080
  8
0
 10
673.61517369747162
 20
477.15149007737631
 30
0.0
 11
673.61517369747162
 21
470.59999711811548
 31
0.0
  0
LINE
  5
1081
  8
0
 10
690.06965428590775
 20
470.59999711811548
 30
0.0
 11
668.13034683465946
 21
470.59999711811548
 31
0.0
  0
LINE
  5
1083
  8
0
 10
668.13034683465946
 20
477.15149007737631
 30
0.0
 11
668.13034683465946
 21
470.59999711811548
 31
0.0
  0
POLYLINE
  5
1084
  8
0
 66
     1
 10
0.0
 20
0.0
 30
0.0
 70
   128
  0
VERTEX
  5
31C4
  8
0
 10
668.13034683465946
 20
477.15149007737631
 30
0.0
  0
VERTEX
  5
31C5
  8
0
 10
669.47393238544464
 20
477.76710920035839
 30
0.0
  0
VERTEX
  5
31C6
  8
0
 10
670.8727565407753
 20
477.99999944865698
 30
0.0
  0
SEQEND
  5
31C7
  8
0
  0
POLYLINE
  5
1085
  8
0
 66
     1
 10
0.0
 20
0.0
 30
0.0
 70
   128
  0
VERTEX
  5
31C8
  8
0
 10
679.10000056028355
 20
477.99999944865698
 30
0.0
  0
VERTEX
  5
31C9
  8
0
 10
681.84241771697987
 20
477.77603499591351
 30
0.0
  0
VERTEX
  5
31CA
  8
0
 10
684.5848274230957
 20
477.15149007737631
 30
0.0
  0
SEQEND
  5
31CB
  8
0
  0
LINE
  5
1086
  8
0
 10
684.5848274230957
 20
470.59999711811548
 30
0.0
 11
684.5848274230957
 21
477.15149007737631
 31
0.0
  0
POLYLINE
  5
1088
  8
0
 66
     1
 10
0.0
 20
0.0
 30
0.0
 70
   128
  0
VERTEX
  5
31CC
  8
0
 10
673.61517369747162
 20
477.15149007737631
 30
0.0
  0
VERTEX
  5
31CD
  8
0
 10
676.30234479904175
 20
477.76710920035839
 30
0.0
  0
VERTEX
  5
31CE
  8
0
 10
679.10000056028355
 20
477.99999944865698
 30
0.0
  0
SEQEND
  5
31CF
  8
0
  0
POLYLINE
  5
108A
  8
0
 66
     1
 10
0.0
 20
0.0
 30
0.0
 70
   128
  0
VERTEX
  5
31D0
  8
0
 10
687.32724457979202
 20
477.99999944865698
 30
0.0
  0
VERTEX
  5
31D1
  8
0
 10
688.69844943284988
 20
477.77603499591351
 30
0.0
  0
VERTEX
  5
31D2
  8
0
 10
690.06965428590775
 20
477.15149007737631
 30
0.0
  0
SEQEND
  5
31D3
  8
0
  0
LINE
  5
108B
  8
0
 10
690.06965428590775
 20
470.59999711811548
 30
0.0
 11
690.06965428590775
 21
477.15149007737631
 31
0.0
  0
POLYLINE
  5
108D
  8
0
 66
     1
 10
0.0
 20
0.0
 30
0.0
 70
   128
  0
VERTEX
  5
31D4
  8
0
 10
684.5848274230957
 20
477.15149007737631
 30
0.0
  0
VERTEX
  5
31D5
  8
0
 10
685.92841297388065
 20
477.76710920035839
 30
0.0
  0
VERTEX
  5
31D6
  8
0
 10
687.32724457979202
 20
477.99999944865698
 30
0.0
  0
SEQEND
  5
31D7
  8
0
  0
LINE
  5
1091
  8
0
 10
688.59999746084213
 20
469.99999813735479
 30
0.0
 11
669.60000365972519
 21
469.99999813735479
 31
0.0
  0
LINE
  5
1093
  8
0
 10
674.1734978556633
 20
409.99999761581421
 30
0.0
 11
684.02650326490402
 21
409.99999761581421
 31
0.0
  0
LINE
  5
1095
  8
0
 10
688.59999746084213
 20
477.99999944865698
 30
0.0
 11
669.60000365972519
 21
477.99999944865698
 31
0.0
  0
LINE
  5
1096
  8
0
 10
508.00000250339508
 20
491.49999700486671
 30
0.0
 11
508.00000250339508
 21
527.9999964684248
 31
0.0
  0
LINE
  5
1097
  8
0
 10
512.00000315904606
 20
527.9999964684248
 30
0.0
 11
508.00000250339508
 21
527.9999964684248
 31
0.0
  0
LINE
  5
1098
  8
0
 10
512.00000315904606
 20
532.99999915063381
 30
0.0
 11
512.00000315904606
 21
527.9999964684248
 31
0.0
  0
LINE
  5
1099
  8
0
 10
516.00000381469715
 20
532.99999915063381
 30
0.0
 11
512.00000315904606
 21
532.99999915063381
 31
0.0
  0
LINE
  5
109A
  8
0
 10
516.00000381469715
 20
432.99999766051769
 30
0.0
 11
516.00000381469715
 21
532.99999915063381
 31
0.0
  0
LINE
  5
109B
  8
0
 10
516.00000381469715
 20
432.99999766051769
 30
0.0
 11
512.00000315904606
 21
432.99999766051769
 31
0.0
  0
LINE
  5
109C
  8
0
 10
512.00000315904606
 20
437.99999754875898
 30
0.0
 11
512.00000315904606
 21
432.99999766051769
 31
0.0
  0
LINE
  5
109D
  8
0
 10
508.00000250339508
 20
437.99999754875898
 30
0.0
 11
512.00000315904606
 21
437.99999754875898
 31
0.0
  0
LINE
  5
109E
  8
0
 10
512.00000315904606
 20
498.99999730288988
 30
0.0
 11
508.00000250339508
 21
498.99999730288988
 31
0.0
  0
LINE
  5
109F
  8
0
 10
512.00000315904606
 20
468.99999611079693
 30
0.0
 11
508.00000250339508
 21
468.99999611079693
 31
0.0
  0
LINE
  5
10A1
  8
0
 10
512.00000315904606
 20
468.99999611079693
 30
0.0
 11
512.00000315904606
 21
498.99999730288988
 31
0.0
  0
LINE
  5
10A2
  8
0
 10
512.00000315904606
 20
475.99999912083149
 30
0.0
 11
508.00000250339508
 21
475.99999912083149
 31
0.0
  0
LINE
  5
10A4
  8
0
 10
512.00000315904606
 20
495.60555003583443
 30
0.0
 11
508.00000250339508
 21
495.60555003583443
 31
0.0
  0
LINE
  5
10A6
  8
0
 10
508.00000250339508
 20
481.9172353297472
 30
0.0
 11
512.00000315904606
 21
481.9172353297472
 31
0.0
  0
LINE
  5
10A8
  8
0
 10
589.10000070929516
 20
468.99999611079693
 30
0.0
 11
593.10000136494625
 21
468.99999611079693
 31
0.0
  0
LINE
  5
10AA
  8
0
 10
593.10000136494625
 20
437.99999754875898
 30
0.0
 11
589.10000070929516
 21
437.99999754875898
 31
0.0
  0
LINE
  5
10AB
  8
0
 10
589.10000070929516
 20
437.99999754875898
 30
0.0
 11
589.10000070929516
 21
432.99999766051769
 31
0.0
  0
LINE
  5
10AC
  8
0
 10
585.10000005364407
 20
432.99999766051769
 30
0.0
 11
589.10000070929516
 21
432.99999766051769
 31
0.0
  0
LINE
  5
10AD
  8
0
 10
585.10000005364407
 20
432.99999766051769
 30
0.0
 11
585.10000005364407
 21
532.99999915063381
 31
0.0
  0
LINE
  5
10AE
  8
0
 10
589.10000070929516
 20
532.99999915063381
 30
0.0
 11
589.10000070929516
 21
527.9999964684248
 31
0.0
  0
LINE
  5
10AF
  8
0
 10
589.10000070929516
 20
527.9999964684248
 30
0.0
 11
593.10000136494625
 21
527.9999964684248
 31
0.0
  0
LINE
  5
10B0
  8
0
 10
593.10000136494625
 20
489.49999667704111
 30
0.0
 11
593.10000136494625
 21
527.9999964684248
 31
0.0
  0
LINE
  5
10B1
  8
0
 10
589.10000070929516
 20
498.99999730288988
 30
0.0
 11
593.10000136494625
 21
498.99999730288988
 31
0.0
  0
LINE
  5
10B2
  8
0
 10
589.10000070929516
 20
498.99999730288988
 30
0.0
 11
589.10000070929516
 21
468.99999611079693
 31
0.0
  0
LINE
  5
10B3
  8
0
 10
585.10000005364407
 20
532.99999915063381
 30
0.0
 11
589.10000070929516
 21
532.99999915063381
 31
0.0
  0
LINE
  5
10B4
  8
0
 10
589.10000070929516
 20
475.99999912083149
 30
0.0
 11
593.10000136494625
 21
475.99999912083149
 31
0.0
  0
LINE
  5
10B6
  8
0
 10
593.10000136494625
 20
495.60555003583443
 30
0.0
 11
589.10000070929516
 21
495.60555003583443
 31
0.0
  0
LINE
  5
10B8
  8
0
 10
589.10000070929516
 20
481.9172353297472
 30
0.0
 11
593.10000136494625
 21
481.9172353297472
 31
0.0
  0
LINE
  5
10BB
  8
0
 10
508.00000250339508
 20
481.9172353297472
 30
0.0
 11
508.00000250339508
 21
433.49999768426648
 31
0.0
  0
LINE
  5
10BC
  8
0
 10
507.50000149011618
 20
432.99999766051769
 30
0.0
 11
508.00000250339508
 21
433.49999768426648
 31
0.0
  0
LINE
  5
10BF
  8
0
 10
410.9999996423723
 20
468.99999611079693
 30
0.0
 11
507.00000047683722
 21
468.99999611079693
 31
0.0
  0
LINE
  5
10C5
  8
0
 10
492.68911898136139
 20
432.99999766051769
 30
0.0
 11
492.78912067413341
 21
433.49999768426648
 31
0.0
  0
LINE
  5
10C6
  8
0
 10
507.00000047683722
 20
468.99999611079693
 30
0.0
 11
508.00000250339508
 21
467.9999978095293
 31
0.0
  0
LINE
  5
10C7
  8
0
 10
507.50000149011618
 20
432.99999766051769
 30
0.0
 11
410.50000607967382
 21
432.99999766051769
 31
0.0
  0
LINE
  5
10CA
  8
0
 10
485.81088453531271
 20
433.49999768426648
 30
0.0
 11
485.91088622808468
 21
432.99999766051769
 31
0.0
  0
LINE
  5
10CC
  8
0
 10
409.99999761581432
 20
467.9999978095293
 30
0.0
 11
410.9999996423723
 21
468.99999611079693
 31
0.0
  0
LINE
  5
10CD
  8
0
 10
489.29999887943268
 20
438.99999771267181
 30
0.0
 11
490.30000090599071
 21
443.9999976009131
 31
0.0
  0
LINE
  5
10CE
  8
0
 10
488.30000430345541
 20
443.9999976009131
 30
0.0
 11
489.29999887943268
 21
438.99999771267181
 31
0.0
  0
LINE
  5
10CF
  8
0
 10
490.30000090599071
 20
443.9999976009131
 30
0.0
 11
488.30000430345541
 21
443.9999976009131
 31
0.0
  0
LINE
  5
10D0
  8
0
 10
409.99999761581432
 20
428.99999747052789
 30
0.0
 11
409.99999761581432
 21
467.9999978095293
 31
0.0
  0
LINE
  5
10D2
  8
0
 10
409.99999761581432
 20
433.49999768426648
 30
0.0
 11
410.50000607967382
 21
432.99999766051769
 31
0.0
  0
LINE
  5
10D3
  8
0
 10
490.30000090599071
 20
448.4999974071979
 30
0.0
 11
488.30000430345541
 21
448.4999974071979
 31
0.0
  0
LINE
  5
10D4
  8
0
 10
483.88739049434679
 20
443.11747539788479
 30
0.0
 11
485.81088453531271
 21
433.49999768426648
 31
0.0
  0
LINE
  5
10D5
  8
0
 10
492.78912067413341
 20
433.49999768426648
 30
0.0
 11
494.71261471509939
 21
443.11747539788479
 31
0.0
  0
ARC
  5
10D6
  8
0
 10
490.30000097751611
 20
443.99999766051769
 30
0.0
 40
4.5000000000000178
 50
348.6900675259804
 51
90.0
  0
ARC
  5
10D7
  8
0
 10
488.30000097751622
 20
443.99999766051769
 30
0.0
 40
4.5000000000000284
 50
90.0
 51
191.30993247402151
  0
LINE
  5
10DA
  8
0
 10
594.10000059753645
 20
468.99999611079693
 30
0.0
 11
593.10000136494625
 21
467.9999978095293
 31
0.0
  0
LINE
  5
10E0
  8
0
 10
608.28911865130056
 20
433.49999768426648
 30
0.0
 11
610.21261408925045
 21
443.11747539788479
 31
0.0
  0
ARC
  5
10E1
  8
0
 10
605.80000097751622
 20
443.99999766051781
 30
0.0
 40
4.5000000000000311
 50
348.69006752597971
 51
90.0
  0
LINE
  5
10E3
  8
0
 10
605.80000097863365
 20
448.4999974071979
 30
0.0
 11
603.80000100005407
 21
448.4999974071979
 31
0.0
  0
ARC
  5
10E4
  8
0
 10
603.80000097751622
 20
443.99999766051781
 30
0.0
 40
4.5000000000000311
 50
90.0
 51
191.30993247402191
  0
LINE
  5
10E5
  8
0
 10
599.3873880058527
 20
443.11747539788479
 30
0.0
 11
601.3108834438026
 21
433.49999768426648
 31
0.0
  0
LINE
  5
10E7
  8
0
 10
690.60000151395786
 20
432.99999766051769
 30
0.0
 11
593.60000051558006
 21
432.99999766051781
 31
0.0
  0
LINE
  5
10E8
  8
0
 10
608.18911835551262
 20
432.99999766051769
 30
0.0
 11
608.28911865130056
 21
433.49999768426648
 31
0.0
  0
LINE
  5
10EB
  8
0
 10
601.3108834438026
 20
433.49999768426648
 30
0.0
 11
601.41088339034457
 21
432.99999766051769
 31
0.0
  0
LINE
  5
10EC
  8
0
 10
593.60000051558006
 20
468.99999611079681
 30
0.0
 11
690.10000050067902
 21
468.99999611079693
 31
0.0
  0
LINE
  5
10EE
  8
0
 10
691.10000252723694
 20
467.9999978095293
 30
0.0
 11
690.10000050067902
 21
468.99999611079693
 31
0.0
  0
LINE
  5
10F0
  8
0
 10
604.80000104755163
 20
438.99999771267181
 30
0.0
 11
605.80000097863365
 21
443.9999976009131
 31
0.0
  0
LINE
  5
10F1
  8
0
 10
605.80000097863365
 20
443.9999976009131
 30
0.0
 11
603.80000100005407
 21
443.9999976009131
 31
0.0
  0
LINE
  5
10F2
  8
0
 10
603.80000100005407
 20
443.9999976009131
 30
0.0
 11
604.80000104755163
 21
438.99999771267181
 31
0.0
  0
LINE
  5
10F3
  8
0
 10
593.10000136494625
 20
433.49999768426648
 30
0.0
 11
593.60000051558006
 21
432.99999766051769
 31
0.0
  0
LINE
  5
10F4
  8
0
 10
593.10000136494625
 20
433.49999768426648
 30
0.0
 11
593.10000136494625
 21
481.9172353297472
 31
0.0
  0
LINE
  5
10F5
  8
0
 10
691.10000252723694
 20
467.9999978095293
 30
0.0
 11
691.10000252723694
 21
428.99999747052789
 31
0.0
  0
LINE
  5
10F6
  8
0
 10
690.60000151395786
 20
432.99999766051769
 30
0.0
 11
691.10000252723694
 21
433.49999768426648
 31
0.0
  0
LINE
  5
10F8
  8
0
 10
583.6000007390976
 20
443.4999975189566
 30
0.0
 11
583.6000007390976
 21
454.49999839067459
 31
0.0
  0
LINE
  5
10F9
  8
0
 10
517.49999940395355
 20
454.50177167372891
 30
0.0
 11
517.49999940395355
 21
443.4999975189566
 31
0.0
  0
LINE
  5
10FB
  8
0
 10
533.50000202655792
 20
494.19999800622469
 30
0.0
 11
533.50000202655792
 21
521.79999582469475
 31
0.0
  0
LINE
  5
10FC
  8
0
 10
534.00000303983688
 20
521.29999481141567
 30
0.0
 11
534.00000303983688
 21
494.69999901950371
 31
0.0
  0
LINE
  5
10FD
  8
0
 10
478.5000023245812
 20
469.49999712407589
 30
0.0
 11
478.51926207542431
 21
468.99999611079693
 31
0.0
  0
ARC
  5
10FE
  8
0
 10
485.00000097751621
 20
469.49999766051792
 30
0.0
 40
6.499999999999968
 50
355.58827421422887
 51
62.513573749617542
  0
ARC
  5
10FF
  8
0
 10
485.00000097751621
 20
469.49999766051792
 30
0.0
 40
6.4999999999999849
 50
117.4864262503815
 51
180.0
  0
ARC
  5
1105
  8
0
 10
485.00000097751621
 20
469.49999766051792
 30
0.0
 40
7.4999999999999734
 50
117.8181392846549
 51
131.8103148957789
  0
LINE
  5
1108
  8
0
 10
481.50000095367449
 20
476.13324902951717
 30
0.0
 11
481.50000095367449
 21
479.99999605119228
 31
0.0
  0
ARC
  5
1109
  8
0
 10
487.70418588292489
 20
469.85224823595189
 30
0.0
 40
5.0785749459856167
 50
350.33929942073382
 51
41.206480242508739
  0
LINE
  5
110A
  8
0
 10
491.52500301599508
 20
473.19788418710237
 30
0.0
 11
490.00000327825552
 21
475.09016774594789
 31
0.0
  0
LINE
  5
110C
  8
0
 10
487.99999922513962
 20
479.99999605119228
 30
0.0
 11
500.00000119209301
 21
479.99999605119228
 31
0.0
  0
LINE
  5
110D
  8
0
 10
500.00000119209301
 20
479.99999605119228
 30
0.0
 11
500.00000119209301
 21
468.99999611079693
 31
0.0
  0
LINE
  5
110E
  8
0
 10
479.99999791383732
 20
475.09016774594789
 30
0.0
 11
478.47499817609793
 21
473.19788418710237
 31
0.0
  0
ARC
  5
110F
  8
0
 10
482.30026889336722
 20
469.83782197143159
 30
0.0
 40
5.0914353726209143
 50
138.70439809433859
 51
189.47143826592489
  0
LINE
  5
1110
  8
0
 10
470.00000000000011
 20
468.99999611079693
 30
0.0
 11
470.00000000000011
 21
479.99999605119228
 31
0.0
  0
LINE
  5
1111
  8
0
 10
470.00000000000011
 20
479.99999605119228
 30
0.0
 11
482.00000196695339
 21
479.99999605119228
 31
0.0
  0
LINE
  5
1113
  8
0
 10
488.50000023841858
 20
476.13324902951717
 30
0.0
 11
488.50000023841858
 21
479.99999605119228
 31
0.0
  0
ARC
  5
1114
  8
0
 10
485.00000097751621
 20
469.49999766051792
 30
0.0
 40
7.4999999999999414
 50
48.189685104221248
 51
62.181860715345898
  0
LINE
  5
1117
  8
0
 10
488.50000023841858
 20
476.13324902951717
 30
0.0
 11
487.99999922513967
 21
476.37386180460459
 31
0.0
  0
LINE
  5
1118
  8
0
 10
482.00000196695339
 20
476.37386180460459
 30
0.0
 11
481.50000095367449
 21
476.13324902951717
 31
0.0
  0
LINE
  5
1119
  8
0
 10
487.99999922513967
 20
482.30384595692152
 30
0.0
 11
482.00035959482199
 21
482.30384595692152
 31
0.0
  0
CIRCLE
  5
111A
  8
0
 10
609.10000097751617
 20
507.99999766051769
 30
0.0
 40
5.4000000000000101
  0
CIRCLE
  5
111B
  8
0
 10
609.10000097751617
 20
507.99999766051769
 30
0.0
 40
6.9000000000000519
  0
CIRCLE
  5
111C
  8
0
 10
609.10000097751617
 20
507.99999766051769
 30
0.0
 40
7.899999999999987
  0
POLYLINE
  5
111D
  8
0
 66
     1
 10
0.0
 20
0.0
 30
0.0
 70
   128
  0
VERTEX
  5
31D8
  8
0
 10
599.55452199093986
 20
502.59470872581011
 30
0.0
  0
VERTEX
  5
31D9
  8
0
 10
599.57070302218199
 20
504.53199379146099
 30
0.0
  0
VERTEX
  5
31DA
  8
0
 10
599.5861667022109
 20
506.38337366282951
 30
0.0
  0
VERTEX
  5
31DB
  8
0
 10
599.60207485593855
 20
508.2879581302405
 30
0.0
  0
VERTEX
  5
31DC
  8
0
 10
599.61866473779082
 20
510.27418605983252
 30
0.0
  0
VERTEX
  5
31DD
  8
0
 10
599.63466788642108
 20
512.19016991555702
 30
0.0
  0
VERTEX
  5
31DE
  8
0
 10
599.64614271186292
 20
513.56398247182369
 30
0.0
  0
SEQEND
  5
31DF
  8
0
  0
POLYLINE
  5
111E
  8
0
 66
     1
 10
0.0
 20
0.0
 30
0.0
 70
   128
  0
VERTEX
  5
31E0
  8
0
 10
599.64614271186292
 20
513.56398247182369
 30
0.0
  0
VERTEX
  5
31E1
  8
0
 10
601.63567471201532
 20
514.69058476388454
 30
0.0
  0
VERTEX
  5
31E2
  8
0
 10
603.81953106727451
 20
515.92723213136196
 30
0.0
  0
VERTEX
  5
31E3
  8
0
 10
605.34945412538946
 20
516.79357819259167
 30
0.0
  0
VERTEX
  5
31E4
  8
0
 10
606.89973391592503
 20
517.67145030200493
 30
0.0
  0
VERTEX
  5
31E5
  8
0
 10
609.19162144884456
 20
518.96926693618298
 30
0.0
  0
SEQEND
  5
31E6
  8
0
  0
POLYLINE
  5
111F
  8
0
 66
     1
 10
0.0
 20
0.0
 30
0.0
 70
   128
  0
VERTEX
  5
31E7
  8
0
 10
609.19162144884456
 20
518.96926693618298
 30
0.0
  0
VERTEX
  5
31E8
  8
0
 10
611.16205740720034
 20
517.80959151685227
 30
0.0
  0
VERTEX
  5
31E9
  8
0
 10
613.32495257258415
 20
516.53663747012615
 30
0.0
  0
VERTEX
  5
31EA
  8
0
 10
614.84019111841906
 20
515.64485512673855
 30
0.0
  0
VERTEX
  5
31EB
  8
0
 10
616.37559093534935
 20
514.74121145904076
 30
0.0
  0
VERTEX
  5
31EC
  8
0
 10
618.64547923207283
 20
513.40528510510933
 30
0.0
  0
SEQEND
  5
31ED
  8
0
  0
POLYLINE
  5
1120
  8
0
 66
     1
 10
0.0
 20
0.0
 30
0.0
 70
   128
  0
VERTEX
  5
31EE
  8
0
 10
618.64547923207283
 20
513.40528510510933
 30
0.0
  0
VERTEX
  5
31EF
  8
0
 10
618.63400533795345
 20
512.03147999942303
 30
0.0
  0
VERTEX
  5
31F0
  8
0
 10
618.61800149083126
 20
510.11549614369869
 30
0.0
  0
VERTEX
  5
31F1
  8
0
 10
618.60141277313232
 20
508.12926076352602
 30
0.0
  0
VERTEX
  5
31F2
  8
0
 10
618.58550392091274
 20
506.22468374669552
 30
0.0
  0
VERTEX
  5
31F3
  8
0
 10
618.57004024088383
 20
504.37329642474663
 30
0.0
  0
VERTEX
  5
31F4
  8
0
 10
618.55385944247234
 20
502.43601880967623
 30
0.0
  0
SEQEND
  5
31F5
  8
0
  0
POLYLINE
  5
1121
  8
0
 66
     1
 10
0.0
 20
0.0
 30
0.0
 70
   128
  0
VERTEX
  5
31F6
  8
0
 10
618.55385944247234
 20
502.43601880967623
 30
0.0
  0
VERTEX
  5
31F7
  8
0
 10
616.56432718038559
 20
501.30940906703478
 30
0.0
  0
VERTEX
  5
31F8
  8
0
 10
614.3804707378149
 20
500.07276169955742
 30
0.0
  0
VERTEX
  5
31F9
  8
0
 10
612.85054802894592
 20
499.20641563832771
 30
0.0
  0
VERTEX
  5
31FA
  8
0
 10
611.300268471241
 20
498.32854352891451
 30
0.0
  0
VERTEX
  5
31FB
  8
0
 10
609.00838047265995
 20
497.03072689473629
 30
0.0
  0
SEQEND
  5
31FC
  8
0
  0
POLYLINE
  5
1122
  8
0
 66
     1
 10
0.0
 20
0.0
 30
0.0
 70
   128
  0
VERTEX
  5
31FD
  8
0
 10
609.00838047265995
 20
497.03072689473629
 30
0.0
  0
VERTEX
  5
31FE
  8
0
 10
607.0379445143044
 20
498.19040976464748
 30
0.0
  0
VERTEX
  5
31FF
  8
0
 10
604.87504958175123
 20
499.46335636079311
 30
0.0
  0
VERTEX
  5
3200
  8
0
 10
603.35981103591621
 20
500.35513870418077
 30
0.0
  0
VERTEX
  5
3201
  8
0
 10
601.82441145181645
 20
501.25878237187868
 30
0.0
  0
VERTEX
  5
3202
  8
0
 10
599.55452199093986
 20
502.59470872581011
 30
0.0
  0
SEQEND
  5
3203
  8
0
  0
CIRCLE
  5
1123
  8
0
 10
609.10000097751617
 20
507.99999766051769
 30
0.0
 40
9.4696551146029169
  0
CIRCLE
  5
1124
  8
0
 10
484.00000097751632
 20
507.99999766051769
 30
0.0
 40
5.4000000000000341
  0
CIRCLE
  5
1125
  8
0
 10
484.00000097751632
 20
507.99999766051769
 30
0.0
 40
6.8999999999999053
  0
CIRCLE
  5
1126
  8
0
 10
484.00000097751632
 20
507.99999766051769
 30
0.0
 40
7.8999999999999631
  0
CIRCLE
  5
1127
  8
0
 10
484.00000097751632
 20
507.99999766051769
 30
0.0
 40
9.4696551146028582
  0
POLYLINE
  5
1129
  8
0
 66
     1
 10
0.0
 20
0.0
 30
0.0
 70
   128
  0
VERTEX
  5
3204
  8
0
 10
474.8443824052809
 20
514.04218308627605
 30
0.0
  0
VERTEX
  5
3205
  8
0
 10
476.88914954662329
 20
515.06511799991142
 30
0.0
  0
VERTEX
  5
3206
  8
0
 10
479.13363695144659
 20
516.18797264993191
 30
0.0
  0
VERTEX
  5
3207
  8
0
 10
480.70603728294378
 20
516.97459749877464
 30
0.0
  0
VERTEX
  5
3208
  8
0
 10
482.29935884475702
 20
517.77169041335594
 30
0.0
  0
VERTEX
  5
3209
  8
0
 10
484.65487480163591
 20
518.95008914172649
 30
0.0
  0
SEQEND
  5
320A
  8
0
  0
POLYLINE
  5
112B
  8
0
 66
     1
 10
0.0
 20
0.0
 30
0.0
 70
   128
  0
VERTEX
  5
320B
  8
0
 10
493.81049096584331
 20
512.90790669620026
 30
0.0
  0
VERTEX
  5
320C
  8
0
 10
493.72847497463232
 20
511.53649322688591
 30
0.0
  0
VERTEX
  5
320D
  8
0
 10
493.61409366130829
 20
509.62386958301067
 30
0.0
  0
VERTEX
  5
320E
  8
0
 10
493.49551022052771
 20
507.64110617339622
 30
0.0
  0
VERTEX
  5
320F
  8
0
 10
493.38180691003811
 20
505.73985956609249
 30
0.0
  0
VERTEX
  5
3210
  8
0
 10
493.27127754688269
 20
503.8917132467032
 30
0.0
  0
VERTEX
  5
3211
  8
0
 10
493.15562218427658
 20
501.95781819522392
 30
0.0
  0
SEQEND
  5
3212
  8
0
  0
POLYLINE
  5
112D
  8
0
 66
     1
 10
0.0
 20
0.0
 30
0.0
 70
   128
  0
VERTEX
  5
3213
  8
0
 10
483.34512978792208
 20
497.04990468919272
 30
0.0
  0
VERTEX
  5
3214
  8
0
 10
481.4368498325349
 20
498.30926142632961
 30
0.0
  0
VERTEX
  5
3215
  8
0
 10
479.34218615293491
 20
499.69161234796047
 30
0.0
  0
VERTEX
  5
3216
  8
0
 10
477.87474960088741
 20
500.66003881394869
 30
0.0
  0
VERTEX
  5
3217
  8
0
 10
476.3877850770952
 20
501.64134733378881
 30
0.0
  0
VERTEX
  5
3218
  8
0
 10
474.18950617313391
 20
503.09208713471889
 30
0.0
  0
SEQEND
  5
3219
  8
0
  0
LINE
  5
112F
  8
0
 10
536.63205474615086
 20
498.99999730288988
 30
0.0
 11
536.63205474615086
 21
516.99999652802944
 31
0.0
  0
LINE
  5
1131
  8
0
 10
534.90000337362255
 20
499.9999993294478
 30
0.0
 11
534.90000337362289
 21
515.99999450147152
 31
0.0
  0
LINE
  5
1133
  8
0
 10
636.90000146627415
 20
517.52627573907375
 30
0.0
 11
636.57372191548336
 21
517.52627573907375
 31
0.0
  0
LINE
  5
1134
  8
0
 10
636.90000146627415
 20
517.52627573907375
 30
0.0
 11
636.90000146627415
 21
517.19999991357315
 31
0.0
  0
LINE
  5
1135
  8
0
 10
508.5000035166741
 20
495.60555003583443
 30
0.0
 11
508.5000035166741
 21
490.99999599158758
 31
0.0
  0
LINE
  5
1137
  8
0
 10
530.00000238418579
 20
524.49999682605267
 30
0.0
 11
530.00000238418579
 21
491.49999700486671
 31
0.0
  0
LINE
  5
1138
  8
0
 10
529.50000137090683
 20
490.99999599158758
 30
0.0
 11
529.50000137090683
 21
524.99999783933163
 31
0.0
  0
POLYLINE
  5
1139
  8
0
 66
     1
 10
0.0
 20
0.0
 30
0.0
 70
   128
  0
VERTEX
  5
321A
  8
0
 10
519.56604540348053
 20
491.83784730732452
 30
0.0
  0
VERTEX
  5
321B
  8
0
 10
520.25877803564072
 20
491.74005098640919
 30
0.0
  0
VERTEX
  5
321C
  8
0
 10
520.77389627695084
 20
491.59674279391771
 30
0.0
  0
VERTEX
  5
321D
  8
0
 10
521.07816308736801
 20
491.43853344023228
 30
0.0
  0
VERTEX
  5
321E
  8
0
 10
521.14408582448959
 20
491.29600755870342
 30
0.0
  0
VERTEX
  5
321F
  8
0
 10
520.97969621419895
 20
491.18563093245029
 30
0.0
  0
VERTEX
  5
3220
  8
0
 10
520.60723423957825
 20
491.1104210466147
 30
0.0
  0
VERTEX
  5
3221
  8
0
 10
520.05611479282379
 20
491.06639929115772
 30
0.0
  0
VERTEX
  5
3222
  8
0
 10
519.56604540348053
 20
491.0500862449407
 30
0.0
  0
SEQEND
  5
3223
  8
0
  0
POLYLINE
  5
113A
  8
0
 66
     1
 10
0.0
 20
0.0
 30
0.0
 70
   128
  0
VERTEX
  5
3224
  8
0
 10
518.43395203351974
 20
491.83784730732452
 30
0.0
  0
VERTEX
  5
3225
  8
0
 10
519.13048446178425
 20
491.8610148876906
 30
0.0
  0
VERTEX
  5
3226
  8
0
 10
519.56604540348053
 20
491.83784730732452
 30
0.0
  0
SEQEND
  5
3227
  8
0
  0
POLYLINE
  5
113B
  8
0
 66
     1
 10
0.0
 20
0.0
 30
0.0
 70
   128
  0
VERTEX
  5
3228
  8
0
 10
518.43395203351974
 20
491.0500862449407
 30
0.0
  0
VERTEX
  5
3229
  8
0
 10
517.74122685194016
 20
491.07810787856579
 30
0.0
  0
VERTEX
  5
322A
  8
0
 10
517.22610861063004
 20
491.13541401922703
 30
0.0
  0
VERTEX
  5
322B
  8
0
 10
516.92183434963215
 20
491.22926153242588
 30
0.0
  0
VERTEX
  5
322C
  8
0
 10
516.85591906309116
 20
491.35652489960188
 30
0.0
  0
VERTEX
  5
322D
  8
0
 10
517.02030122280121
 20
491.50408737361431
 30
0.0
  0
VERTEX
  5
322E
  8
0
 10
517.39276319742203
 20
491.6527301818133
 30
0.0
  0
VERTEX
  5
322F
  8
0
 10
517.94389009475697
 20
491.77763544023031
 30
0.0
  0
VERTEX
  5
3230
  8
0
 10
518.43395203351974
 20
491.83784730732452
 30
0.0
  0
SEQEND
  5
3231
  8
0
  0
POLYLINE
  5
113C
  8
0
 66
     1
 10
0.0
 20
0.0
 30
0.0
 70
   128
  0
VERTEX
  5
3232
  8
0
 10
519.56604540348053
 20
491.0500862449407
 30
0.0
  0
VERTEX
  5
3233
  8
0
 10
518.86952042579651
 20
491.0445579141379
 30
0.0
  0
VERTEX
  5
3234
  8
0
 10
518.43395203351974
 20
491.0500862449407
 30
0.0
  0
SEQEND
  5
3235
  8
0
  0
POLYLINE
  5
113E
  8
0
 66
     1
 10
0.0
 20
0.0
 30
0.0
 70
   128
  0
VERTEX
  5
3236
  8
0
 10
519.56604540348053
 20
509.30404596030712
 30
0.0
  0
VERTEX
  5
3237
  8
0
 10
518.86952042579651
 20
509.23003934323782
 30
0.0
  0
VERTEX
  5
3238
  8
0
 10
518.43395203351974
 20
509.30404596030712
 30
0.0
  0
SEQEND
  5
3239
  8
0
  0
POLYLINE
  5
1140
  8
0
 66
     1
 10
0.0
 20
0.0
 30
0.0
 70
   128
  0
VERTEX
  5
323A
  8
0
 10
518.43395203351974
 20
513.27113740146171
 30
0.0
  0
VERTEX
  5
323B
  8
0
 10
519.13048446178425
 20
513.34164224565029
 30
0.0
  0
VERTEX
  5
323C
  8
0
 10
519.56604540348053
 20
513.27113740146171
 30
0.0
  0
SEQEND
  5
323D
  8
0
  0
ARC
  5
1141
  8
0
 10
519.0451723632533
 20
511.2875916808843
 30
0.0
 40
2.0507955406759519
 50
284.71350007676341
 51
75.286499923239148
  0
ARC
  5
1142
  8
0
 10
518.95483570800945
 20
511.2875916808843
 30
0.0
 40
2.050798241653947
 50
104.71378743716851
 51
255.28621256283151
  0
ARC
  5
1143
  8
0
 10
519.00000244379044
 20
510.93638621006937
 30
0.0
 40
2.102596210718068
 50
5.254021265303038
 51
174.74597873469611
  0
LINE
  5
1146
  8
0
 10
501.00000321865087
 20
523.9999958127737
 30
0.0
 11
501.00000321865087
 21
491.9999980181455
 31
0.0
  0
LINE
  5
1147
  8
0
 10
461.99999868869787
 20
519.00000058114529
 30
0.0
 11
461.99999868869787
 21
520.24999938905239
 31
0.0
  0
LINE
  5
1148
  8
0
 10
463.24999749660498
 20
521.49999819695961
 30
0.0
 11
463.24999749660498
 21
520.24999938905239
 31
0.0
  0
ARC
  5
1149
  8
0
 10
504.00000184774387
 20
535.04817882513555
 30
0.0
 40
14.903094888687001
 50
266.36935664913079
 51
273.63064335087159
  0
POLYLINE
  5
114A
  8
0
 66
     1
 10
0.0
 20
0.0
 30
0.0
 70
   128
  0
VERTEX
  5
323E
  8
0
 10
505.6378927826882
 20
520.24839751422405
 30
0.0
  0
VERTEX
  5
323F
  8
0
 10
505.64784675836569
 20
520.24970881640911
 30
0.0
  0
VERTEX
  5
3240
  8
0
 10
505.52877157926571
 20
520.23425631225109
 30
0.0
  0
VERTEX
  5
3241
  8
0
 10
505.24016588926321
 20
520.20155571401119
 30
0.0
  0
VERTEX
  5
3242
  8
0
 10
504.9437296390534
 20
520.17499439418316
 30
0.0
  0
SEQEND
  5
3243
  8
0
  0
ARC
  5
114B
  8
0
 10
504.02183085903852
 20
532.625303793233
 30
0.0
 40
12.487694105443239
 50
262.36227304474568
 51
265.56542609174397
  0
LINE
  5
114C
  8
0
 10
502.99999982118612
 20
540.74999623000622
 30
0.0
 11
502.99999982118612
 21
533.25012259185314
 31
0.0
  0
LINE
  5
114D
  8
0
 10
503.50000083446508
 20
540.24999521672726
 30
0.0
 11
503.50000083446508
 21
533.75010870397091
 31
0.0
  0
LINE
  5
114E
  8
0
 10
590.60000095516443
 20
533.25012259185314
 30
0.0
 11
590.60000095516443
 21
540.74999623000622
 31
0.0
  0
LINE
  5
114F
  8
0
 10
590.10000087320805
 20
533.75010870397091
 30
0.0
 11
590.10000087320805
 21
540.24999521672726
 31
0.0
  0
LINE
  5
1150
  8
0
 10
500.50000220537191
 20
532.99999915063381
 30
0.0
 11
475.9999972581864
 21
532.99999915063381
 31
0.0
  0
LINE
  5
1151
  8
0
 10
480.49999892711651
 20
532.99999915063381
 30
0.0
 11
480.49999892711651
 21
541.000000461936
 31
0.0
  0
LINE
  5
1152
  8
0
 10
480.49999892711651
 20
534.00000117719173
 30
0.0
 11
500.50000220537191
 21
534.00000117719173
 31
0.0
  0
LINE
  5
1153
  8
0
 10
500.50000220537191
 20
541.000000461936
 30
0.0
 11
500.50000220537191
 21
532.99999915063381
 31
0.0
  0
LINE
  5
1155
  8
0
 10
500.50000220537191
 20
539.99999843537796
 30
0.0
 11
480.49999892711651
 21
539.99999843537796
 31
0.0
  0
LINE
  5
1158
  8
0
 10
480.49999892711651
 20
541.000000461936
 30
0.0
 11
500.50000220537191
 21
541.000000461936
 31
0.0
  0
LINE
  5
115A
  8
0
 10
593.10000136494625
 20
534.00000117719173
 30
0.0
 11
613.10000091791153
 21
534.00000117719173
 31
0.0
  0
LINE
  5
115B
  8
0
 10
613.10000091791153
 20
539.99999843537796
 30
0.0
 11
593.10000136494625
 21
539.99999843537796
 31
0.0
  0
LINE
  5
115E
  8
0
 10
593.10000136494625
 20
541.000000461936
 30
0.0
 11
613.10000091791153
 21
541.000000461936
 31
0.0
  0
LINE
  5
1161
  8
0
 10
621.10000036656845
 20
532.99999915063381
 30
0.0
 11
593.10000136494625
 21
532.99999915063381
 31
0.0
  0
LINE
  5
1162
  8
0
 10
613.10000091791176
 20
541.000000461936
 30
0.0
 11
613.10000091791153
 21
532.99999915063381
 31
0.0
  0
LINE
  5
1163
  8
0
 10
593.10000136494625
 20
532.99999915063381
 30
0.0
 11
593.10000136494648
 21
541.000000461936
 31
0.0
  0
LINE
  5
1169
  8
0
 10
493.00000190734869
 20
487.99999736249453
 30
0.0
 11
493.00000190734869
 21
481.99999637901777
 31
0.0
  0
LINE
  5
116A
  8
0
 10
483.9999985694887
 20
487.99999736249453
 30
0.0
 11
486.00000262260448
 21
487.99999736249453
 31
0.0
  0
ARC
  5
116B
  8
0
 10
480.50000097751621
 20
487.99999766051769
 30
0.0
 40
3.5000000000000142
 50
0.0
 51
180.0
  0
LINE
  5
116C
  8
0
 10
476.99999928474438
 20
481.99999637901777
 30
0.0
 11
476.99999928474438
 21
487.99999736249453
 31
0.0
  0
LINE
  5
116E
  8
0
 10
468.99999797344208
 20
489.99999769032001
 30
0.0
 11
453.99999737739569
 21
489.99999769032001
 31
0.0
  0
CIRCLE
  5
116F
  8
0
 10
484.00000097751632
 20
507.99999766051769
 30
0.0
 40
14.70000000000006
  0
ARC
  5
1170
  8
0
 10
489.50000097751632
 20
487.99999766051769
 30
0.0
 40
3.5000000000000848
 50
0.0
 51
179.99999999999889
  0
LINE
  5
1171
  8
0
 10
468.99999797344208
 20
489.99999769032001
 30
0.0
 11
468.99999797344208
 21
481.99999637901777
 31
0.0
  0
LINE
  5
1172
  8
0
 10
500.00000119209301
 20
532.99999915063381
 30
0.0
 11
500.00000119209301
 21
481.99999637901777
 31
0.0
  0
LINE
  5
1173
  8
0
 10
500.00000119209301
 20
481.99999637901777
 30
0.0
 11
487.99999922513967
 21
481.99999637901777
 31
0.0
  0
LINE
  5
1176
  8
0
 10
453.99999737739569
 20
481.99999637901777
 30
0.0
 11
453.99999737739569
 21
510.9999992698431
 31
0.0
  0
LINE
  5
1178
  8
0
 10
453.99999737739569
 20
510.9999992698431
 30
0.0
 11
475.9999972581864
 21
532.99999915063381
 31
0.0
  0
ARC
  5
117F
  8
0
 10
491.00000097751621
 20
480.99999766051781
 30
0.0
 40
1.000000000000085
 50
90.0
 51
180.0
  0
ARC
  5
1181
  8
0
 10
479.00000097751621
 20
480.99999766051781
 30
0.0
 40
0.9999999999999431
 50
0.0
 51
90.0
  0
LINE
  5
1182
  8
0
 10
490.00000327825552
 20
479.99999605119228
 30
0.0
 11
490.00000327825552
 21
480.99999807775021
 31
0.0
  0
LINE
  5
1183
  8
0
 10
479.99999791383732
 20
479.99999605119228
 30
0.0
 11
479.99999791383732
 21
480.99999807775021
 31
0.0
  0
LINE
  5
1185
  8
0
 10
453.99999737739569
 20
481.99999637901777
 30
0.0
 11
482.00000196695339
 21
481.99999637901777
 31
0.0
  0
LINE
  5
1188
  8
0
 10
593.60000051558006
 20
488.99999938905239
 30
0.0
 11
593.60000051558006
 21
532.99999915063381
 31
0.0
  0
CIRCLE
  5
1189
  8
0
 10
631.60000097751606
 20
497.99999766051769
 30
0.0
 40
5.0
  0
CIRCLE
  5
118A
  8
0
 10
597.60000097751606
 20
495.99999766051769
 30
0.0
 40
1.000000000000085
  0
CIRCLE
  5
118B
  8
0
 10
598.20923284222317
 20
491.28757609039229
 30
0.0
 40
0.9999999999998011
  0
LINE
  5
118C
  8
0
 10
635.44678807258595
 20
488.99999938905239
 30
0.0
 11
635.44678807258595
 21
468.99999611079693
 31
0.0
  0
LINE
  5
118D
  8
0
 10
635.44678807258595
 20
488.99999938905239
 30
0.0
 11
593.60000051558006
 21
488.99999938905239
 31
0.0
  0
LINE
  5
118F
  8
0
 10
664.09999996423721
 20
468.99999611079693
 30
0.0
 11
664.09999996423721
 21
489.99999769031979
 31
0.0
  0
LINE
  5
1191
  8
0
 10
619.4253184646368
 20
488.99999938905239
 30
0.0
 11
619.4253184646368
 21
468.99999611079693
 31
0.0
  0
LINE
  5
1192
  8
0
 10
621.10000036656845
 20
532.99999915063381
 30
0.0
 11
669.10000264644623
 21
484.99999479152422
 31
0.0
  0
CIRCLE
  5
1195
  8
0
 10
631.60000097751606
 20
497.99999766051769
 30
0.0
 40
3.3999999999998911
  0
LINE
  5
1196
  8
0
 10
669.10000264644623
 20
484.99999873340141
 30
0.0
 11
669.10000264644623
 21
477.71132297813898
 31
0.0
  0
LINE
  5
1197
  8
0
 10
669.10000264644623
 20
470.59999711811548
 30
0.0
 11
669.10000264644623
 21
468.99999611079693
 31
0.0
  0
LINE
  5
1199
  8
0
 10
593.60000051558006
 20
488.99999938905239
 30
0.0
 11
593.60000051558006
 21
468.99999611079693
 31
0.0
  0
LINE
  5
119B
  8
0
 10
584.60000090301025
 20
455.49999855458742
 30
0.0
 11
584.60000090301025
 21
442.49999735504389
 31
0.0
  0
LINE
  5
119D
  8
0
 10
516.49999737739563
 20
442.49999735504389
 30
0.0
 11
516.49999737739563
 21
455.49999855458742
 31
0.0
  0
LINE
  5
119E
  8
0
 10
501.80000185966497
 20
520.24999938905239
 30
0.0
 11
501.80000185966497
 21
495.74999444186687
 31
0.0
  0
LINE
  5
119F
  8
0
 10
503.74142199754721
 20
539.14141587913025
 30
0.0
 11
503.74142199754721
 21
534.85865078866482
 31
0.0
  0
LINE
  5
11A0
  8
0
 10
589.85857971012592
 20
534.85865078866482
 30
0.0
 11
589.85857971012592
 21
539.14141587913025
 31
0.0
  0
LINE
  5
11A5
  8
0
 10
608.60000111162663
 20
488.99999938905239
 30
0.0
 11
608.60000111162663
 21
477.99999944865698
 31
0.0
  0
LINE
  5
11A6
  8
0
 10
530.00000238418579
 20
742.1999994292853
 30
0.0
 11
533.50000202655792
 21
742.1999994292853
 31
0.0
  0
LINE
  5
11A7
  8
0
 10
533.50000202655792
 20
769.79999911040068
 30
0.0
 11
530.00000238418579
 21
769.79999911040068
 31
0.0
  0
LINE
  5
11A8
  8
0
 10
533.50000202655792
 20
742.1999994292853
 30
0.0
 11
534.00000303983688
 21
742.69999951124191
 31
0.0
  0
LINE
  5
11A9
  8
0
 10
534.00000303983688
 20
769.29999902844429
 30
0.0
 11
533.50000202655792
 21
769.79999911040068
 31
0.0
  0
LINE
  5
11AA
  8
0
 10
599.59966971538961
 20
702.78067715466
 30
0.0
 11
599.63034585118294
 21
702.74999938905216
 31
0.0
  0
LINE
  5
11AB
  8
0
 10
618.56965653598309
 20
702.74999938905216
 30
0.0
 11
618.60033243894566
 21
702.78067715466
 31
0.0
  0
ARC
  5
11AC
  8
0
 10
617.00000097751615
 20
701.74999926984299
 30
0.0
 40
1.000000000000085
 50
90.0
 51
180.0
  0
ARC
  5
11AD
  8
0
 10
601.20000097751597
 20
701.74999926984299
 30
0.0
 40
1.000000000000085
 50
0.0
 51
90.0
  0
LINE
  5
11AE
  8
0
 10
602.20000097498985
 20
701.75000108778465
 30
0.0
 11
602.20000097498985
 21
695.24999909102917
 31
0.0
  0
LINE
  5
11AF
  8
0
 10
616.00000064820051
 20
695.24999909102917
 30
0.0
 11
616.00000064820051
 21
701.75000108778465
 31
0.0
  0
LINE
  5
11B0
  8
0
 10
602.20000097498985
 20
695.24999909102917
 30
0.0
 11
603.70000093709666
 21
693.74999977648258
 31
0.0
  0
LINE
  5
11B1
  8
0
 10
614.50000133365393
 20
693.74999977648258
 30
0.0
 11
616.00000064820051
 21
695.24999909102917
 31
0.0
  0
ARC
  5
11B4
  8
0
 10
601.20000097751597
 20
810.24999926984299
 30
0.0
 40
1.000000000000085
 50
270.0000000000008
 51
0.0
  0
ARC
  5
11B5
  8
0
 10
617.00000097751615
 20
810.24999926984299
 30
0.0
 40
1.000000000000085
 50
180.0
 51
270.0000000000008
  0
LINE
  5
11B6
  8
0
 10
616.00000064820051
 20
816.74999944865704
 30
0.0
 11
614.50000133365393
 21
818.24999876320339
 31
0.0
  0
LINE
  5
11B7
  8
0
 10
603.70000093709666
 20
818.24999876320339
 30
0.0
 11
602.20000097498985
 21
816.74999944865704
 31
0.0
  0
LINE
  5
11B8
  8
0
 10
616.00000064820051
 20
810.24999745190144
 30
0.0
 11
616.00000064820051
 21
816.74999944865704
 31
0.0
  0
LINE
  5
11B9
  8
0
 10
602.20000097498985
 20
816.74999944865704
 30
0.0
 11
602.20000097498985
 21
810.24999745190144
 31
0.0
  0
LINE
  5
11BA
  8
0
 10
474.53034043312061
 20
805.24999849498272
 30
0.0
 11
474.13569808006298
 21
804.85534869134415
 31
0.0
  0
ARC
  5
11BB
  8
0
 10
476.10000097751612
 20
806.24999926984322
 30
0.0
 40
1.000000000000014
 50
270.0000000000008
 51
0.0
  0
POLYLINE
  5
11BC
  8
0
 66
     1
 10
0.0
 20
0.0
 30
0.0
 70
   128
  0
VERTEX
  5
3244
  8
0
 10
490.93175798654562
 20
806.00000001490105
 30
0.0
  0
VERTEX
  5
3245
  8
0
 10
490.919218659401
 20
806.05491079390049
 30
0.0
  0
VERTEX
  5
3246
  8
0
 10
490.90000361204147
 20
806.25000052154041
 30
0.0
  0
SEQEND
  5
3247
  8
0
  0
LINE
  5
11BD
  8
0
 10
490.90000361204147
 20
812.74999879300583
 30
0.0
 11
489.40000057220459
 21
814.24999810755253
 31
0.0
  0
LINE
  5
11BE
  8
0
 10
478.60000401735323
 20
814.24999810755253
 30
0.0
 11
477.10000097751617
 21
812.74999879300583
 31
0.0
  0
LINE
  5
11BF
  8
0
 10
490.90000361204147
 20
806.25000052154041
 30
0.0
 11
490.90000361204147
 21
812.74999879300583
 31
0.0
  0
LINE
  5
11C0
  8
0
 10
477.10000097751617
 20
812.74999879300583
 30
0.0
 11
477.10000097751617
 21
806.25000052154041
 31
0.0
  0
POLYLINE
  5
11C2
  8
0
 66
     1
 10
0.0
 20
0.0
 30
0.0
 70
   128
  0
VERTEX
  5
3248
  8
0
 10
490.90000361204147
 20
705.74999801814545
 30
0.0
  0
VERTEX
  5
3249
  8
0
 10
490.919218659401
 20
705.94508774578549
 30
0.0
  0
VERTEX
  5
324A
  8
0
 10
490.93175798654562
 20
705.99999852478481
 30
0.0
  0
SEQEND
  5
324B
  8
0
  0
LINE
  5
11C4
  8
0
 10
477.10000097751617
 20
705.74999801814545
 30
0.0
 11
477.10000097751617
 21
699.24999974668015
 31
0.0
  0
LINE
  5
11C5
  8
0
 10
490.90000361204147
 20
699.24999974668015
 30
0.0
 11
490.90000361204147
 21
705.74999801814545
 31
0.0
  0
LINE
  5
11C6
  8
0
 10
477.10000097751617
 20
699.24999974668015
 30
0.0
 11
478.60000401735323
 21
697.75000043213367
 31
0.0
  0
LINE
  5
11C7
  8
0
 10
489.40000057220459
 20
697.75000043213367
 30
0.0
 11
490.90000361204147
 21
699.24999974668015
 31
0.0
  0
LINE
  5
11C8
  8
0
 10
536.63205474615086
 20
764.99999888241291
 30
0.0
 11
534.90000337362289
 21
763.99999964982271
 31
0.0
  0
LINE
  5
11C9
  8
0
 10
534.90000337362289
 20
747.99999888986349
 30
0.0
 11
536.63205474615086
 21
746.99999965727329
 31
0.0
  0
LINE
  5
11CA
  8
0
 10
536.63205474615086
 20
746.99999965727329
 30
0.0
 11
585.10000005364407
 21
746.99999965727329
 31
0.0
  0
LINE
  5
11CB
  8
0
 10
585.10000005364407
 20
764.99999888241291
 30
0.0
 11
536.63205474615086
 21
764.99999888241291
 31
0.0
  0
LINE
  5
11CC
  8
0
 10
534.00000303983688
 20
747.4803842231629
 30
0.0
 11
534.90000337362289
 21
747.99999888986349
 31
0.0
  0
LINE
  5
11CD
  8
0
 10
534.90000337362289
 20
763.99999964982271
 30
0.0
 11
534.00000303983688
 21
764.51961431652308
 31
0.0
  0
LINE
  5
11CE
  8
0
 10
636.90000146627415
 20
765.52999965846539
 30
0.0
 11
635.43000191450119
 21
766.99999921023846
 31
0.0
  0
LINE
  5
11CF
  8
0
 10
635.43000191450119
 20
744.99999932944775
 30
0.0
 11
636.90000146627415
 21
746.46999888122082
 31
0.0
  0
LINE
  5
11D0
  8
0
 10
516.00000381469715
 20
738.99999834597088
 30
0.0
 11
529.50000137090683
 21
738.99999834597088
 31
0.0
  0
LINE
  5
11D1
  8
0
 10
529.50000137090683
 20
773.0000001937151
 30
0.0
 11
516.00000381469715
 21
773.0000001937151
 31
0.0
  0
LINE
  5
11D2
  8
0
 10
529.50000137090683
 20
738.99999834597088
 30
0.0
 11
530.00000238418579
 21
739.49999935925007
 31
0.0
  0
LINE
  5
11D3
  8
0
 10
530.00000238418579
 20
772.49999918043613
 30
0.0
 11
529.50000137090683
 21
773.0000001937151
 31
0.0
  0
LINE
  5
11D4
  8
0
 10
500.50000220537191
 20
739.49999935925007
 30
0.0
 11
501.00000321865087
 21
739.99999850988388
 31
0.0
  0
LINE
  5
11D5
  8
0
 10
501.00000321865087
 20
772.00000002980232
 30
0.0
 11
500.50000220537191
 21
772.49999918043613
 31
0.0
  0
LINE
  5
11D6
  8
0
 10
462.73358285427099
 20
768.98357380181551
 30
0.0
 11
461.99999868869787
 21
768.24999894946814
 31
0.0
  0
LINE
  5
11D7
  8
0
 10
461.99999868869787
 20
743.74999959021795
 30
0.0
 11
462.73358285427099
 21
743.01642473787047
 31
0.0
  0
ARC
  5
11D8
  8
0
 10
501.80000097751611
 20
769.04999926984317
 30
0.0
 40
0.799999999999983
 50
180.0
 51
270.0000000000008
  0
ARC
  5
11D9
  8
0
 10
501.80000097751611
 20
742.94999926984349
 30
0.0
 40
0.799999999999983
 50
90.0
 51
180.0
  0
LINE
  5
11DA
  8
0
 10
508.00000250339508
 20
768.24999894946814
 30
0.0
 11
501.80000185966497
 21
768.24999894946814
 31
0.0
  0
LINE
  5
11DB
  8
0
 10
501.80000185966497
 20
743.74999959021795
 30
0.0
 11
508.00000250339508
 21
743.74999959021795
 31
0.0
  0
LINE
  5
11DE
  8
0
 10
458.49999904632568
 20
768.24999894946814
 30
0.0
 11
458.00000548362738
 21
767.74999886751175
 31
0.0
  0
LINE
  5
11DF
  8
0
 10
458.00000548362738
 20
744.24999967217445
 30
0.0
 11
458.49999904632568
 21
743.74999959021795
 31
0.0
  0
LINE
  5
11E0
  8
0
 10
461.99999868869787
 20
768.24999894946814
 30
0.0
 11
458.49999904632568
 21
768.24999894946814
 31
0.0
  0
LINE
  5
11E1
  8
0
 10
458.49999904632568
 20
743.74999959021795
 30
0.0
 11
461.99999868869787
 21
743.74999959021795
 31
0.0
  0
LINE
  5
11E2
  8
0
 10
458.19999396801001
 20
764.03906024992455
 30
0.0
 11
461.99999868869787
 21
764.03906024992455
 31
0.0
  0
LINE
  5
11E3
  8
0
 10
461.99999868869787
 20
747.96093828976154
 30
0.0
 11
458.19999396801001
 21
747.96093828976154
 31
0.0
  0
LINE
  5
11E4
  8
0
 10
502.99999982118612
 20
798.24999921023846
 30
0.0
 11
503.50000083446508
 21
798.7500002235173
 31
0.0
  0
LINE
  5
11E5
  8
0
 10
503.50000083446508
 20
805.24999849498249
 30
0.0
 11
502.99999982118612
 21
805.74999950826145
 31
0.0
  0
LINE
  5
11E6
  8
0
 10
502.99999982118612
 20
805.74999950826145
 30
0.0
 11
500.50000220537191
 21
805.74999950826145
 31
0.0
  0
LINE
  5
11E7
  8
0
 10
500.50000220537191
 20
798.24999921023846
 30
0.0
 11
502.99999982118612
 21
798.24999921023846
 31
0.0
  0
LINE
  5
11E8
  8
0
 10
503.50000083446508
 20
799.61715839803207
 30
0.0
 11
503.74142199754721
 21
799.8585795611142
 31
0.0
  0
LINE
  5
11E9
  8
0
 10
503.74142199754721
 20
804.1414191573856
 30
0.0
 11
503.50000083446508
 21
804.38284032046795
 31
0.0
  0
ARC
  5
11EA
  8
0
 10
503.60000097751612
 20
803.9999992698431
 30
0.0
 40
0.2000000000001704
 50
0.0
 51
44.99999999999978
  0
ARC
  5
11EB
  8
0
 10
503.60000097751612
 20
799.99999926984299
 30
0.0
 40
0.2000000000001023
 50
315.00000000002939
 51
0.0
  0
LINE
  5
11EC
  8
0
 10
503.79999846220022
 20
799.99999903142452
 30
0.0
 11
503.79999846220022
 21
803.99999968707539
 31
0.0
  0
LINE
  5
11ED
  8
0
 10
502.99999982118612
 20
725.24999842047669
 30
0.0
 11
503.50000083446508
 21
725.74999943375565
 31
0.0
  0
LINE
  5
11EE
  8
0
 10
503.50000083446508
 20
732.2499995678661
 30
0.0
 11
502.99999982118612
 21
732.74999871849991
 31
0.0
  0
LINE
  5
11EF
  8
0
 10
502.99999982118612
 20
732.74999871849991
 30
0.0
 11
500.50000220537191
 21
732.74999871849991
 31
0.0
  0
LINE
  5
11F0
  8
0
 10
500.50000220537191
 20
725.24999842047669
 30
0.0
 11
502.99999982118612
 21
725.24999842047669
 31
0.0
  0
LINE
  5
11F1
  8
0
 10
503.50000083446508
 20
726.61715574562527
 30
0.0
 11
503.74142199754721
 21
726.85857877135265
 31
0.0
  0
LINE
  5
11F2
  8
0
 10
503.74142199754721
 20
731.1414202302692
 30
0.0
 11
503.50000083446508
 21
731.38284139335144
 31
0.0
  0
ARC
  5
11F3
  8
0
 10
503.60000097751612
 20
730.9999992698431
 30
0.0
 40
0.2000000000001023
 50
0.0
 51
44.999999999971003
  0
ARC
  5
11F4
  8
0
 10
503.60000097751612
 20
726.99999926984322
 30
0.0
 40
0.2000000000001023
 50
315.00000000002939
 51
0.0
  0
LINE
  5
11F5
  8
0
 10
503.79999846220022
 20
727.0000001043079
 30
0.0
 11
503.79999846220022
 21
730.99999889731384
 31
0.0
  0
LINE
  5
11F6
  8
0
 10
502.99999982118612
 20
706.2499990314243
 30
0.0
 11
503.50000083446508
 21
706.75000004470326
 31
0.0
  0
LINE
  5
11F7
  8
0
 10
503.50000083446508
 20
713.24999831616856
 30
0.0
 11
502.99999982118612
 21
713.74999932944763
 31
0.0
  0
LINE
  5
11F8
  8
0
 10
502.99999982118612
 20
713.74999932944763
 30
0.0
 11
500.50000220537191
 21
713.74999932944763
 31
0.0
  0
LINE
  5
11F9
  8
0
 10
500.50000220537191
 20
706.2499990314243
 30
0.0
 11
502.99999982118612
 21
706.2499990314243
 31
0.0
  0
LINE
  5
11FA
  8
0
 10
503.50000083446508
 20
707.61715821921825
 30
0.0
 11
503.74142199754721
 21
707.85857938230015
 31
0.0
  0
LINE
  5
11FB
  8
0
 10
503.74142199754721
 20
712.14141897857166
 30
0.0
 11
503.50000083446508
 21
712.38284014165379
 31
0.0
  0
ARC
  5
11FC
  8
0
 10
503.60000097751612
 20
711.9999992698431
 30
0.0
 40
0.2000000000001023
 50
0.0
 51
44.999999999971003
  0
ARC
  5
11FD
  8
0
 10
503.60000097751612
 20
707.99999926984299
 30
0.0
 40
0.2000000000001023
 50
315.00000000002939
 51
0.0
  0
LINE
  5
11FE
  8
0
 10
503.79999846220022
 20
707.99999885261036
 30
0.0
 11
503.79999846220022
 21
711.99999950826168
 31
0.0
  0
LINE
  5
11FF
  8
0
 10
590.60000095516443
 20
767.74999886751164
 30
0.0
 11
590.10000087320805
 21
767.24999971687771
 31
0.0
  0
LINE
  5
1200
  8
0
 10
590.10000087320805
 20
760.74999911710597
 30
0.0
 11
590.60000095516443
 21
760.24999950081087
 31
0.0
  0
LINE
  5
1201
  8
0
 10
590.60000095516443
 20
760.24999950081087
 30
0.0
 11
593.10000136494625
 21
760.24999950081087
 31
0.0
  0
LINE
  5
1202
  8
0
 10
593.10000136494625
 20
767.74999886751164
 30
0.0
 11
590.60000095516443
 21
767.74999886751164
 31
0.0
  0
LINE
  5
1203
  8
0
 10
590.10000087320805
 20
766.38284154236305
 30
0.0
 11
589.85857971012592
 21
766.14142037928093
 31
0.0
  0
LINE
  5
1204
  8
0
 10
589.85857971012592
 20
761.85857798904158
 30
0.0
 11
590.10000087320805
 21
761.61715636029817
 31
0.0
  0
ARC
  5
1205
  8
0
 10
590.00000097751615
 20
761.99999926984287
 30
0.0
 40
0.2000000000001023
 50
180.0
 51
225.00000000000071
  0
ARC
  5
1206
  8
0
 10
590.00000097751615
 20
765.99999926984299
 30
0.0
 40
0.2000000000001023
 50
134.99999999997141
 51
180.0
  0
LINE
  5
1207
  8
0
 10
589.80000138282765
 20
765.99999904632546
 30
0.0
 11
589.80000138282765
 21
761.99999932199705
 31
0.0
  0
LINE
  5
1208
  8
0
 10
502.99999982118612
 20
767.74999886751164
 30
0.0
 11
500.50000220537191
 21
767.74999886751164
 31
0.0
  0
LINE
  5
1209
  8
0
 10
500.50000220537191
 20
760.24999950081087
 30
0.0
 11
502.99999982118612
 21
760.24999950081087
 31
0.0
  0
LINE
  5
120A
  8
0
 10
502.99999982118612
 20
760.24999950081087
 30
0.0
 11
503.50000083446508
 21
760.74999911710597
 31
0.0
  0
LINE
  5
120B
  8
0
 10
503.50000083446508
 20
767.24999971687771
 30
0.0
 11
502.99999982118612
 21
767.74999886751164
 31
0.0
  0
LINE
  5
120C
  8
0
 10
503.50000083446508
 20
761.61715636029817
 30
0.0
 11
503.74142199754721
 21
761.85857798904158
 31
0.0
  0
LINE
  5
120D
  8
0
 10
503.74142199754721
 20
766.14142037928093
 30
0.0
 11
503.50000083446508
 21
766.38284154236305
 31
0.0
  0
ARC
  5
120E
  8
0
 10
503.60000097751612
 20
765.9999992698431
 30
0.0
 40
0.2000000000001023
 50
0.0
 51
44.999999999971003
  0
ARC
  5
120F
  8
0
 10
503.60000097751612
 20
761.9999992698431
 30
0.0
 40
0.2000000000001023
 50
315.00000000002939
 51
0.0
  0
LINE
  5
1210
  8
0
 10
503.79999846220022
 20
761.99999932199705
 30
0.0
 11
503.79999846220022
 21
765.99999904632546
 31
0.0
  0
LINE
  5
1211
  8
0
 10
502.99999982118612
 20
751.74999903887488
 30
0.0
 11
500.50000220537191
 21
751.74999903887488
 31
0.0
  0
LINE
  5
1212
  8
0
 10
500.50000220537191
 20
744.24999967217434
 30
0.0
 11
502.99999982118612
 21
744.24999967217434
 31
0.0
  0
LINE
  5
1213
  8
0
 10
502.99999982118612
 20
744.24999967217434
 30
0.0
 11
503.50000083446508
 21
744.74999882280815
 31
0.0
  0
LINE
  5
1214
  8
0
 10
503.50000083446508
 20
751.24999942257978
 30
0.0
 11
502.99999982118612
 21
751.74999903887488
 31
0.0
  0
LINE
  5
1215
  8
0
 10
503.50000083446508
 20
745.61715699732281
 30
0.0
 11
503.74142199754721
 21
745.85857816040505
 31
0.0
  0
LINE
  5
1216
  8
0
 10
503.74142199754721
 20
750.14142055064417
 30
0.0
 11
503.50000083446508
 21
750.38284217938758
 31
0.0
  0
ARC
  5
1217
  8
0
 10
503.60000097751612
 20
749.99999926984299
 30
0.0
 40
0.2000000000001023
 50
0.0
 51
44.999999999971003
  0
ARC
  5
1218
  8
0
 10
503.60000097751612
 20
745.99999926984322
 30
0.0
 40
0.2000000000001704
 50
315.00000000000063
 51
0.0
  0
LINE
  5
1219
  8
0
 10
503.79999846220022
 20
745.99999949336029
 30
0.0
 11
503.79999846220022
 21
749.99999921768881
 31
0.0
  0
LINE
  5
121A
  8
0
 10
590.60000095516443
 20
805.74999950826145
 30
0.0
 11
590.10000087320805
 21
805.24999849498249
 31
0.0
  0
LINE
  5
121B
  8
0
 10
590.10000087320805
 20
798.7500002235173
 30
0.0
 11
590.60000095516443
 21
798.24999921023846
 31
0.0
  0
LINE
  5
121C
  8
0
 10
590.60000095516443
 20
798.24999921023846
 30
0.0
 11
593.10000136494625
 21
798.24999921023846
 31
0.0
  0
LINE
  5
121D
  8
0
 10
593.10000136494625
 20
805.74999950826145
 30
0.0
 11
590.60000095516443
 21
805.74999950826145
 31
0.0
  0
LINE
  5
121E
  8
0
 10
590.10000087320805
 20
804.38284032046795
 30
0.0
 11
589.85857971012592
 21
804.1414191573856
 31
0.0
  0
LINE
  5
121F
  8
0
 10
589.85857971012592
 20
799.8585795611142
 30
0.0
 11
590.10000087320805
 21
799.61715839803207
 31
0.0
  0
ARC
  5
1220
  8
0
 10
590.00000097751615
 20
799.99999926984287
 30
0.0
 40
0.2000000000001023
 50
180.0
 51
225.0000000000295
  0
ARC
  5
1221
  8
0
 10
590.00000097751615
 20
803.99999926984299
 30
0.0
 40
0.2000000000001023
 50
135.0000000000002
 51
180.0
  0
LINE
  5
1222
  8
0
 10
589.80000138282765
 20
803.99999968707539
 30
0.0
 11
589.80000138282765
 21
799.99999903142452
 31
0.0
  0
LINE
  5
1223
  8
0
 10
502.99999982118612
 20
779.24999982118595
 30
0.0
 11
503.50000083446508
 21
779.74999897181976
 31
0.0
  0
LINE
  5
1224
  8
0
 10
503.50000083446508
 20
786.24999910593021
 30
0.0
 11
502.99999982118612
 21
786.75000011920918
 31
0.0
  0
LINE
  5
1225
  8
0
 10
502.99999982118612
 20
786.75000011920918
 30
0.0
 11
500.50000220537191
 21
786.75000011920918
 31
0.0
  0
LINE
  5
1226
  8
0
 10
500.50000220537191
 20
779.24999982118595
 30
0.0
 11
502.99999982118612
 21
779.24999982118595
 31
0.0
  0
LINE
  5
1227
  8
0
 10
503.50000083446508
 20
780.61715714633453
 30
0.0
 11
503.74142199754721
 21
780.85857830941666
 31
0.0
  0
LINE
  5
1228
  8
0
 10
503.74142199754721
 20
785.14141976833332
 30
0.0
 11
503.50000083446508
 21
785.38284279406059
 31
0.0
  0
ARC
  5
1229
  8
0
 10
503.60000097751612
 20
784.9999992698431
 30
0.0
 40
0.2000000000001023
 50
0.0
 51
44.999999999971003
  0
ARC
  5
122A
  8
0
 10
503.60000097751612
 20
780.99999926984322
 30
0.0
 40
0.2000000000001023
 50
315.00000000002939
 51
0.0
  0
LINE
  5
122B
  8
0
 10
503.79999846220022
 20
780.99999964237202
 30
0.0
 11
503.79999846220022
 21
784.99999843537796
 31
0.0
  0
LINE
  5
122C
  8
0
 10
590.60000095516443
 20
751.74999903887488
 30
0.0
 11
590.10000087320805
 21
751.24999942257978
 31
0.0
  0
LINE
  5
122D
  8
0
 10
590.10000087320805
 20
744.74999882280815
 30
0.0
 11
590.60000095516443
 21
744.24999967217434
 31
0.0
  0
LINE
  5
122E
  8
0
 10
590.60000095516443
 20
744.24999967217434
 30
0.0
 11
593.10000136494625
 21
744.24999967217434
 31
0.0
  0
LINE
  5
122F
  8
0
 10
593.10000136494625
 20
751.74999903887488
 30
0.0
 11
590.60000095516443
 21
751.74999903887488
 31
0.0
  0
LINE
  5
1230
  8
0
 10
590.10000087320805
 20
750.38284217938758
 30
0.0
 11
589.85857971012592
 21
750.14142055064417
 31
0.0
  0
LINE
  5
1231
  8
0
 10
589.85857971012592
 20
745.85857816040505
 30
0.0
 11
590.10000087320805
 21
745.61715699732281
 31
0.0
  0
ARC
  5
1232
  8
0
 10
590.00000097751615
 20
745.99999926984299
 30
0.0
 40
0.2000000000001023
 50
180.0
 51
225.0000000000295
  0
ARC
  5
1233
  8
0
 10
590.00000097751615
 20
749.99999926984287
 30
0.0
 40
0.2000000000001023
 50
135.0000000000002
 51
180.0
  0
LINE
  5
1234
  8
0
 10
589.80000138282765
 20
749.99999921768881
 30
0.0
 11
589.80000138282765
 21
745.99999949336029
 31
0.0
  0
LINE
  5
1235
  8
0
 10
590.60000095516443
 20
725.24999842047669
 30
0.0
 11
593.10000136494625
 21
725.24999842047669
 31
0.0
  0
LINE
  5
1236
  8
0
 10
593.10000136494625
 20
732.74999871849991
 30
0.0
 11
590.60000095516443
 21
732.74999871849991
 31
0.0
  0
LINE
  5
1237
  8
0
 10
590.60000095516443
 20
732.74999871849991
 30
0.0
 11
590.10000087320805
 21
732.2499995678661
 31
0.0
  0
LINE
  5
1238
  8
0
 10
590.10000087320805
 20
725.74999943375565
 30
0.0
 11
590.60000095516443
 21
725.24999842047669
 31
0.0
  0
LINE
  5
1239
  8
0
 10
590.10000087320805
 20
731.38284139335144
 30
0.0
 11
589.85857971012592
 21
731.1414202302692
 31
0.0
  0
LINE
  5
123A
  8
0
 10
589.85857971012592
 20
726.85857877135265
 30
0.0
 11
590.10000087320805
 21
726.61715574562527
 31
0.0
  0
ARC
  5
123B
  8
0
 10
590.00000097751615
 20
726.99999926984276
 30
0.0
 40
0.2000000000001023
 50
180.0
 51
225.00000000000071
  0
ARC
  5
123C
  8
0
 10
590.00000097751615
 20
730.99999926984287
 30
0.0
 40
0.2000000000001023
 50
135.0000000000002
 51
180.0
  0
LINE
  5
123D
  8
0
 10
589.80000138282765
 20
730.99999889731384
 30
0.0
 11
589.80000138282765
 21
727.0000001043079
 31
0.0
  0
LINE
  5
123E
  8
0
 10
590.60000095516443
 20
786.75000011920918
 30
0.0
 11
590.10000087320805
 21
786.24999910593021
 31
0.0
  0
LINE
  5
123F
  8
0
 10
590.10000087320805
 20
779.74999897181976
 30
0.0
 11
590.60000095516443
 21
779.24999982118595
 31
0.0
  0
LINE
  5
1240
  8
0
 10
590.60000095516443
 20
779.24999982118595
 30
0.0
 11
593.10000136494625
 21
779.24999982118595
 31
0.0
  0
LINE
  5
1241
  8
0
 10
593.10000136494625
 20
786.75000011920918
 30
0.0
 11
590.60000095516443
 21
786.75000011920918
 31
0.0
  0
LINE
  5
1242
  8
0
 10
590.10000087320805
 20
785.38284279406059
 30
0.0
 11
589.85857971012592
 21
785.14141976833332
 31
0.0
  0
LINE
  5
1243
  8
0
 10
589.85857971012592
 20
780.85857830941666
 30
0.0
 11
590.10000087320805
 21
780.61715714633453
 31
0.0
  0
ARC
  5
1244
  8
0
 10
590.00000097751615
 20
780.99999926984299
 30
0.0
 40
0.2000000000001023
 50
180.0
 51
225.00000000000071
  0
ARC
  5
1245
  8
0
 10
590.00000097751615
 20
784.99999926984287
 30
0.0
 40
0.2000000000001023
 50
135.0000000000002
 51
180.0
  0
LINE
  5
1246
  8
0
 10
589.80000138282765
 20
784.99999843537796
 30
0.0
 11
589.80000138282765
 21
780.99999964237202
 31
0.0
  0
LINE
  5
1247
  8
0
 10
590.60000095516443
 20
713.74999932944763
 30
0.0
 11
590.10000087320805
 21
713.24999831616856
 31
0.0
  0
LINE
  5
1248
  8
0
 10
590.10000087320805
 20
706.75000004470326
 30
0.0
 11
590.60000095516443
 21
706.2499990314243
 31
0.0
  0
LINE
  5
1249
  8
0
 10
590.60000095516443
 20
706.2499990314243
 30
0.0
 11
593.10000136494625
 21
706.2499990314243
 31
0.0
  0
LINE
  5
124A
  8
0
 10
593.10000136494625
 20
713.74999932944763
 30
0.0
 11
590.60000095516443
 21
713.74999932944763
 31
0.0
  0
LINE
  5
124B
  8
0
 10
590.10000087320805
 20
712.38284014165379
 30
0.0
 11
589.85857971012592
 21
712.14141897857166
 31
0.0
  0
LINE
  5
124C
  8
0
 10
589.85857971012592
 20
707.85857938230015
 30
0.0
 11
590.10000087320805
 21
707.61715821921825
 31
0.0
  0
ARC
  5
124D
  8
0
 10
590.00000097751615
 20
707.99999926984299
 30
0.0
 40
0.2000000000001023
 50
180.0
 51
225.0000000000295
  0
ARC
  5
124E
  8
0
 10
590.00000097751615
 20
711.99999926984299
 30
0.0
 40
0.2000000000001023
 50
135.0000000000002
 51
180.0
  0
LINE
  5
124F
  8
0
 10
589.80000138282765
 20
711.99999950826168
 30
0.0
 11
589.80000138282765
 21
707.99999885261036
 31
0.0
  0
LINE
  5
1250
  8
0
 10
420.24999976158148
 20
824.99999754130863
 30
0.0
 11
423.74999940395361
 21
824.99999754130863
 31
0.0
  0
LINE
  5
1251
  8
0
 10
452.25000500679022
 20
824.99999754130863
 30
0.0
 11
455.75000464916229
 21
824.99999754130863
 31
0.0
  0
LINE
  5
1252
  8
0
 10
452.25000500679022
 20
687.00000099837803
 30
0.0
 11
455.75000464916229
 21
687.00000099837803
 31
0.0
  0
LINE
  5
1253
  8
0
 10
420.24999976158148
 20
687.00000099837803
 30
0.0
 11
423.74999940395361
 21
687.00000099837803
 31
0.0
  0
LINE
  5
1254
  8
0
 10
677.3500007390976
 20
824.99999754130863
 30
0.0
 11
680.85000038146973
 21
824.99999754130863
 31
0.0
  0
LINE
  5
1255
  8
0
 10
603.3500009495765
 20
824.99999754130863
 30
0.0
 11
606.85000082477916
 21
824.99999754130863
 31
0.0
  0
LINE
  5
1256
  8
0
 10
603.3500009495765
 20
687.00000099837803
 30
0.0
 11
606.85000082477916
 21
687.00000099837803
 31
0.0
  0
LINE
  5
1257
  8
0
 10
677.3500007390976
 20
687.00000099837803
 30
0.0
 11
680.85000038146973
 21
687.00000099837803
 31
0.0
  0
LINE
  5
125F
  8
0
 10
684.5848274230957
 20
845.50000183284283
 30
0.0
 11
673.61517369747162
 21
845.50000183284283
 31
0.0
  0
LINE
  5
1266
  8
0
 10
673.61517369747162
 20
826.5000005811454
 30
0.0
 11
684.5848274230957
 21
826.5000005811454
 31
0.0
  0
LINE
  5
12E8
  8
0
 10
516.00000381469715
 20
707.99999885261036
 30
0.0
 11
508.00000250339519
 21
707.99999885261036
 31
0.0
  0
LINE
  5
12E9
  8
0
 10
512.00000315904606
 20
707.99999885261036
 30
0.0
 11
512.00000315904606
 21
803.99999968707539
 31
0.0
  0
LINE
  5
12EA
  8
0
 10
516.00000381469715
 20
803.99999968707539
 30
0.0
 11
508.00000250339519
 21
803.99999968707539
 31
0.0
  0
LINE
  5
12EB
  8
0
 10
516.00000381469715
 20
803.99999968707539
 30
0.0
 11
516.00000381469715
 21
707.99999885261036
 31
0.0
  0
LINE
  5
12EF
  8
0
 10
589.10000070929516
 20
803.99999968707539
 30
0.0
 11
589.10000070929516
 21
707.99999885261036
 31
0.0
  0
LINE
  5
12F0
  8
0
 10
585.10000005364407
 20
707.99999885261036
 30
0.0
 11
589.10000070929516
 21
707.99999885261036
 31
0.0
  0
LINE
  5
12F1
  8
0
 10
585.10000005364407
 20
707.99999885261036
 30
0.0
 11
585.10000005364407
 21
803.99999968707539
 31
0.0
  0
LINE
  5
12F2
  8
0
 10
585.10000005364407
 20
803.99999968707539
 30
0.0
 11
589.10000070929516
 21
803.99999968707539
 31
0.0
  0
LINE
  5
12F3
  8
0
 10
589.10000070929516
 20
707.99999885261036
 30
0.0
 11
589.80000138282765
 21
707.99999885261036
 31
0.0
  0
LINE
  5
12F4
  8
0
 10
589.10000070929516
 20
803.99999968707539
 30
0.0
 11
589.80000138282765
 21
803.99999968707539
 31
0.0
  0
LINE
  5
12F7
  8
0
 10
410.9999996423723
 20
850.99999807775043
 30
0.0
 11
409.99999761581432
 21
849.99999605119228
 31
0.0
  0
LINE
  5
12F8
  8
0
 10
507.00000047683722
 20
850.99999807775043
 30
0.0
 11
508.00000250339508
 21
849.99999605119228
 31
0.0
  0
LINE
  5
12FB
  8
0
 10
410.9999996423723
 20
850.99999807775043
 30
0.0
 11
507.00000047683722
 21
850.99999807775043
 31
0.0
  0
CIRCLE
  5
12FD
  8
0
 10
454.00000097751621
 20
818.99999926984322
 30
0.0
 40
6.5500000000000114
  0
CIRCLE
  5
1300
  8
0
 10
422.00000097751609
 20
818.99999926984322
 30
0.0
 40
6.5500000000000114
  0
LINE
  5
1305
  8
0
 10
500.60000389814383
 20
718.00000049173843
 30
0.0
 11
500.50000220537191
 21
716.54741667211056
 31
0.0
  0
LINE
  5
1306
  8
0
 10
500.60000389814383
 20
793.99999804794788
 30
0.0
 11
500.60000389814383
 21
786.7500001192094
 31
0.0
  0
LINE
  5
1307
  8
0
 10
500.60000389814383
 20
779.24999982118607
 30
0.0
 11
500.60000389814383
 21
772.39999935030937
 31
0.0
  0
LINE
  5
1308
  8
0
 10
500.60000389814383
 20
739.59999918937694
 30
0.0
 11
500.60000389814383
 21
732.74999871850025
 31
0.0
  0
LINE
  5
1309
  8
0
 10
500.60000389814383
 20
725.24999842047691
 30
0.0
 11
500.60000389814383
 21
718.00000049173843
 31
0.0
  0
LINE
  5
130A
  8
0
 10
500.50000220537191
 20
795.45258186757565
 30
0.0
 11
500.60000389814383
 21
793.99999804794788
 31
0.0
  0
LINE
  5
130C
  8
0
 10
508.00000250339519
 20
849.99999605119206
 30
0.0
 11
508.00000250339508
 21
662.00000248849403
 31
0.0
  0
LINE
  5
130E
  8
0
 10
409.99999761581432
 20
662.00000248849403
 30
0.0
 11
409.99999761581432
 21
849.99999605119228
 31
0.0
  0
CIRCLE
  5
1310
  8
0
 10
454.00000097751621
 20
818.99999926984322
 30
0.0
 40
6.25
  0
CIRCLE
  5
1311
  8
0
 10
422.00000097751609
 20
818.99999926984322
 30
0.0
 40
6.25
  0
CIRCLE
  5
1312
  8
0
 10
454.00000097751621
 20
692.9999992698431
 30
0.0
 40
6.25
  0
CIRCLE
  5
1313
  8
0
 10
422.00000097751609
 20
692.9999992698431
 30
0.0
 40
6.25
  0
LINE
  5
1314
  8
0
 10
507.00000047683722
 20
661.000000461936
 30
0.0
 11
508.00000250339508
 21
662.00000248849403
 31
0.0
  0
LINE
  5
1316
  8
0
 10
507.00000047683722
 20
661.000000461936
 30
0.0
 11
410.9999996423723
 21
661.000000461936
 31
0.0
  0
LINE
  5
1318
  8
0
 10
409.99999761581432
 20
662.00000248849403
 30
0.0
 11
410.9999996423723
 21
661.000000461936
 31
0.0
  0
LINE
  5
131A
  8
0
 10
691.10000252723694
 20
849.99999605119228
 30
0.0
 11
690.10000050067902
 21
850.99999807775043
 31
0.0
  0
LINE
  5
131E
  8
0
 10
594.10000059753645
 20
850.99999807775043
 30
0.0
 11
690.10000050067902
 21
850.99999807775043
 31
0.0
  0
LINE
  5
1329
  8
0
 10
594.10000059753645
 20
850.99999807775043
 30
0.0
 11
593.10000136494625
 21
849.99999605119228
 31
0.0
  0
LINE
  5
132A
  8
0
 10
691.10000252723694
 20
849.99999605119228
 30
0.0
 11
691.10000252723694
 21
662.00000248849403
 31
0.0
  0
LINE
  5
132D
  8
0
 10
593.10000136494625
 20
662.00000248849403
 30
0.0
 11
593.10000136494625
 21
849.99999605119228
 31
0.0
  0
CIRCLE
  5
132F
  8
0
 10
679.10000097751606
 20
818.99999926984322
 30
0.0
 40
6.25
  0
ARC
  5
1330
  8
0
 10
605.10000097751617
 20
818.99999926984322
 30
0.0
 40
6.2500000000000604
 50
353.10789742065538
 51
242.35447705216461
  0
ARC
  5
1331
  8
0
 10
605.10000097751617
 20
692.9999992698431
 30
0.0
 40
6.2500000000000941
 50
270.0000000000008
 51
6.8921025793478856
  0
ARC
  5
1332
  8
0
 10
605.10000097751617
 20
692.9999992698431
 30
0.0
 40
6.250000000000079
 50
117.6455229478354
 51
270.0000000000008
  0
CIRCLE
  5
1333
  8
0
 10
679.10000097751606
 20
692.9999992698431
 30
0.0
 40
6.25
  0
LINE
  5
1334
  8
0
 10
690.10000050067902
 20
661.000000461936
 30
0.0
 11
594.10000059753645
 21
661.000000461936
 31
0.0
  0
LINE
  5
1337
  8
0
 10
690.10000050067902
 20
661.000000461936
 30
0.0
 11
691.10000252723694
 21
662.00000248849403
 31
0.0
  0
LINE
  5
1338
  8
0
 10
594.10000059753645
 20
661.000000461936
 30
0.0
 11
593.10000136494625
 21
662.00000248849403
 31
0.0
  0
CIRCLE
  5
1339
  8
0
 10
603.10000097751606
 20
792.49999926984276
 30
0.0
 40
6.5000000000001981
  0
CIRCLE
  5
133A
  8
0
 10
603.10000097751606
 20
792.49999926984276
 30
0.0
 40
5.5000000000001128
  0
LINE
  5
133B
  8
0
 10
600.10000088252116
 20
794.23205010592926
 30
0.0
 11
600.10000088252116
 21
790.76794736087311
 31
0.0
  0
LINE
  5
133C
  8
0
 10
600.10000088252116
 20
790.76794736087311
 30
0.0
 11
603.10000102501363
 21
789.03589598834503
 31
0.0
  0
LINE
  5
133D
  8
0
 10
603.10000102501363
 20
789.03589598834503
 30
0.0
 11
606.10000116750587
 21
790.76794736087311
 31
0.0
  0
LINE
  5
133E
  8
0
 10
606.10000116750587
 20
790.76794736087311
 30
0.0
 11
606.10000116750587
 21
794.23205010592926
 31
0.0
  0
LINE
  5
133F
  8
0
 10
606.10000116750587
 20
794.23205010592926
 30
0.0
 11
603.10000102501363
 21
795.96410147845734
 31
0.0
  0
LINE
  5
1340
  8
0
 10
603.10000102501363
 20
795.96410147845734
 30
0.0
 11
600.10000088252116
 21
794.23205010592926
 31
0.0
  0
CIRCLE
  5
1341
  8
0
 10
603.10000097751606
 20
773.49999926984299
 30
0.0
 40
5.5000000000001128
  0
LINE
  5
1342
  8
0
 10
600.10000088252116
 20
775.23205071687687
 30
0.0
 11
600.10000088252116
 21
771.76794797182072
 31
0.0
  0
LINE
  5
1343
  8
0
 10
600.10000088252116
 20
771.76794797182072
 30
0.0
 11
603.10000102501363
 21
770.03589753061522
 31
0.0
  0
LINE
  5
1344
  8
0
 10
603.10000102501363
 20
770.03589753061522
 30
0.0
 11
606.10000116750587
 21
771.76794797182072
 31
0.0
  0
LINE
  5
1345
  8
0
 10
606.10000116750587
 20
771.76794797182072
 30
0.0
 11
606.10000116750587
 21
775.23205071687687
 31
0.0
  0
LINE
  5
1346
  8
0
 10
606.10000116750587
 20
775.23205071687687
 30
0.0
 11
603.10000102501363
 21
776.9641002267598
 31
0.0
  0
LINE
  5
1347
  8
0
 10
603.10000102501363
 20
776.9641002267598
 30
0.0
 11
600.10000088252116
 21
775.23205071687687
 31
0.0
  0
CIRCLE
  5
1348
  8
0
 10
603.10000097751606
 20
773.49999926984299
 30
0.0
 40
6.4999999999999138
  0
CIRCLE
  5
1349
  8
0
 10
490.50000097751621
 20
792.4999992698431
 30
0.0
 40
5.4999999999999707
  0
LINE
  5
134A
  8
0
 10
487.49999821186071
 20
794.23205010592926
 30
0.0
 11
487.49999821186071
 21
790.76794736087311
 31
0.0
  0
LINE
  5
134B
  8
0
 10
487.49999821186071
 20
790.76794736087311
 30
0.0
 11
490.50000429153448
 21
789.03589598834503
 31
0.0
  0
LINE
  5
134C
  8
0
 10
490.50000429153448
 20
789.03589598834503
 30
0.0
 11
493.50000292062771
 21
790.76794736087311
 31
0.0
  0
LINE
  5
134D
  8
0
 10
493.50000292062771
 20
790.76794736087311
 30
0.0
 11
493.50000292062771
 21
794.23205010592926
 31
0.0
  0
LINE
  5
134E
  8
0
 10
493.50000292062771
 20
794.23205010592926
 30
0.0
 11
490.50000429153448
 21
795.96410147845734
 31
0.0
  0
LINE
  5
134F
  8
0
 10
490.50000429153448
 20
795.96410147845734
 30
0.0
 11
487.49999821186071
 21
794.23205010592926
 31
0.0
  0
CIRCLE
  5
1350
  8
0
 10
490.50000097751621
 20
792.4999992698431
 30
0.0
 40
6.500000000000056
  0
CIRCLE
  5
1351
  8
0
 10
603.10000097751606
 20
738.49999926984287
 30
0.0
 40
5.4999999999999707
  0
LINE
  5
1352
  8
0
 10
600.10000088252116
 20
740.23205056786514
 30
0.0
 11
600.10000088252116
 21
736.76794782280899
 31
0.0
  0
LINE
  5
1353
  8
0
 10
600.10000088252116
 20
736.76794782280899
 30
0.0
 11
603.10000102501363
 21
735.03589831292607
 31
0.0
  0
LINE
  5
1354
  8
0
 10
603.10000102501363
 20
735.03589831292607
 30
0.0
 11
606.10000116750587
 21
736.76794782280899
 31
0.0
  0
LINE
  5
1355
  8
0
 10
606.10000116750587
 20
736.76794782280899
 30
0.0
 11
606.10000116750587
 21
740.23205056786514
 31
0.0
  0
LINE
  5
1356
  8
0
 10
606.10000116750587
 20
740.23205056786514
 30
0.0
 11
603.10000102501363
 21
741.96410100907065
 31
0.0
  0
LINE
  5
1357
  8
0
 10
603.10000102501363
 20
741.96410100907065
 30
0.0
 11
600.10000088252116
 21
740.23205056786514
 31
0.0
  0
CIRCLE
  5
1358
  8
0
 10
603.10000097751606
 20
738.49999926984287
 30
0.0
 40
6.500000000000056
  0
CIRCLE
  5
1359
  8
0
 10
603.10000097751606
 20
719.49999926984276
 30
0.0
 40
6.500000000000056
  0
CIRCLE
  5
135A
  8
0
 10
603.10000097751606
 20
719.49999926984276
 30
0.0
 40
5.5000000000001128
  0
LINE
  5
135B
  8
0
 10
600.10000088252116
 20
721.23205117881275
 30
0.0
 11
600.10000088252116
 21
717.7679484337566
 31
0.0
  0
LINE
  5
135C
  8
0
 10
600.10000088252116
 20
717.7679484337566
 30
0.0
 11
603.10000102501363
 21
716.03589706122864
 31
0.0
  0
LINE
  5
135D
  8
0
 10
603.10000102501363
 20
716.03589706122864
 30
0.0
 11
606.10000116750587
 21
717.7679484337566
 31
0.0
  0
LINE
  5
135E
  8
0
 10
606.10000116750587
 20
717.7679484337566
 30
0.0
 11
606.10000116750587
 21
721.23205117881275
 31
0.0
  0
LINE
  5
135F
  8
0
 10
603.10000102501363
 20
722.96410255134094
 30
0.0
 11
600.10000088252116
 21
721.23205117881275
 31
0.0
  0
LINE
  5
1360
  8
0
 10
606.10000116750587
 20
721.23205117881275
 30
0.0
 11
603.10000102501363
 21
722.96410255134094
 31
0.0
  0
CIRCLE
  5
1361
  8
0
 10
490.50000097751621
 20
738.4999992698431
 30
0.0
 40
5.4999999999999707
  0
LINE
  5
1362
  8
0
 10
487.49999821186071
 20
740.23205056786514
 30
0.0
 11
487.49999821186071
 21
736.76794782280899
 31
0.0
  0
LINE
  5
1363
  8
0
 10
487.49999821186071
 20
736.76794782280899
 30
0.0
 11
490.50000429153448
 21
735.03589831292607
 31
0.0
  0
LINE
  5
1364
  8
0
 10
490.50000429153448
 20
735.03589831292607
 30
0.0
 11
493.50000292062771
 21
736.76794782280899
 31
0.0
  0
LINE
  5
1365
  8
0
 10
493.50000292062771
 20
736.76794782280899
 30
0.0
 11
493.50000292062771
 21
740.23205056786514
 31
0.0
  0
LINE
  5
1366
  8
0
 10
493.50000292062771
 20
740.23205056786514
 30
0.0
 11
490.50000429153448
 21
741.96410100907065
 31
0.0
  0
LINE
  5
1367
  8
0
 10
490.50000429153448
 20
741.96410100907065
 30
0.0
 11
487.49999821186071
 21
740.23205056786514
 31
0.0
  0
CIRCLE
  5
1368
  8
0
 10
490.50000097751621
 20
738.4999992698431
 30
0.0
 40
6.500000000000056
  0
CIRCLE
  5
1369
  8
0
 10
490.50000097751621
 20
719.49999926984322
 30
0.0
 40
5.4999999999999707
  0
LINE
  5
136A
  8
0
 10
487.49999821186071
 20
721.23205117881275
 30
0.0
 11
487.49999821186071
 21
717.7679484337566
 31
0.0
  0
LINE
  5
136B
  8
0
 10
487.49999821186071
 20
717.7679484337566
 30
0.0
 11
490.50000429153448
 21
716.03589706122864
 31
0.0
  0
LINE
  5
136C
  8
0
 10
490.50000429153448
 20
716.03589706122864
 30
0.0
 11
493.50000292062771
 21
717.7679484337566
 31
0.0
  0
LINE
  5
136D
  8
0
 10
493.50000292062771
 20
717.7679484337566
 30
0.0
 11
493.50000292062771
 21
721.23205117881275
 31
0.0
  0
LINE
  5
136E
  8
0
 10
493.50000292062771
 20
721.23205117881275
 30
0.0
 11
490.50000429153448
 21
722.96410255134094
 31
0.0
  0
LINE
  5
136F
  8
0
 10
490.50000429153448
 20
722.96410255134094
 30
0.0
 11
487.49999821186071
 21
721.23205117881275
 31
0.0
  0
CIRCLE
  5
1370
  8
0
 10
490.50000097751621
 20
719.49999926984322
 30
0.0
 40
6.4999999999999138
  0
CIRCLE
  5
1371
  8
0
 10
490.50000097751621
 20
773.49999926984322
 30
0.0
 40
5.4999999999999707
  0
LINE
  5
1372
  8
0
 10
487.49999821186071
 20
775.23205071687687
 30
0.0
 11
487.49999821186071
 21
771.76794797182072
 31
0.0
  0
LINE
  5
1373
  8
0
 10
487.49999821186071
 20
771.76794797182072
 30
0.0
 11
490.50000429153448
 21
770.03589753061522
 31
0.0
  0
LINE
  5
1374
  8
0
 10
490.50000429153448
 20
770.03589753061522
 30
0.0
 11
493.50000292062771
 21
771.76794797182072
 31
0.0
  0
LINE
  5
1375
  8
0
 10
493.50000292062771
 20
771.76794797182072
 30
0.0
 11
493.50000292062771
 21
775.23205071687687
 31
0.0
  0
LINE
  5
1376
  8
0
 10
493.50000292062771
 20
775.23205071687687
 30
0.0
 11
490.50000429153448
 21
776.9641002267598
 31
0.0
  0
LINE
  5
1377
  8
0
 10
490.50000429153448
 20
776.9641002267598
 30
0.0
 11
487.49999821186071
 21
775.23205071687687
 31
0.0
  0
CIRCLE
  5
1378
  8
0
 10
490.50000097751621
 20
773.49999926984322
 30
0.0
 40
6.4999999999999138
  0
LINE
  5
137A
  8
0
 10
533.50000202655792
 20
742.1999994292853
 30
0.0
 11
533.50000202655792
 21
769.79999911040056
 31
0.0
  0
LINE
  5
137B
  8
0
 10
534.00000303983688
 20
769.29999902844418
 30
0.0
 11
534.00000303983688
 21
742.69999951124191
 31
0.0
  0
LINE
  5
1385
  8
0
 10
618.60033243894566
 20
702.78067715466
 30
0.0
 11
618.64547923207283
 21
707.99999885261059
 31
0.0
  0
LINE
  5
1386
  8
0
 10
602.20024164911592
 20
695.24999909102917
 30
0.0
 11
616.00000064820051
 21
695.24999909102917
 31
0.0
  0
LINE
  5
1387
  8
0
 10
614.50000133365393
 20
693.74999977648258
 30
0.0
 11
603.70018929708749
 21
693.74999977648258
 31
0.0
  0
ARC
  5
138D
  8
0
 10
613.88545835390676
 20
800.55526510529478
 30
0.0
 40
8.6147551126524728
 50
56.632935688147597
 51
123.36706431185119
  0
ARC
  5
138E
  8
0
 10
604.38554690219462
 20
800.47752049074415
 30
0.0
 40
8.6927324187891823
 50
56.784487875968992
 51
123.2155121240291
  0
LINE
  5
138F
  8
0
 10
599.62375720962882
 20
807.74999983608723
 30
0.0
 11
599.62375720962882
 21
806.00000001490105
 31
0.0
  0
LINE
  5
1390
  8
0
 10
609.14733659476042
 20
807.74999983608723
 30
0.0
 11
609.14733659476042
 21
806.00000001490105
 31
0.0
  0
LINE
  5
1392
  8
0
 10
603.7000512285158
 20
818.24999876320339
 30
0.0
 11
614.50000133365393
 21
818.24999876320339
 31
0.0
  0
LINE
  5
1393
  8
0
 10
616.00000064820051
 20
816.74999944865704
 30
0.0
 11
602.2000652216957
 21
816.74999944865704
 31
0.0
  0
POLYLINE
  5
1395
  8
0
 66
     1
 10
0.0
 20
0.0
 30
0.0
 70
   128
  0
VERTEX
  5
324C
  8
0
 10
473.53135168552399
 20
803.99999968707539
 30
0.0
  0
VERTEX
  5
324D
  8
0
 10
473.89567017555248
 20
804.57891352474689
 30
0.0
  0
VERTEX
  5
324E
  8
0
 10
474.13569808006298
 20
804.85534869134415
 30
0.0
  0
SEQEND
  5
324F
  8
0
  0
ARC
  5
1396
  8
0
 10
477.20293916872572
 20
799.74970662950068
 30
0.0
 40
5.4371174168591363
 50
52.670456993420039
 51
128.58184735833311
  0
LINE
  5
1397
  8
0
 10
480.49999892711651
 20
805.24999849498272
 30
0.0
 11
474.53034043312061
 21
805.24999849498272
 31
0.0
  0
LINE
  5
1398
  8
0
 10
478.60000401735323
 20
814.24999810755253
 30
0.0
 11
489.40000057220459
 21
814.24999810755253
 31
0.0
  0
LINE
  5
1399
  8
0
 10
490.90000361204147
 20
812.74999879300583
 30
0.0
 11
477.10000097751617
 21
812.74999879300583
 31
0.0
  0
LINE
  5
139D
  8
0
 10
477.10000097751617
 20
699.24999974668015
 30
0.0
 11
490.90000361204147
 21
699.24999974668015
 31
0.0
  0
LINE
  5
139E
  8
0
 10
478.60963016748428
 20
697.75000043213367
 30
0.0
 11
478.60000401735323
 21
697.75000043213367
 31
0.0
  0
LINE
  5
139F
  8
0
 10
489.40000057220459
 20
697.75000043213367
 30
0.0
 11
478.60963016748428
 21
697.75000043213367
 31
0.0
  0
LINE
  5
13A0
  8
0
 10
626.90000168979157
 20
759.40734419040382
 30
0.0
 11
626.90000168979157
 21
752.59265434928238
 31
0.0
  0
POLYLINE
  5
13A1
  8
0
 66
     1
 10
0.0
 20
0.0
 30
0.0
 70
   128
  0
VERTEX
  5
3250
  8
0
 10
635.43000191450119
 20
766.99999921023846
 30
0.0
  0
VERTEX
  5
3251
  8
0
 10
636.54504463076591
 20
765.5693145096302
 30
0.0
  0
VERTEX
  5
3252
  8
0
 10
636.90000146627415
 20
764.3831345811484
 30
0.0
  0
SEQEND
  5
3253
  8
0
  0
ARC
  5
13A3
  8
0
 10
632.84308361446597
 20
764.67448837248435
 30
0.0
 40
4.0950613601095158
 50
309.17688512455931
 51
352.17371927473209
  0
LINE
  5
13A4
  8
0
 10
627.39171393215645
 20
761.49999924004078
 30
0.0
 11
635.43000191450119
 21
761.49999924004078
 31
0.0
  0
LINE
  5
13A5
  8
0
 10
629.99875962734222
 20
766.99999921023846
 30
0.0
 11
635.43000191450119
 21
766.99999921023846
 31
0.0
  0
ARC
  5
13A6
  8
0
 10
624.17461062408177
 20
755.51538888081291
 30
0.0
 40
12.74752502457741
 50
3.376908524572666
 51
28.000050214327398
  0
POLYLINE
  5
13A8
  8
0
 66
     1
 10
0.0
 20
0.0
 30
0.0
 70
   128
  0
VERTEX
  5
3254
  8
0
 10
636.90000146627415
 20
755.73372873244807
 30
0.0
  0
VERTEX
  5
3255
  8
0
 10
636.55240580439556
 20
753.38907554745674
 30
0.0
  0
VERTEX
  5
3256
  8
0
 10
635.43000191450119
 20
750.49999929964542
 30
0.0
  0
SEQEND
  5
3257
  8
0
  0
LINE
  5
13A9
  8
0
 10
627.39171393215645
 20
750.49999929964542
 30
0.0
 11
635.43000191450119
 21
750.49999929964542
 31
0.0
  0
POLYLINE
  5
13AB
  8
0
 66
     1
 10
0.0
 20
0.0
 30
0.0
 70
   128
  0
VERTEX
  5
3258
  8
0
 10
635.43000191450119
 20
750.49999929964542
 30
0.0
  0
VERTEX
  5
3259
  8
0
 10
636.54504463076591
 20
749.06931459903717
 30
0.0
  0
VERTEX
  5
325A
  8
0
 10
636.90000146627415
 20
747.88313467055536
 30
0.0
  0
SEQEND
  5
325B
  8
0
  0
ARC
  5
13AD
  8
0
 10
632.84308186299882
 20
748.17448944576199
 30
0.0
 40
4.0950632292364162
 50
309.17689542517292
 51
352.17370897411689
  0
LINE
  5
13AE
  8
0
 10
629.99875962734222
 20
744.99999932944775
 30
0.0
 11
635.43000191450119
 21
744.99999932944775
 31
0.0
  0
LINE
  5
13B0
  8
0
 10
534.90000337362289
 20
747.99999888986349
 30
0.0
 11
534.90000337362289
 21
763.99999964982271
 31
0.0
  0
LINE
  5
13B1
  8
0
 10
536.63205474615086
 20
746.99999965727329
 30
0.0
 11
536.63205474615086
 21
764.99999888241291
 31
0.0
  0
LINE
  5
13B3
  8
0
 10
636.90000146627415
 20
765.52999965846539
 30
0.0
 11
636.90000146627415
 21
746.46999888122082
 31
0.0
  0
ARC
  5
13B4
  8
0
 10
518.89590970614972
 20
759.28759496659018
 30
0.0
 40
2.0366282975253318
 50
103.11020234432959
 51
256.8897976556712
  0
POLYLINE
  5
13B5
  8
0
 66
     1
 10
0.0
 20
0.0
 30
0.0
 70
   128
  0
VERTEX
  5
325C
  8
0
 10
519.56604540348053
 20
757.30405017733551
 30
0.0
  0
VERTEX
  5
325D
  8
0
 10
518.86952042579651
 20
757.23004181403667
 30
0.0
  0
VERTEX
  5
325E
  8
0
 10
518.43395203351974
 20
757.30405017733551
 30
0.0
  0
SEQEND
  5
325F
  8
0
  0
ARC
  5
13B6
  8
0
 10
519.10167357259752
 20
759.28759496659018
 30
0.0
 40
2.037177245184401
 50
283.17633102918461
 51
76.823668970815447
  0
POLYLINE
  5
13B7
  8
0
 66
     1
 10
0.0
 20
0.0
 30
0.0
 70
   128
  0
VERTEX
  5
3260
  8
0
 10
518.43395203351974
 20
761.27113975584496
 30
0.0
  0
VERTEX
  5
3261
  8
0
 10
519.13048446178425
 20
761.34164646267891
 30
0.0
  0
VERTEX
  5
3262
  8
0
 10
519.56604540348053
 20
761.27113975584496
 30
0.0
  0
SEQEND
  5
3263
  8
0
  0
POLYLINE
  5
13B8
  8
0
 66
     1
 10
0.0
 20
0.0
 30
0.0
 70
   128
  0
VERTEX
  5
3264
  8
0
 10
518.43395203351974
 20
739.05008859932423
 30
0.0
  0
VERTEX
  5
3265
  8
0
 10
517.74122685194016
 20
739.07811023294914
 30
0.0
  0
VERTEX
  5
3266
  8
0
 10
517.22610861063004
 20
739.1354163736105
 30
0.0
  0
VERTEX
  5
3267
  8
0
 10
516.92183434963215
 20
739.22926202416397
 30
0.0
  0
VERTEX
  5
3268
  8
0
 10
516.85591906309116
 20
739.35652539134014
 30
0.0
  0
VERTEX
  5
3269
  8
0
 10
517.02030122280121
 20
739.50408972799778
 30
0.0
  0
VERTEX
  5
326A
  8
0
 10
517.39276319742203
 20
739.65273253619648
 30
0.0
  0
VERTEX
  5
326B
  8
0
 10
517.94389009475697
 20
739.77763779461384
 30
0.0
  0
VERTEX
  5
326C
  8
0
 10
518.43395203351974
 20
739.83784966170788
 30
0.0
  0
SEQEND
  5
326D
  8
0
  0
POLYLINE
  5
13B9
  8
0
 66
     1
 10
0.0
 20
0.0
 30
0.0
 70
   128
  0
VERTEX
  5
326E
  8
0
 10
519.56604540348053
 20
739.05008859932423
 30
0.0
  0
VERTEX
  5
326F
  8
0
 10
518.86952042579651
 20
739.04455840587605
 30
0.0
  0
VERTEX
  5
3270
  8
0
 10
518.43395203351974
 20
739.05008859932423
 30
0.0
  0
SEQEND
  5
3271
  8
0
  0
POLYLINE
  5
13BA
  8
0
 66
     1
 10
0.0
 20
0.0
 30
0.0
 70
   128
  0
VERTEX
  5
3272
  8
0
 10
519.56604540348053
 20
739.83784966170788
 30
0.0
  0
VERTEX
  5
3273
  8
0
 10
520.25877803564072
 20
739.74005334079254
 30
0.0
  0
VERTEX
  5
3274
  8
0
 10
520.77389627695084
 20
739.59674514830112
 30
0.0
  0
VERTEX
  5
3275
  8
0
 10
521.07816308736801
 20
739.43853579461575
 30
0.0
  0
VERTEX
  5
3276
  8
0
 10
521.14408582448959
 20
739.29600805044151
 30
0.0
  0
VERTEX
  5
3277
  8
0
 10
520.97969621419895
 20
739.18563328683365
 30
0.0
  0
VERTEX
  5
3278
  8
0
 10
520.60723423957825
 20
739.11042153835297
 30
0.0
  0
VERTEX
  5
3279
  8
0
 10
520.05611479282379
 20
739.06640164554096
 30
0.0
  0
VERTEX
  5
327A
  8
0
 10
519.56604540348053
 20
739.05008859932423
 30
0.0
  0
SEQEND
  5
327B
  8
0
  0
POLYLINE
  5
13BB
  8
0
 66
     1
 10
0.0
 20
0.0
 30
0.0
 70
   128
  0
VERTEX
  5
327C
  8
0
 10
518.43395203351974
 20
739.83784966170788
 30
0.0
  0
VERTEX
  5
327D
  8
0
 10
519.13048446178425
 20
739.86101537942875
 30
0.0
  0
VERTEX
  5
327E
  8
0
 10
519.56604540348053
 20
739.83784966170788
 30
0.0
  0
SEQEND
  5
327F
  8
0
  0
LINE
  5
13BC
  8
0
 10
529.50000137090683
 20
738.99999834597088
 30
0.0
 11
529.50000137090683
 21
773.0000001937151
 31
0.0
  0
LINE
  5
13BD
  8
0
 10
530.00000238418579
 20
772.49999918043613
 30
0.0
 11
530.00000238418579
 21
739.49999935925007
 31
0.0
  0
LINE
  5
13C3
  8
0
 10
501.00000321865087
 20
772.00000002980232
 30
0.0
 11
501.00000321865087
 21
767.74999886751164
 31
0.0
  0
LINE
  5
13C4
  8
0
 10
501.00000321865087
 20
760.24999950081087
 30
0.0
 11
501.00000321865087
 21
751.7499990388751
 31
0.0
  0
LINE
  5
13C5
  8
0
 10
501.00000321865087
 20
744.24999967217445
 30
0.0
 11
501.00000321865087
 21
739.99999850988388
 31
0.0
  0
LINE
  5
13C6
  8
0
 10
468.25000762939459
 20
758.94745570607461
 30
0.0
 11
468.25000762939459
 21
753.05254283361126
 31
0.0
  0
LINE
  5
13C7
  8
0
 10
463.24999749660498
 20
768.49749885499466
 30
0.0
 11
463.24999749660498
 21
743.50249968469143
 31
0.0
  0
LINE
  5
13C8
  8
0
 10
461.99999868869787
 20
743.74999959021795
 30
0.0
 11
461.99999868869787
 21
768.24999894946814
 31
0.0
  0
ARC
  5
13CB
  8
0
 10
504.00000184774387
 20
756.32216508954343
 30
0.0
 40
1.9231147185151041
 50
240.6115048022755
 51
299.38849519773368
  0
ARC
  5
13CC
  8
0
 10
504.00000257532639
 20
755.9999992698431
 30
0.0
 40
1.649998756373769
 50
304.88675239485173
 51
55.113247605155138
  0
ARC
  5
13CD
  8
0
 10
504.00000184774387
 20
755.6789682862385
 30
0.0
 40
1.922126002467101
 50
60.594904519788621
 51
119.4050954802039
  0
ARC
  5
13CE
  8
0
 10
503.99999270591042
 20
755.9999992698431
 30
0.0
 40
1.6499939438048341
 50
124.8865127213153
 51
235.1134872786798
  0
ARC
  5
13CF
  8
0
 10
453.54569549057629
 20
755.99999926984344
 30
0.0
 40
9.2499999999999094
 50
60.832670617487629
 51
61.213542278205402
  0
ARC
  5
13D2
  8
0
 10
453.54569549057629
 20
755.99999926984344
 30
0.0
 40
9.2500000000001581
 50
298.78645772179459
 51
299.16732938251238
  0
LINE
  5
13DE
  8
0
 10
458.00000097751621
 20
764.10688909449357
 30
0.0
 11
458.00000690479538
 21
767.75000028869829
 31
0.0
  0
LINE
  5
13E7
  8
0
 10
458.00000548362738
 20
744.24999967217445
 30
0.0
 11
458.00000548362738
 21
747.89311192106345
 31
0.0
  0
ARC
  5
13E9
  8
0
 10
458.2000009775162
 20
764.33906039410908
 30
0.0
 40
0.3000000000000635
 50
240.8326706175155
 51
270.0000000000008
  0
ARC
  5
13EA
  8
0
 10
458.2000009775162
 20
747.66093814557757
 30
0.0
 40
0.3000000000000114
 50
90.0
 51
119.16732938249839
  0
LINE
  5
13EB
  8
0
 10
503.50000083446508
 20
805.24999849498249
 30
0.0
 11
503.50000083446508
 21
798.7500002235173
 31
0.0
  0
LINE
  5
13EC
  8
0
 10
502.99999982118612
 20
805.74999950826145
 30
0.0
 11
502.99999982118612
 21
798.24999921023846
 31
0.0
  0
LINE
  5
13ED
  8
0
 10
503.50000083446508
 20
732.2499995678661
 30
0.0
 11
503.50000083446508
 21
725.74999943375565
 31
0.0
  0
LINE
  5
13EE
  8
0
 10
502.99999982118612
 20
732.74999871849991
 30
0.0
 11
502.99999982118612
 21
725.24999842047669
 31
0.0
  0
LINE
  5
13EF
  8
0
 10
503.50000083446508
 20
713.24999831616856
 30
0.0
 11
503.50000083446508
 21
706.75000004470326
 31
0.0
  0
LINE
  5
13F0
  8
0
 10
502.99999982118612
 20
713.74999932944763
 30
0.0
 11
502.99999982118612
 21
706.2499990314243
 31
0.0
  0
LINE
  5
13F1
  8
0
 10
590.10000087320805
 20
760.74999911710597
 30
0.0
 11
590.10000087320805
 21
767.24999971687771
 31
0.0
  0
LINE
  5
13F2
  8
0
 10
590.60000095516443
 20
760.24999950081087
 30
0.0
 11
590.60000095516443
 21
767.74999886751164
 31
0.0
  0
LINE
  5
13F3
  8
0
 10
502.99999982118612
 20
767.74999886751164
 30
0.0
 11
502.99999982118612
 21
760.24999950081087
 31
0.0
  0
LINE
  5
13F4
  8
0
 10
503.50000083446508
 20
767.24999971687771
 30
0.0
 11
503.50000083446508
 21
760.74999911710597
 31
0.0
  0
LINE
  5
13F5
  8
0
 10
502.99999982118612
 20
751.74999903887488
 30
0.0
 11
502.99999982118612
 21
744.24999967217434
 31
0.0
  0
LINE
  5
13F6
  8
0
 10
503.50000083446508
 20
751.24999942257978
 30
0.0
 11
503.50000083446508
 21
744.74999882280815
 31
0.0
  0
LINE
  5
13F7
  8
0
 10
590.10000087320805
 20
798.7500002235173
 30
0.0
 11
590.10000087320805
 21
805.24999849498249
 31
0.0
  0
LINE
  5
13F8
  8
0
 10
590.60000095516443
 20
798.24999921023846
 30
0.0
 11
590.60000095516443
 21
805.74999950826145
 31
0.0
  0
LINE
  5
13F9
  8
0
 10
503.50000083446508
 20
786.24999910593021
 30
0.0
 11
503.50000083446508
 21
779.74999897181976
 31
0.0
  0
LINE
  5
13FA
  8
0
 10
502.99999982118612
 20
786.75000011920918
 30
0.0
 11
502.99999982118612
 21
779.24999982118595
 31
0.0
  0
LINE
  5
13FB
  8
0
 10
590.10000087320805
 20
744.74999882280815
 30
0.0
 11
590.10000087320805
 21
751.24999942257978
 31
0.0
  0
LINE
  5
13FC
  8
0
 10
590.60000095516443
 20
744.24999967217434
 30
0.0
 11
590.60000095516443
 21
751.74999903887488
 31
0.0
  0
LINE
  5
13FD
  8
0
 10
590.60000095516443
 20
725.24999842047669
 30
0.0
 11
590.60000095516443
 21
732.74999871849991
 31
0.0
  0
LINE
  5
13FE
  8
0
 10
590.10000087320805
 20
725.74999943375565
 30
0.0
 11
590.10000087320805
 21
732.2499995678661
 31
0.0
  0
LINE
  5
13FF
  8
0
 10
590.10000087320805
 20
779.74999897181976
 30
0.0
 11
590.10000087320805
 21
786.24999910593021
 31
0.0
  0
LINE
  5
1400
  8
0
 10
590.60000095516443
 20
779.24999982118595
 30
0.0
 11
590.60000095516443
 21
786.75000011920918
 31
0.0
  0
LINE
  5
1401
  8
0
 10
590.10000087320805
 20
706.75000004470326
 30
0.0
 11
590.10000087320805
 21
713.24999831616856
 31
0.0
  0
LINE
  5
1402
  8
0
 10
590.60000095516443
 20
706.2499990314243
 30
0.0
 11
590.60000095516443
 21
713.74999932944763
 31
0.0
  0
LINE
  5
1403
  8
0
 10
480.49999892711651
 20
806.00000001490105
 30
0.0
 11
500.50000220537191
 21
806.00000001490105
 31
0.0
  0
LINE
  5
1405
  8
0
 10
500.50000220537191
 20
804.99999798834301
 30
0.0
 11
480.49999892711651
 21
804.99999798834301
 31
0.0
  0
LINE
  5
1408
  8
0
 10
480.49999892711651
 20
707.00000055134285
 30
0.0
 11
500.50000220537191
 21
707.00000055134285
 31
0.0
  0
CIRCLE
  5
1409
  8
0
 10
490.50000097751621
 20
719.49999926984322
 30
0.0
 40
6.7499999999999707
  0
CIRCLE
  5
140A
  8
0
 10
490.50000097751621
 20
738.4999992698431
 30
0.0
 40
6.7499999999999707
  0
CIRCLE
  5
140B
  8
0
 10
490.50000097751621
 20
773.49999926984322
 30
0.0
 40
6.7499999999999707
  0
CIRCLE
  5
140C
  8
0
 10
490.50000097751621
 20
792.4999992698431
 30
0.0
 40
6.7499999999999707
  0
LINE
  5
140D
  8
0
 10
480.49999892711651
 20
705.99999852478481
 30
0.0
 11
480.49999892711651
 21
806.00000001490105
 31
0.0
  0
LINE
  5
140E
  8
0
 10
500.50000220537191
 20
705.99999852478481
 30
0.0
 11
480.49999892711651
 21
705.99999852478481
 31
0.0
  0
LINE
  5
140F
  8
0
 10
500.50000220537191
 20
806.00000001490105
 30
0.0
 11
500.50000220537191
 21
705.99999852478481
 31
0.0
  0
LINE
  5
1411
  8
0
 10
593.10000136494625
 20
806.00000001490105
 30
0.0
 11
613.10000091791153
 21
806.00000001490105
 31
0.0
  0
LINE
  5
1413
  8
0
 10
613.10000091791153
 20
804.99999798834301
 30
0.0
 11
593.10000136494625
 21
804.99999798834301
 31
0.0
  0
LINE
  5
1415
  8
0
 10
613.10000091791153
 20
806.00000001490105
 30
0.0
 11
613.10000091791153
 21
705.99999852478481
 31
0.0
  0
LINE
  5
1416
  8
0
 10
593.10000136494625
 20
707.00000055134285
 30
0.0
 11
613.10000091791153
 21
707.00000055134285
 31
0.0
  0
CIRCLE
  5
1417
  8
0
 10
603.10000097751606
 20
719.49999926984276
 30
0.0
 40
6.7500000000001128
  0
CIRCLE
  5
1418
  8
0
 10
603.10000097751606
 20
738.49999926984287
 30
0.0
 40
6.7500000000001128
  0
CIRCLE
  5
1419
  8
0
 10
603.10000097751606
 20
773.49999926984299
 30
0.0
 40
6.7500000000001128
  0
CIRCLE
  5
141A
  8
0
 10
603.10000097751606
 20
792.49999926984276
 30
0.0
 40
6.7500000000001128
  0
LINE
  5
141C
  8
0
 10
613.10000091791153
 20
705.99999852478481
 30
0.0
 11
593.10000136494625
 21
705.99999852478481
 31
0.0
  0
LINE
  5
141F
  8
0
 10
454.99999940395372
 20
803.99999968707539
 30
0.0
 11
480.49999892711651
 21
803.99999968707539
 31
0.0
  0
LINE
  5
1420
  8
0
 10
477.41421431303041
 20
803.99999968707539
 30
0.0
 11
475.9999972581864
 21
802.99999766051747
 31
0.0
  0
LINE
  5
1421
  8
0
 10
475.9999972581864
 20
802.99999766051747
 30
0.0
 11
453.99999737739569
 21
802.99999766051769
 31
0.0
  0
LINE
  5
1422
  8
0
 10
454.99999940395372
 20
803.99999968707539
 30
0.0
 11
453.99999737739569
 21
802.99999766051769
 31
0.0
  0
LINE
  5
1423
  8
0
 10
477.41421431303041
 20
707.99999885261036
 30
0.0
 11
480.49999892711651
 21
707.99999885261036
 31
0.0
  0
LINE
  5
1424
  8
0
 10
475.9999972581864
 20
709.00000087916828
 30
0.0
 11
477.41421431303041
 21
707.99999885261036
 31
0.0
  0
LINE
  5
1425
  8
0
 10
475.9999972581864
 20
802.99999766051747
 30
0.0
 11
475.9999972581864
 21
709.00000087916828
 31
0.0
  0
LINE
  5
1427
  8
0
 10
453.99999737739569
 20
774.25513617694378
 30
0.0
 11
454.99999940395372
 21
773.03672410547733
 31
0.0
  0
LINE
  5
1429
  8
0
 10
453.99999737739569
 20
709.00000087916828
 30
0.0
 11
475.9999972581864
 21
709.00000087916828
 31
0.0
  0
LINE
  5
142A
  8
0
 10
453.9999973773958
 20
802.99999766051769
 30
0.0
 11
453.99999737739569
 21
709.00000087916828
 31
0.0
  0
LINE
  5
142B
  8
0
 10
454.99999940395372
 20
738.96327443420876
 30
0.0
 11
453.99999737739569
 21
737.74486236274242
 31
0.0
  0
ARC
  5
142C
  8
0
 10
451.00000097751609
 20
755.99999926984333
 30
0.0
 40
17.500000000000131
 50
283.21298036015929
 51
76.787019639841446
  0
LINE
  5
142D
  8
0
 10
477.41421431303041
 20
707.99999885261036
 30
0.0
 11
454.99999940395372
 21
707.99999885261059
 31
0.0
  0
LINE
  5
142E
  8
0
 10
453.99999737739569
 20
709.00000087916828
 30
0.0
 11
454.99999940395372
 21
707.99999885261059
 31
0.0
  0
LINE
  5
142F
  8
0
 10
454.99999940395372
 20
773.03672410547733
 30
0.0
 11
454.99999940395372
 21
738.96327443420887
 31
0.0
  0
LINE
  5
1431
  8
0
 10
621.10000036656845
 20
802.99999766051747
 30
0.0
 11
619.68578703701485
 21
803.99999968707539
 31
0.0
  0
LINE
  5
1432
  8
0
 10
621.10000036656845
 20
802.99999766051747
 30
0.0
 11
621.10000036656845
 21
709.00000087916828
 31
0.0
  0
LINE
  5
1433
  8
0
 10
619.68578703701485
 20
707.99999885261036
 30
0.0
 11
621.10000036656845
 21
709.00000087916828
 31
0.0
  0
LINE
  5
1436
  8
0
 10
664.09999996423721
 20
802.99999766051769
 30
0.0
 11
621.10000036656845
 21
802.99999766051747
 31
0.0
  0
LINE
  5
1437
  8
0
 10
613.10000091791153
 20
803.99999968707561
 30
0.0
 11
664.09999996423721
 21
803.99999968707561
 31
0.0
  0
CIRCLE
  5
1439
  8
0
 10
646.10000097751617
 20
755.9999992698431
 30
0.0
 40
19.500000000000028
  0
LINE
  5
143A
  8
0
 10
664.09999996423733
 20
707.99999885261059
 30
0.0
 11
664.09999996423721
 21
724.49999876320362
 31
0.0
  0
LINE
  5
143B
  8
0
 10
621.10000036656845
 20
709.00000087916828
 30
0.0
 11
664.09999996423721
 21
709.00000087916851
 31
0.0
  0
LINE
  5
143C
  8
0
 10
664.09999996423721
 20
787.49999977648258
 30
0.0
 11
664.09999996423733
 21
803.99999968707539
 31
0.0
  0
ARC
  5
143D
  8
0
 10
679.10000097751606
 20
787.49999926984299
 30
0.0
 40
15.0
 50
180.0
 51
228.18968510422201
  0
LINE
  5
143E
  8
0
 10
669.10000264644623
 20
776.31965853273869
 30
0.0
 11
669.10000264644623
 21
735.68034000694763
 31
0.0
  0
ARC
  5
143F
  8
0
 10
679.10000097751606
 20
724.4999992698431
 30
0.0
 40
15.0
 50
131.8103148957789
 51
180.00000000000119
  0
POLYLINE
  5
1440
  8
0
 66
     1
 10
0.0
 20
0.0
 30
0.0
 70
   128
  0
VERTEX
  5
3280
  8
0
 10
641.95964977145195
 20
713.99999983608723
 30
0.0
  0
VERTEX
  5
3281
  8
0
 10
642.055434435606
 20
713.18825162947155
 30
0.0
  0
VERTEX
  5
3282
  8
0
 10
642.33240231871605
 20
712.46446870267391
 30
0.0
  0
VERTEX
  5
3283
  8
0
 10
642.76054248213757
 20
711.90708331763744
 30
0.0
  0
VERTEX
  5
3284
  8
0
 10
643.29345643520355
 20
711.57649733126141
 30
0.0
  0
VERTEX
  5
3285
  8
0
 10
643.87339845299721
 20
711.50853686034679
 30
0.0
  0
VERTEX
  5
3286
  8
0
 10
644.43752288818359
 20
711.71056680381298
 30
0.0
  0
VERTEX
  5
3287
  8
0
 10
644.92469400167465
 20
712.16068990528584
 30
0.0
  0
VERTEX
  5
3288
  8
0
 10
645.28212442994106
 20
712.8101309388876
 30
0.0
  0
VERTEX
  5
3289
  8
0
 10
645.47107487916935
 20
713.58851172029972
 30
0.0
  0
VERTEX
  5
328A
  8
0
 10
645.47107487916935
 20
714.41148422658443
 30
0.0
  0
VERTEX
  5
328B
  8
0
 10
645.28212442994106
 20
715.18986873328674
 30
0.0
  0
VERTEX
  5
328C
  8
0
 10
644.92469400167465
 20
715.83930976688839
 30
0.0
  0
VERTEX
  5
328D
  8
0
 10
644.43752288818359
 20
716.28943286836147
 30
0.0
  0
VERTEX
  5
328E
  8
0
 10
643.87339845299721
 20
716.49145908653725
 30
0.0
  0
VERTEX
  5
328F
  8
0
 10
643.29345643520355
 20
716.42349861562252
 30
0.0
  0
VERTEX
  5
3290
  8
0
 10
642.76054248213757
 20
716.09291635453701
 30
0.0
  0
VERTEX
  5
3291
  8
0
 10
642.33240231871605
 20
715.53553096950031
 30
0.0
  0
VERTEX
  5
3292
  8
0
 10
642.055434435606
 20
714.81174804270267
 30
0.0
  0
VERTEX
  5
3293
  8
0
 10
641.95964977145195
 20
713.99999983608723
 30
0.0
  0
SEQEND
  5
3294
  8
0
  0
POLYLINE
  5
1441
  8
0
 66
     1
 10
0.0
 20
0.0
 30
0.0
 70
   128
  0
VERTEX
  5
3295
  8
0
 10
641.95964977145195
 20
797.99999870359886
 30
0.0
  0
VERTEX
  5
3296
  8
0
 10
642.055434435606
 20
797.18825049698341
 30
0.0
  0
VERTEX
  5
3297
  8
0
 10
642.33240231871605
 20
796.46446757018555
 30
0.0
  0
VERTEX
  5
3298
  8
0
 10
642.76054248213757
 20
795.90708218514919
 30
0.0
  0
VERTEX
  5
3299
  8
0
 10
643.29345643520355
 20
795.57649992406368
 30
0.0
  0
VERTEX
  5
329A
  8
0
 10
643.87339845299721
 20
795.50853945314884
 30
0.0
  0
VERTEX
  5
329B
  8
0
 10
644.43752288818359
 20
795.71056567132473
 30
0.0
  0
VERTEX
  5
329C
  8
0
 10
644.92469400167465
 20
796.16068877279758
 30
0.0
  0
VERTEX
  5
329D
  8
0
 10
645.28212442994106
 20
796.81012980639935
 30
0.0
  0
VERTEX
  5
329E
  8
0
 10
645.47107487916935
 20
797.58851431310165
 30
0.0
  0
VERTEX
  5
329F
  8
0
 10
645.47107487916935
 20
798.41148681938637
 30
0.0
  0
VERTEX
  5
32A0
  8
0
 10
645.28212442994106
 20
799.18986760079849
 30
0.0
  0
VERTEX
  5
32A1
  8
0
 10
644.92469400167465
 20
799.83930863440037
 30
0.0
  0
VERTEX
  5
32A2
  8
0
 10
644.43752288818359
 20
800.28943173587322
 30
0.0
  0
VERTEX
  5
32A3
  8
0
 10
643.87339845299721
 20
800.49146167933941
 30
0.0
  0
VERTEX
  5
32A4
  8
0
 10
643.29345643520355
 20
800.42350120842457
 30
0.0
  0
VERTEX
  5
32A5
  8
0
 10
642.76054248213757
 20
800.09291522204865
 30
0.0
  0
VERTEX
  5
32A6
  8
0
 10
642.33240231871605
 20
799.53552983701229
 30
0.0
  0
VERTEX
  5
32A7
  8
0
 10
642.055434435606
 20
798.81174691021442
 30
0.0
  0
VERTEX
  5
32A8
  8
0
 10
641.95964977145195
 20
797.99999870359886
 30
0.0
  0
SEQEND
  5
32A9
  8
0
  0
LINE
  5
1443
  8
0
 10
664.09999996423721
 20
707.9999988526107
 30
0.0
 11
613.10000091791153
 21
707.99999885261036
 31
0.0
  0
LINE
  5
1444
  8
0
 10
500.60000389814383
 20
793.99999804794788
 30
0.0
 11
500.50000220537191
 21
793.99999804794788
 31
0.0
  0
LINE
  5
1445
  8
0
 10
500.60000389814383
 20
718.00000049173843
 30
0.0
 11
500.50000220537191
 21
718.00000049173843
 31
0.0
  0
LINE
  5
1446
  8
0
 10
616.00000064820051
 20
701.75000108778465
 30
0.0
 11
602.20024164911592
 21
701.75000108778465
 31
0.0
  0
LINE
  5
1447
  8
0
 10
602.2000652216957
 20
810.24999745190144
 30
0.0
 11
616.00000064820051
 21
810.24999745190144
 31
0.0
  0
LINE
  5
1448
  8
0
 10
477.10000097751617
 20
806.25000052154041
 30
0.0
 11
490.90000361204147
 21
806.25000052154041
 31
0.0
  0
LINE
  5
1449
  8
0
 10
477.11230933666241
 20
705.74999801814545
 30
0.0
 11
477.10000097751617
 21
705.74999801814545
 31
0.0
  0
LINE
  5
144A
  8
0
 10
490.90000361204147
 20
705.74999801814545
 30
0.0
 11
477.11230933666241
 21
705.74999801814545
 31
0.0
  0
LINE
  5
144B
  8
0
 10
501.80000185966497
 20
768.24999894946814
 30
0.0
 11
501.80000185966497
 21
767.74999886751175
 31
0.0
  0
LINE
  5
144C
  8
0
 10
501.80000185966497
 20
760.24999950081087
 30
0.0
 11
501.80000185966497
 21
751.7499990388751
 31
0.0
  0
LINE
  5
144D
  8
0
 10
501.80000185966497
 20
744.24999967217445
 30
0.0
 11
501.80000185966497
 21
743.74999959021795
 31
0.0
  0
LINE
  5
1450
  8
0
 10
503.74142199754721
 20
804.1414191573856
 30
0.0
 11
503.74142199754721
 21
799.8585795611142
 31
0.0
  0
LINE
  5
1451
  8
0
 10
503.74142199754721
 20
731.1414202302692
 30
0.0
 11
503.74142199754721
 21
726.85857877135265
 31
0.0
  0
LINE
  5
1452
  8
0
 10
503.74142199754721
 20
712.14141897857166
 30
0.0
 11
503.74142199754721
 21
707.85857938230015
 31
0.0
  0
LINE
  5
1453
  8
0
 10
589.85857971012592
 20
761.85857798904158
 30
0.0
 11
589.85857971012592
 21
766.14142037928093
 31
0.0
  0
LINE
  5
1454
  8
0
 10
503.74142199754721
 20
766.14142037928093
 30
0.0
 11
503.74142199754721
 21
761.85857798904158
 31
0.0
  0
LINE
  5
1455
  8
0
 10
503.74142199754721
 20
750.14142055064417
 30
0.0
 11
503.74142199754721
 21
745.85857816040505
 31
0.0
  0
LINE
  5
1456
  8
0
 10
589.85857971012592
 20
799.8585795611142
 30
0.0
 11
589.85857971012592
 21
804.1414191573856
 31
0.0
  0
LINE
  5
1457
  8
0
 10
503.74142199754721
 20
785.14141976833332
 30
0.0
 11
503.74142199754721
 21
780.85857830941666
 31
0.0
  0
LINE
  5
1458
  8
0
 10
589.85857971012592
 20
745.85857816040505
 30
0.0
 11
589.85857971012592
 21
750.14142055064417
 31
0.0
  0
LINE
  5
1459
  8
0
 10
589.85857971012592
 20
726.85857877135265
 30
0.0
 11
589.85857971012592
 21
731.1414202302692
 31
0.0
  0
LINE
  5
145A
  8
0
 10
589.85857971012592
 20
780.85857830941666
 30
0.0
 11
589.85857971012592
 21
785.14141976833332
 31
0.0
  0
LINE
  5
145B
  8
0
 10
589.85857971012592
 20
707.85857938230015
 30
0.0
 11
589.85857971012592
 21
712.14141897857166
 31
0.0
  0
LINE
  5
1464
  8
0
 10
588.60000062733889
 20
201.4999989420175
 30
0.0
 11
584.60000090301025
 21
201.4999989420175
 31
0.0
  0
LINE
  5
1465
  8
0
 10
584.60000090301025
 20
188.4999986737966
 30
0.0
 11
588.60000062733889
 21
188.4999986737966
 31
0.0
  0
ARC
  5
1466
  8
0
 10
584.60000097751629
 20
200.49999880790699
 30
0.0
 40
1.000000000000085
 50
90.0
 51
180.0
  0
ARC
  5
1467
  8
0
 10
584.60000097751629
 20
189.49999880790699
 30
0.0
 40
1.000000000000085
 50
180.0
 51
270.0000000000008
  0
LINE
  5
1468
  8
0
 10
601.7186868400313
 20
191.11868473701179
 30
0.0
 11
602.6000010012649
 21
191.99999878182999
 31
0.0
  0
LINE
  5
1469
  8
0
 10
602.6000010012649
 20
197.99999883398411
 30
0.0
 11
601.7186868400313
 21
198.88131287880239
 31
0.0
  0
LINE
  5
146A
  8
0
 10
593.10000136494625
 20
198.99999899789691
 30
0.0
 11
588.60000062733889
 21
198.99999899789691
 31
0.0
  0
LINE
  5
146B
  8
0
 10
588.60000062733889
 20
190.9999986179173
 30
0.0
 11
593.10000136494625
 21
190.9999986179173
 31
0.0
  0
ARC
  5
146C
  8
0
 10
516.50000097751615
 20
189.49999880790699
 30
0.0
 40
1.000000000000085
 50
270.0000000000008
 51
0.0
  0
ARC
  5
146D
  8
0
 10
516.50000097751615
 20
200.49999880790699
 30
0.0
 40
1.000000000000085
 50
0.0
 51
90.0
  0
LINE
  5
146E
  8
0
 10
512.50000417232513
 20
188.4999986737966
 30
0.0
 11
516.49999737739563
 21
188.4999986737966
 31
0.0
  0
LINE
  5
146F
  8
0
 10
516.49999737739563
 20
201.4999989420175
 30
0.0
 11
512.50000417232513
 21
201.4999989420175
 31
0.0
  0
LINE
  5
1470
  8
0
 10
508.00000250339508
 20
190.9999986179173
 30
0.0
 11
512.50000417232513
 21
190.9999986179173
 31
0.0
  0
LINE
  5
1471
  8
0
 10
512.50000417232513
 20
198.99999899789691
 30
0.0
 11
508.00000250339508
 21
198.99999899789691
 31
0.0
  0
LINE
  5
1472
  8
0
 10
533.50000202655792
 20
181.19999896734919
 30
0.0
 11
534.00000303983688
 21
181.69999904930549
 31
0.0
  0
LINE
  5
1473
  8
0
 10
534.00000303983688
 20
208.2999985665079
 30
0.0
 11
533.50000202655792
 21
208.79999864846431
 31
0.0
  0
LINE
  5
1474
  8
0
 10
530.00000238418579
 20
181.19999896734919
 30
0.0
 11
533.50000202655792
 21
181.19999896734919
 31
0.0
  0
LINE
  5
1475
  8
0
 10
533.50000202655792
 20
208.79999864846431
 30
0.0
 11
530.00000238418579
 21
208.79999864846431
 31
0.0
  0
LINE
  5
1476
  8
0
 10
602.20000097498985
 20
255.7499989867207
 30
0.0
 11
602.20000097498985
 21
252.4635292589661
 31
0.0
  0
LINE
  5
1477
  8
0
 10
603.70000093709666
 20
257.24999830126728
 30
0.0
 11
602.20000097498985
 21
255.7499989867207
 31
0.0
  0
LINE
  5
1478
  8
0
 10
602.20000097498985
 20
134.2499986290928
 30
0.0
 11
603.70000093709666
 21
132.74999931454619
 31
0.0
  0
LINE
  5
1479
  8
0
 10
602.20000097498985
 20
137.53646835684739
 30
0.0
 11
602.20000097498985
 21
134.2499986290928
 31
0.0
  0
LINE
  5
147A
  8
0
 10
536.63205474615086
 20
203.9999984204766
 30
0.0
 11
534.90000337362289
 21
202.9999991878864
 31
0.0
  0
LINE
  5
147B
  8
0
 10
534.90000337362289
 20
186.9999984279271
 30
0.0
 11
536.63205474615086
 21
185.9999991953369
 31
0.0
  0
LINE
  5
147C
  8
0
 10
536.63205474615086
 20
185.9999991953369
 30
0.0
 11
585.10000005364407
 21
185.9999991953369
 31
0.0
  0
LINE
  5
147D
  8
0
 10
585.10000005364407
 20
203.9999984204766
 30
0.0
 11
536.63205474615086
 21
203.9999984204766
 31
0.0
  0
LINE
  5
147E
  8
0
 10
534.00000303983688
 20
186.48038376122679
 30
0.0
 11
534.90000337362289
 21
186.9999984279271
 31
0.0
  0
LINE
  5
147F
  8
0
 10
534.90000337362289
 20
202.9999991878864
 30
0.0
 11
534.00000303983688
 21
203.51961385458671
 31
0.0
  0
LINE
  5
1480
  8
0
 10
529.50000137090683
 20
177.99999788403471
 30
0.0
 11
530.00000238418579
 21
178.4999988973137
 31
0.0
  0
LINE
  5
1481
  8
0
 10
530.00000238418579
 20
211.4999987184998
 30
0.0
 11
529.50000137090683
 21
211.9999997317787
 31
0.0
  0
LINE
  5
1482
  8
0
 10
516.00000381469715
 20
177.99999788403471
 30
0.0
 11
529.50000137090683
 21
177.99999788403471
 31
0.0
  0
LINE
  5
1483
  8
0
 10
529.50000137090683
 20
211.9999997317787
 30
0.0
 11
516.00000381469715
 21
211.9999997317787
 31
0.0
  0
LINE
  5
1484
  8
0
 10
590.10000087320805
 20
145.74999958276709
 30
0.0
 11
590.60000095516443
 21
145.24999856948801
 31
0.0
  0
LINE
  5
1485
  8
0
 10
590.60000095516443
 20
145.24999856948801
 30
0.0
 11
593.10000136494625
 21
145.24999856948801
 31
0.0
  0
LINE
  5
1486
  8
0
 10
589.85857971012592
 20
146.8585789203639
 30
0.0
 11
590.10000087320805
 21
146.6171577572818
 31
0.0
  0
ARC
  5
1487
  8
0
 10
590.00000097751615
 20
146.99999880790671
 30
0.0
 40
0.2000000000001023
 50
180.0
 51
225.0000000000077
  0
LINE
  5
1488
  8
0
 10
590.60000095516443
 20
244.74999904632531
 30
0.0
 11
590.10000087320805
 21
244.2499980330463
 31
0.0
  0
LINE
  5
1489
  8
0
 10
593.10000136494625
 20
244.74999904632531
 30
0.0
 11
590.60000095516443
 21
244.74999904632531
 31
0.0
  0
LINE
  5
148A
  8
0
 10
590.10000087320805
 20
243.3828398585315
 30
0.0
 11
589.85857971012592
 21
243.14141869544949
 31
0.0
  0
ARC
  5
148B
  8
0
 10
590.00000097751615
 20
242.99999880790671
 30
0.0
 40
0.2000000000001023
 50
134.99999999999261
 51
180.0
  0
LINE
  5
148C
  8
0
 10
663.65662708878506
 20
192.4999988637864
 30
0.0
 11
666.5433731675148
 21
192.4999988637864
 31
0.0
  0
LINE
  5
148D
  8
0
 10
667.98675179481495
 20
194.9999988079071
 30
0.0
 11
666.5433731675148
 21
192.4999988637864
 31
0.0
  0
LINE
  5
148E
  8
0
 10
667.98675179481495
 20
194.9999988079071
 30
0.0
 11
666.5433731675148
 21
197.49999875202769
 31
0.0
  0
LINE
  5
148F
  8
0
 10
666.5433731675148
 20
197.49999875202769
 30
0.0
 11
663.65662708878506
 21
197.49999875202769
 31
0.0
  0
LINE
  5
1490
  8
0
 10
662.21324846148491
 20
194.9999988079071
 30
0.0
 11
663.65662708878506
 21
197.49999875202769
 31
0.0
  0
LINE
  5
1491
  8
0
 10
662.21324846148491
 20
194.9999988079071
 30
0.0
 11
663.65662708878506
 21
192.4999988637864
 31
0.0
  0
CIRCLE
  5
1492
  8
0
 10
665.10000097751606
 20
194.9999988079071
 30
0.0
 40
5.0
  0
LINE
  5
1493
  8
0
 10
437.44337677955639
 20
197.49999875202769
 30
0.0
 11
434.55661952495581
 21
197.49999875202769
 31
0.0
  0
LINE
  5
1494
  8
0
 10
433.1132483482362
 20
194.9999988079071
 30
0.0
 11
434.55661952495581
 21
197.49999875202769
 31
0.0
  0
LINE
  5
1495
  8
0
 10
433.1132483482362
 20
194.9999988079071
 30
0.0
 11
434.55661952495581
 21
192.4999988637864
 31
0.0
  0
LINE
  5
1496
  8
0
 10
434.55661952495581
 20
192.4999988637864
 30
0.0
 11
437.44337677955639
 21
192.4999988637864
 31
0.0
  0
LINE
  5
1497
  8
0
 10
438.886747956276
 20
194.9999988079071
 30
0.0
 11
437.44337677955639
 21
192.4999988637864
 31
0.0
  0
LINE
  5
1498
  8
0
 10
438.886747956276
 20
194.9999988079071
 30
0.0
 11
437.44337677955639
 21
197.49999875202769
 31
0.0
  0
CIRCLE
  5
1499
  8
0
 10
436.00000097751621
 20
194.9999988079071
 30
0.0
 40
5.0
  0
LINE
  5
149B
  8
0
 10
461.99999868869787
 20
187.99999859184021
 30
0.0
 11
409.99999761581432
 21
187.99999859184021
 31
0.0
  0
CIRCLE
  5
149F
  8
0
 10
436.00000097751621
 20
194.9999988079071
 30
0.0
 40
5.800000000000054
  0
CIRCLE
  5
14A0
  8
0
 10
420.00000097751621
 20
194.9999988079071
 30
0.0
 40
6.25
  0
CIRCLE
  5
14A1
  8
0
 10
452.00000097751632
 20
194.9999988079071
 30
0.0
 40
6.2499999999999281
  0
CIRCLE
  5
14A4
  8
0
 10
436.00000097751621
 20
194.9999988079071
 30
0.0
 40
5.5000000000000417
  0
LINE
  5
14A5
  8
0
 10
461.99999868869787
 20
201.99999902397391
 30
0.0
 11
409.99999761581432
 21
201.99999902397391
 31
0.0
  0
LINE
  5
14B9
  8
0
 10
461.99999868869787
 20
204.99999858438969
 30
0.0
 11
461.99999868869787
 21
184.99999903142449
 31
0.0
  0
LINE
  5
14BB
  8
0
 10
691.10000252723694
 20
187.99999859184021
 30
0.0
 11
639.10000145435333
 21
187.99999859184021
 31
0.0
  0
CIRCLE
  5
14BF
  8
0
 10
665.10000097751606
 20
194.9999988079071
 30
0.0
 40
5.8000000000001251
  0
CIRCLE
  5
14C0
  8
0
 10
649.10000097751606
 20
194.9999988079071
 30
0.0
 40
6.25
  0
CIRCLE
  5
14C1
  8
0
 10
681.10000097751606
 20
194.9999988079071
 30
0.0
 40
6.25
  0
CIRCLE
  5
14C4
  8
0
 10
665.10000097751606
 20
194.9999988079071
 30
0.0
 40
5.5000000000001128
  0
LINE
  5
14C5
  8
0
 10
691.10000252723694
 20
201.99999902397391
 30
0.0
 11
639.10000145435333
 21
201.99999902397391
 31
0.0
  0
LINE
  5
14D9
  8
0
 10
639.10000145435333
 20
204.99999858438969
 30
0.0
 11
639.10000145435345
 21
184.99999903142461
 31
0.0
  0
LINE
  5
14DA
  8
0
 10
410.99999964237219
 20
126.0000005364418
 30
0.0
 11
410.9999996423723
 21
104.00000065565111
 31
0.0
  0
LINE
  5
14DB
  8
0
 10
410.9999996423723
 20
106.4999982714653
 30
0.0
 11
432.99999952316301
 21
106.4999982714653
 31
0.0
  0
LINE
  5
14DC
  8
0
 10
410.9999996423723
 20
104.00000065565111
 30
0.0
 11
432.99999952316301
 21
104.00000065565111
 31
0.0
  0
LINE
  5
14DD
  8
0
 10
432.99999952316301
 20
126.0000005364418
 30
0.0
 11
432.99999952316301
 21
104.00000065565111
 31
0.0
  0
LINE
  5
14DE
  8
0
 10
443.00000488758087
 20
106.4999982714653
 30
0.0
 11
465.00000476837158
 21
106.4999982714653
 31
0.0
  0
LINE
  5
14DF
  8
0
 10
465.00000476837158
 20
126.0000005364418
 30
0.0
 11
465.00000476837158
 21
104.00000065565111
 31
0.0
  0
LINE
  5
14E0
  8
0
 10
443.00000488758087
 20
104.00000065565111
 30
0.0
 11
465.00000476837158
 21
104.00000065565111
 31
0.0
  0
LINE
  5
14E1
  8
0
 10
443.00000488758087
 20
126.0000005364418
 30
0.0
 11
443.00000488758087
 21
104.00000065565111
 31
0.0
  0
LINE
  5
14E2
  8
0
 10
410.9999996423723
 20
123.499995470047
 30
0.0
 11
432.99999952316301
 21
123.499995470047
 31
0.0
  0
LINE
  5
14E7
  8
0
 10
443.00000488758087
 20
123.499995470047
 30
0.0
 11
465.00000476837158
 21
123.499995470047
 31
0.0
  0
LINE
  5
14EA
  8
0
 10
443.00000488758087
 20
126.0000005364418
 30
0.0
 11
465.00000476837158
 21
126.0000005364418
 31
0.0
  0
LINE
  5
14ED
  8
0
 10
410.9999996423723
 20
126.0000005364418
 30
0.0
 11
432.99999952316301
 21
126.0000005364418
 31
0.0
  0
LINE
  5
14F0
  8
0
 10
443.00000488758087
 20
266.50000214576721
 30
0.0
 11
465.00000476837158
 21
266.50000214576721
 31
0.0
  0
LINE
  5
14F1
  8
0
 10
443.00000488758087
 20
263.99999707937241
 30
0.0
 11
465.00000476837158
 21
263.99999707937241
 31
0.0
  0
LINE
  5
14F2
  8
0
 10
443.00000488758087
 20
285.99999696016312
 30
0.0
 11
443.00000488758087
 21
263.99999707937241
 31
0.0
  0
LINE
  5
14F3
  8
0
 10
465.00000476837158
 20
285.99999696016312
 30
0.0
 11
465.00000476837158
 21
263.99999707937241
 31
0.0
  0
LINE
  5
14F4
  8
0
 10
410.99999964237219
 20
285.99999696016312
 30
0.0
 11
410.9999996423723
 21
263.99999707937241
 31
0.0
  0
LINE
  5
14F5
  8
0
 10
410.9999996423723
 20
266.50000214576721
 30
0.0
 11
432.99999952316301
 21
266.50000214576721
 31
0.0
  0
LINE
  5
14F6
  8
0
 10
432.99999952316301
 20
285.99999696016312
 30
0.0
 11
432.99999952316301
 21
263.99999707937241
 31
0.0
  0
LINE
  5
14F7
  8
0
 10
410.9999996423723
 20
263.99999707937241
 30
0.0
 11
432.99999952316301
 21
263.99999707937241
 31
0.0
  0
LINE
  5
14F8
  8
0
 10
410.9999996423723
 20
283.49999934434891
 30
0.0
 11
432.99999952316301
 21
283.49999934434891
 31
0.0
  0
LINE
  5
14FD
  8
0
 10
443.00000488758087
 20
283.49999934434891
 30
0.0
 11
465.00000476837158
 21
283.49999934434891
 31
0.0
  0
LINE
  5
1500
  8
0
 10
410.9999996423723
 20
285.99999696016312
 30
0.0
 11
432.99999952316301
 21
285.99999696016312
 31
0.0
  0
LINE
  5
1503
  8
0
 10
443.00000488758087
 20
285.99999696016312
 30
0.0
 11
465.00000476837158
 21
285.99999696016312
 31
0.0
  0
LINE
  5
1506
  8
0
 10
594.10000059753645
 20
126.0000005364418
 30
0.0
 11
594.10000059753645
 21
104.00000065565111
 31
0.0
  0
LINE
  5
1507
  8
0
 10
594.10000059753645
 20
106.4999982714653
 30
0.0
 11
616.10000140964985
 21
106.4999982714653
 31
0.0
  0
LINE
  5
1508
  8
0
 10
616.10000140964985
 20
126.0000005364418
 30
0.0
 11
616.10000140964985
 21
104.00000065565111
 31
0.0
  0
LINE
  5
1509
  8
0
 10
594.10000059753645
 20
104.00000065565111
 30
0.0
 11
616.10000140964985
 21
104.00000065565111
 31
0.0
  0
LINE
  5
150A
  8
0
 10
668.10000061988831
 20
106.4999982714653
 30
0.0
 11
690.10000050067902
 21
106.4999982714653
 31
0.0
  0
LINE
  5
150B
  8
0
 10
668.10000061988831
 20
104.00000065565111
 30
0.0
 11
690.10000050067902
 21
104.00000065565111
 31
0.0
  0
LINE
  5
150C
  8
0
 10
690.10000050067902
 20
126.0000005364418
 30
0.0
 11
690.10000050067902
 21
104.00000065565111
 31
0.0
  0
LINE
  5
150D
  8
0
 10
668.10000061988831
 20
126.0000005364418
 30
0.0
 11
668.10000061988831
 21
104.00000065565111
 31
0.0
  0
LINE
  5
150E
  8
0
 10
594.10000059753645
 20
123.499995470047
 30
0.0
 11
616.10000140964985
 21
123.499995470047
 31
0.0
  0
LINE
  5
1513
  8
0
 10
668.10000061988831
 20
123.499995470047
 30
0.0
 11
690.10000050067902
 21
123.499995470047
 31
0.0
  0
LINE
  5
1516
  8
0
 10
668.10000061988831
 20
126.0000005364418
 30
0.0
 11
690.10000050067902
 21
126.0000005364418
 31
0.0
  0
LINE
  5
1519
  8
0
 10
594.10000059753645
 20
126.0000005364418
 30
0.0
 11
616.10000140964985
 21
126.0000005364418
 31
0.0
  0
LINE
  5
151C
  8
0
 10
594.10000059753645
 20
266.50000214576721
 30
0.0
 11
616.10000140964985
 21
266.50000214576721
 31
0.0
  0
LINE
  5
151D
  8
0
 10
594.10000059753645
 20
263.99999707937241
 30
0.0
 11
616.10000140964985
 21
263.99999707937241
 31
0.0
  0
LINE
  5
151E
  8
0
 10
594.10000059753645
 20
285.99999696016317
 30
0.0
 11
594.10000059753645
 21
263.99999707937241
 31
0.0
  0
LINE
  5
151F
  8
0
 10
616.10000140964985
 20
285.99999696016317
 30
0.0
 11
616.10000140964985
 21
263.99999707937241
 31
0.0
  0
LINE
  5
1520
  8
0
 10
668.10000061988831
 20
266.50000214576721
 30
0.0
 11
690.10000050067902
 21
266.50000214576721
 31
0.0
  0
LINE
  5
1521
  8
0
 10
668.10000061988831
 20
263.99999707937241
 30
0.0
 11
690.10000050067902
 21
263.99999707937241
 31
0.0
  0
LINE
  5
1522
  8
0
 10
668.10000061988831
 20
285.99999696016312
 30
0.0
 11
668.10000061988831
 21
263.99999707937241
 31
0.0
  0
LINE
  5
1523
  8
0
 10
690.10000050067902
 20
285.99999696016312
 30
0.0
 11
690.10000050067902
 21
263.99999707937241
 31
0.0
  0
LINE
  5
1524
  8
0
 10
594.10000059753645
 20
283.49999934434891
 30
0.0
 11
616.10000140964985
 21
283.49999934434891
 31
0.0
  0
LINE
  5
1529
  8
0
 10
668.10000061988831
 20
283.49999934434891
 30
0.0
 11
690.10000050067902
 21
283.49999934434891
 31
0.0
  0
LINE
  5
152C
  8
0
 10
594.10000059753645
 20
285.99999696016312
 30
0.0
 11
616.10000140964985
 21
285.99999696016312
 31
0.0
  0
LINE
  5
152F
  8
0
 10
668.10000061988831
 20
285.99999696016312
 30
0.0
 11
690.10000050067902
 21
285.99999696016312
 31
0.0
  0
CIRCLE
  5
1532
  8
0
 10
679.10000097751606
 20
114.9999988079071
 30
0.0
 40
6.0000000000000142
  0
CIRCLE
  5
1534
  8
0
 10
605.10000097751617
 20
274.99999880790722
 30
0.0
 40
6.0000000000000488
  0
CIRCLE
  5
1535
  8
3
 10
605.10000097751617
 20
274.99999880790722
 30
0.0
 40
5.0530000260773704
  0
CIRCLE
  5
1536
  8
0
 10
605.10000097751617
 20
114.9999988079072
 30
0.0
 40
6.0000000000000142
  0
CIRCLE
  5
1538
  8
0
 10
454.00000097751621
 20
274.99999880790722
 30
0.0
 40
5.9999999999999778
  0
CIRCLE
  5
153A
  8
0
 10
422.00000097751609
 20
274.9999988079071
 30
0.0
 40
6.0000000000000488
  0
CIRCLE
  5
153C
  8
0
 10
454.00000097751621
 20
114.99999880790701
 30
0.0
 40
5.9999999999999778
  0
CIRCLE
  5
153E
  8
0
 10
422.00000097751609
 20
114.99999880790701
 30
0.0
 40
6.0000000000000488
  0
CIRCLE
  5
1540
  8
0
 10
679.10000097751606
 20
274.99999880790722
 30
0.0
 40
5.9999999999999778
  0
CIRCLE
  5
1541
  8
3
 10
679.10000097751606
 20
274.99999880790722
 30
0.0
 40
5.0529995827677112
  0
LINE
  5
1543
  8
0
 10
516.00000381469715
 20
146.99999839067459
 30
0.0
 11
516.00000381469715
 21
188.4999986737966
 31
0.0
  0
LINE
  5
1544
  8
0
 10
516.00000381469715
 20
146.99999839067459
 30
0.0
 11
512.00000315904606
 21
146.99999839067459
 31
0.0
  0
LINE
  5
1545
  8
0
 10
512.00000315904606
 20
187.49999897554511
 30
0.0
 11
512.00000315904606
 21
146.99999839067459
 31
0.0
  0
LINE
  5
1546
  8
0
 10
516.00000381469715
 20
242.99999922513959
 30
0.0
 11
512.00000315904606
 21
242.99999922513959
 31
0.0
  0
LINE
  5
1547
  8
0
 10
512.00000315904606
 20
242.99999922513959
 30
0.0
 11
512.00000315904606
 21
202.49999864026901
 31
0.0
  0
LINE
  5
1549
  8
0
 10
516.00000381469715
 20
201.4999989420175
 30
0.0
 11
516.00000381469715
 21
242.99999922513959
 31
0.0
  0
LINE
  5
154A
  8
0
 10
508.00000250339508
 20
187.49999897554511
 30
0.0
 11
516.00000381469715
 21
187.499998975545
 31
0.0
  0
LINE
  5
154B
  8
0
 10
508.00000250339508
 20
146.99999839067459
 30
0.0
 11
512.00000315904606
 21
146.99999839067459
 31
0.0
  0
LINE
  5
154C
  8
0
 10
508.00000250339508
 20
242.99999922513959
 30
0.0
 11
512.00000315904606
 21
242.99999922513959
 31
0.0
  0
LINE
  5
154D
  8
0
 10
516.00000381469738
 20
202.49999864026901
 30
0.0
 11
508.00000250339508
 21
202.49999864026901
 31
0.0
  0
LINE
  5
154F
  8
0
 10
508.00000250339508
 20
190.79999895766369
 30
0.0
 11
512.50000417232513
 21
190.79999895766369
 31
0.0
  0
LINE
  5
1550
  8
0
 10
512.50000417232513
 20
199.19999865815041
 30
0.0
 11
508.00000250339508
 21
199.19999865815041
 31
0.0
  0
LINE
  5
1551
  8
0
 10
512.50000417232513
 20
202.49999864026901
 30
0.0
 11
512.50000417232513
 21
187.499998975545
 31
0.0
  0
LINE
  5
1555
  8
0
 10
585.10000005364407
 20
188.4999986737966
 30
0.0
 11
585.10000005364407
 21
146.99999839067459
 31
0.0
  0
LINE
  5
1556
  8
0
 10
585.10000005364407
 20
187.49999897554511
 30
0.0
 11
593.10000136494625
 21
187.49999897554511
 31
0.0
  0
LINE
  5
1557
  8
0
 10
589.10000070929516
 20
146.99999839067459
 30
0.0
 11
589.10000070929516
 21
187.49999897554511
 31
0.0
  0
LINE
  5
1559
  8
0
 10
593.10000136494625
 20
202.49999864026901
 30
0.0
 11
585.10000005364407
 21
202.49999864026901
 31
0.0
  0
LINE
  5
155A
  8
0
 10
589.10000070929516
 20
202.49999864026901
 30
0.0
 11
589.10000070929516
 21
242.99999922513959
 31
0.0
  0
LINE
  5
155B
  8
0
 10
585.10000005364407
 20
242.99999922513959
 30
0.0
 11
585.10000005364407
 21
201.49999894201761
 31
0.0
  0
LINE
  5
155D
  8
0
 10
593.10000136494625
 20
146.99999839067459
 30
0.0
 11
585.10000005364407
 21
146.99999839067459
 31
0.0
  0
LINE
  5
155E
  8
0
 10
593.10000136494625
 20
242.99999922513959
 30
0.0
 11
585.10000005364407
 21
242.99999922513959
 31
0.0
  0
LINE
  5
1560
  8
0
 10
588.60000062733889
 20
190.79999895766369
 30
0.0
 11
593.10000136494625
 21
190.79999895766369
 31
0.0
  0
LINE
  5
1561
  8
0
 10
588.60000062733889
 20
187.49999897554511
 30
0.0
 11
588.60000062733889
 21
202.49999864026901
 31
0.0
  0
LINE
  5
1562
  8
0
 10
593.10000136494625
 20
199.19999865815041
 30
0.0
 11
588.60000062733889
 21
199.19999865815041
 31
0.0
  0
LINE
  5
156D
  8
0
 10
485.91088622808468
 20
288.99999558925629
 30
0.0
 11
485.91088622808468
 21
289.49999660253519
 31
0.0
  0
LINE
  5
156E
  8
0
 10
485.91088622808468
 20
288.99999558925629
 30
0.0
 11
492.68911898136139
 21
288.99999558925629
 31
0.0
  0
LINE
  5
156F
  8
0
 10
492.68911898136139
 20
288.99999558925629
 30
0.0
 11
492.68911898136139
 21
289.49999660253519
 31
0.0
  0
LINE
  5
1573
  8
0
 10
492.68911898136139
 20
101.00000202655789
 30
0.0
 11
492.68911898136139
 21
100.5000010132789
 31
0.0
  0
LINE
  5
1574
  8
0
 10
485.91088622808468
 20
101.00000202655789
 30
0.0
 11
492.68911898136139
 21
101.00000202655789
 31
0.0
  0
LINE
  5
1575
  8
0
 10
485.91088622808468
 20
101.00000202655789
 30
0.0
 11
485.91088622808468
 21
100.5000010132789
 31
0.0
  0
CIRCLE
  5
1576
  8
0
 10
485.00000097751621
 20
242.9999988079071
 30
0.0
 40
4.6000000000000076
  0
CIRCLE
  5
1577
  8
0
 10
485.00000097751621
 20
146.9999988079071
 30
0.0
 40
4.6000000000000441
  0
LINE
  5
1580
  8
0
 10
485.81088453531271
 20
100.0
 30
0.0
 11
485.91088622808468
 21
100.5000010132789
 31
0.0
  0
LINE
  5
1581
  8
0
 10
507.00000047683722
 20
100.0
 30
0.0
 11
410.9999996423723
 21
100.0
 31
0.0
  0
LINE
  5
1585
  8
0
 10
492.68911898136139
 20
100.5000010132789
 30
0.0
 11
492.78912067413341
 21
100.0
 31
0.0
  0
LINE
  5
1589
  8
0
 10
410.9999996423723
 20
100.0
 30
0.0
 11
409.99999761581432
 21
101.00000202655789
 31
0.0
  0
LINE
  5
158A
  8
0
 10
508.00000250339508
 20
288.99999558925629
 30
0.0
 11
508.00000250339508
 21
101.00000202655789
 31
0.0
  0
LINE
  5
158C
  8
0
 10
508.00000250339508
 20
101.00000202655789
 30
0.0
 11
507.00000047683722
 21
100.0
 31
0.0
  0
ARC
  5
158E
  8
0
 10
422.00000097751609
 20
131.99999880790699
 30
0.0
 40
6.25
 50
286.26026130121591
 51
253.73979529169219
  0
ARC
  5
158F
  8
0
 10
454.00000097751621
 20
131.99999880790699
 30
0.0
 40
6.25
 50
286.26020470831031
 51
253.73973869878421
  0
CIRCLE
  5
1591
  8
0
 10
485.00000097751621
 20
146.9999988079071
 30
0.0
 40
3.3999999999999981
  0
LINE
  5
1593
  8
0
 10
409.99999761581432
 20
184.99999903142449
 30
0.0
 11
470.00000000000011
 21
184.99999903142449
 31
0.0
  0
ARC
  5
1596
  8
0
 10
470.00000097751621
 20
194.9999988079071
 30
0.0
 40
10.0
 50
270.0000000000008
 51
90.0
  0
LINE
  5
1598
  8
0
 10
470.00000000000011
 20
204.99999858438969
 30
0.0
 11
409.99999761581432
 21
204.9999985843896
 31
0.0
  0
LINE
  5
159C
  8
0
 10
409.99999761581432
 20
101.00000202655789
 30
0.0
 11
409.99999761581432
 21
288.99999558925629
 31
0.0
  0
ARC
  5
159F
  8
0
 10
422.00000097751609
 20
257.9999988079071
 30
0.0
 40
6.2499999999999938
 50
106.26020470830861
 51
73.739795291691337
  0
ARC
  5
15A0
  8
0
 10
454.00000097751621
 20
257.9999988079071
 30
0.0
 40
6.2499999999999938
 50
106.26020470830861
 51
73.739795291691337
  0
LINE
  5
15A1
  8
0
 10
410.9999996423723
 20
289.99999761581421
 30
0.0
 11
507.00000047683722
 21
289.99999761581421
 31
0.0
  0
LINE
  5
15A2
  8
0
 10
485.81088453531271
 20
289.99999761581421
 30
0.0
 11
485.91088622808468
 21
289.49999660253519
 31
0.0
  0
LINE
  5
15A3
  8
0
 10
409.99999761581432
 20
288.99999558925629
 30
0.0
 11
410.9999996423723
 21
289.99999761581421
 31
0.0
  0
LINE
  5
15A5
  8
0
 10
507.00000047683722
 20
289.99999761581421
 30
0.0
 11
508.00000250339508
 21
288.99999558925629
 31
0.0
  0
LINE
  5
15A6
  8
0
 10
492.68911898136139
 20
289.49999660253519
 30
0.0
 11
492.78912067413341
 21
289.99999761581421
 31
0.0
  0
LINE
  5
15A7
  8
0
 10
489.29999887943268
 20
101.00000202655789
 30
0.0
 11
489.29999887943268
 21
100.0
 31
0.0
  0
LINE
  5
15A8
  8
0
 10
490.30000090599071
 20
101.00000202655789
 30
0.0
 11
490.30000090599071
 21
100.0
 31
0.0
  0
LINE
  5
15AA
  8
0
 10
488.30000430345541
 20
101.00000202655789
 30
0.0
 11
488.30000430345541
 21
100.0
 31
0.0
  0
LINE
  5
15AE
  8
0
 10
489.29999887943268
 20
288.99999558925629
 30
0.0
 11
489.29999887943268
 21
289.99999761581421
 31
0.0
  0
LINE
  5
15AF
  8
0
 10
488.30000430345541
 20
288.99999558925629
 30
0.0
 11
488.30000430345541
 21
289.99999761581421
 31
0.0
  0
LINE
  5
15B1
  8
0
 10
490.30000090599071
 20
288.99999558925629
 30
0.0
 11
490.30000090599071
 21
289.99999761581421
 31
0.0
  0
CIRCLE
  5
15B3
  8
0
 10
485.00000097751621
 20
146.99999880790699
 30
0.0
 40
3.0000000000000071
  0
LINE
  5
15B8
  8
0
 10
601.41088339034457
 20
101.00000202655789
 30
0.0
 11
608.18911835551262
 21
101.00000202655789
 31
0.0
  0
LINE
  5
15B9
  8
0
 10
601.41088339034457
 20
101.00000202655789
 30
0.0
 11
601.41088339034457
 21
100.5000010132789
 31
0.0
  0
LINE
  5
15BD
  8
0
 10
601.41088339034457
 20
288.99999558925629
 30
0.0
 11
601.41088339034457
 21
289.49999660253519
 31
0.0
  0
LINE
  5
15BE
  8
0
 10
601.41088339034457
 20
288.99999558925629
 30
0.0
 11
608.18911835551262
 21
288.99999558925629
 31
0.0
  0
LINE
  5
15BF
  8
0
 10
608.18911835551262
 20
288.99999558925629
 30
0.0
 11
608.18911835551262
 21
289.49999660253519
 31
0.0
  0
LINE
  5
15C7
  8
0
 10
608.18911835551262
 20
101.00000202655789
 30
0.0
 11
608.18911835551262
 21
100.5000010132789
 31
0.0
  0
CIRCLE
  5
15D0
  8
0
 10
602.10000097751606
 20
194.9999988079071
 30
0.0
 40
4.2000000000000171
  0
LINE
  5
15D2
  8
0
 10
691.10000252723694
 20
288.99999558925629
 30
0.0
 11
691.10000252723694
 21
101.00000202655789
 31
0.0
  0
LINE
  5
15D3
  8
0
 10
691.10000252723694
 20
101.00000202655789
 30
0.0
 11
690.10000050067924
 21
99.999999999999886
 31
0.0
  0
LINE
  5
15D6
  8
0
 10
601.3108834438026
 20
100.0
 30
0.0
 11
601.41088339034457
 21
100.5000010132789
 31
0.0
  0
LINE
  5
15D8
  8
0
 10
690.10000050067902
 20
100.0
 30
0.0
 11
594.10000059753668
 21
99.999999999999886
 31
0.0
  0
LINE
  5
15D9
  8
0
 10
608.18911835551262
 20
100.5000010132789
 30
0.0
 11
608.28911865130056
 21
100.0
 31
0.0
  0
LINE
  5
15DB
  8
0
 10
593.10000136494625
 20
101.00000202655789
 30
0.0
 11
593.10000136494625
 21
288.99999558925629
 31
0.0
  0
LINE
  5
15DD
  8
0
 10
594.10000059753645
 20
100.0
 30
0.0
 11
593.10000136494625
 21
101.00000202655789
 31
0.0
  0
ARC
  5
15DF
  8
0
 10
605.10000097751617
 20
131.99999880790699
 30
0.0
 40
6.25
 50
286.26026130121642
 51
253.7397952916871
  0
ARC
  5
15E1
  8
0
 10
679.10000097751606
 20
131.99999880790699
 30
0.0
 40
6.25
 50
286.26026130121528
 51
253.7397952916871
  0
LINE
  5
15E4
  8
0
 10
617.10000064224005
 20
184.99999903142449
 30
0.0
 11
691.10000252723694
 21
184.99999903142461
 31
0.0
  0
CIRCLE
  5
15E8
  8
0
 10
602.10000097751606
 20
194.9999988079071
 30
0.0
 40
3.9000000000000048
  0
LINE
  5
15E9
  8
0
 10
691.10000252723694
 20
204.9999985843898
 30
0.0
 11
617.10000064224005
 21
204.99999858438969
 31
0.0
  0
ARC
  5
15F0
  8
0
 10
605.10000097751617
 20
257.9999988079071
 30
0.0
 40
6.2499999999999938
 50
106.2602047083078
 51
73.739795291691337
  0
ARC
  5
15F1
  8
0
 10
679.10000097751606
 20
257.9999988079071
 30
0.0
 40
6.2499999999999938
 50
106.26020470830861
 51
73.739795291691337
  0
LINE
  5
15F2
  8
0
 10
608.28911865130056
 20
289.99999761581421
 30
0.0
 11
690.10000050067902
 21
289.99999761581421
 31
0.0
  0
LINE
  5
15F3
  8
0
 10
690.10000050067902
 20
289.99999761581421
 30
0.0
 11
691.10000252723694
 21
288.99999558925629
 31
0.0
  0
LINE
  5
15F4
  8
0
 10
608.18911835551262
 20
289.49999660253519
 30
0.0
 11
608.28911865130056
 21
289.99999761581421
 31
0.0
  0
LINE
  5
15F5
  8
0
 10
594.10000059753645
 20
289.99999761581421
 30
0.0
 11
601.3108834438026
 21
289.99999761581421
 31
0.0
  0
LINE
  5
15F6
  8
0
 10
601.3108834438026
 20
289.99999761581421
 30
0.0
 11
601.41088339034457
 21
289.49999660253519
 31
0.0
  0
LINE
  5
15F7
  8
0
 10
593.10000136494625
 20
288.99999558925629
 30
0.0
 11
594.10000059753645
 21
289.99999761581421
 31
0.0
  0
LINE
  5
15F8
  8
0
 10
604.80000104755163
 20
101.00000202655789
 30
0.0
 11
604.80000104755163
 21
100.0
 31
0.0
  0
LINE
  5
15F9
  8
0
 10
605.80000097863365
 20
101.00000202655789
 30
0.0
 11
605.80000097863365
 21
100.0
 31
0.0
  0
LINE
  5
15FB
  8
0
 10
603.80000100005407
 20
101.00000202655789
 30
0.0
 11
603.80000100005407
 21
100.0
 31
0.0
  0
CIRCLE
  5
15FD
  8
0
 10
633.10000097751606
 20
194.9999988079071
 30
0.0
 40
3.9000000000000048
  0
ARC
  5
15FE
  8
0
 10
657.10000097751606
 20
194.9999988079071
 30
0.0
 40
3.9000000000000061
 50
130.0450270788487
 51
229.9549729211503
  0
LINE
  5
1602
  8
0
 10
605.80000097863365
 20
288.99999558925629
 30
0.0
 11
605.80000097863365
 21
289.99999761581421
 31
0.0
  0
LINE
  5
1603
  8
0
 10
604.80000104755163
 20
288.99999558925629
 30
0.0
 11
604.80000104755163
 21
289.99999761581421
 31
0.0
  0
LINE
  5
1604
  8
0
 10
604.80000104755163
 20
289.99999761581421
 30
0.0
 11
605.80000097863365
 21
289.99999761581421
 31
0.0
  0
LINE
  5
1605
  8
0
 10
603.80000100005407
 20
288.99999558925629
 30
0.0
 11
603.80000100005407
 21
289.99999761581421
 31
0.0
  0
LINE
  5
1606
  8
0
 10
603.80000100005407
 20
289.99999761581421
 30
0.0
 11
604.80000104755163
 21
289.99999761581421
 31
0.0
  0
LINE
  5
1609
  8
0
 10
603.80000100005407
 20
289.99999761581421
 30
0.0
 11
601.3108834438026
 21
289.99999761581421
 31
0.0
  0
LINE
  5
160A
  8
0
 10
608.28911865130056
 20
289.99999761581421
 30
0.0
 11
605.80000097863365
 21
289.99999761581421
 31
0.0
  0
ARC
  5
160B
  8
0
 10
602.10000097751606
 20
194.99999880790699
 30
0.0
 40
3.7320508076297809
 50
266.53982103031223
 51
93.460178969686112
  0
ARC
  5
160C
  8
0
 10
602.10000097751606
 20
194.99999880790699
 30
0.0
 40
2.6500000000000119
 50
280.87571649462848
 51
79.124283505372347
  0
ARC
  5
160D
  8
0
 10
602.10000097751606
 20
194.99999880790699
 30
0.0
 40
2.0670000000109039
 50
283.99849852826588
 51
76.001501471734898
  0
ARC
  5
160E
  8
0
 10
657.10000097751606
 20
194.99999880790699
 30
0.0
 40
3.7320508076297729
 50
130.607765054114
 51
229.39223494588339
  0
ARC
  5
1610
  8
0
 10
657.10000097751606
 20
194.99999880790699
 30
0.0
 40
2.649999999999971
 50
138.9183234115965
 51
221.08167658840361
  0
ARC
  5
1611
  8
0
 10
657.10000097751606
 20
194.99999880790699
 30
0.0
 40
2.0670000000109172
 50
152.0337702905716
 51
207.96622970942829
  0
LINE
  5
161B
  8
0
 10
483.00000399351131
 20
241.64529740810389
 30
0.0
 11
483.00000399351131
 21
243.95469799637789
 31
0.0
  0
LINE
  5
161D
  8
0
 10
487.00000464916229
 20
243.95469799637789
 30
0.0
 11
487.00000464916229
 21
241.64529740810389
 31
0.0
  0
CIRCLE
  5
161E
  8
0
 10
485.00000097751621
 20
242.79999880790689
 30
0.0
 40
3.2329999999661392
  0
LINE
  5
16C5
  8
0
 10
583.6000007390976
 20
189.4999988377094
 30
0.0
 11
583.6000007390976
 21
200.49999831244349
 31
0.0
  0
LINE
  5
16C6
  8
0
 10
602.6000010012649
 20
197.99999883398411
 30
0.0
 11
602.6000010012649
 21
191.99999878182999
 31
0.0
  0
LINE
  5
16C7
  8
0
 10
601.60000095376745
 20
191.13218286074689
 30
0.0
 11
601.60000095376745
 21
198.8678147550672
 31
0.0
  0
LINE
  5
16C8
  8
0
 10
517.49999940395355
 20
200.49999877810481
 30
0.0
 11
517.49999940395355
 21
189.49999930337071
 31
0.0
  0
LINE
  5
16CA
  8
0
 10
533.50000202655792
 20
181.19999896734919
 30
0.0
 11
533.50000202655792
 21
208.79999864846431
 31
0.0
  0
LINE
  5
16CB
  8
0
 10
534.00000303983688
 20
208.2999985665079
 30
0.0
 11
534.00000303983688
 21
181.69999904930549
 31
0.0
  0
LINE
  5
16CC
  8
0
 10
610.93095250427723
 20
255.7499989867207
 30
0.0
 11
602.20024164911592
 21
255.7499989867207
 31
0.0
  0
LINE
  5
16CD
  8
0
 10
603.70018929708749
 20
257.24999830126728
 30
0.0
 11
611.30483753979195
 21
257.24999830126728
 31
0.0
  0
LINE
  5
16CE
  8
0
 10
611.30483753979195
 20
132.74999931454619
 30
0.0
 11
603.7000512285158
 21
132.74999931454619
 31
0.0
  0
LINE
  5
16CF
  8
0
 10
602.2000652216957
 20
134.2499986290928
 30
0.0
 11
610.93095250427723
 21
134.2499986290928
 31
0.0
  0
ARC
  5
16D0
  8
0
 10
482.01127053775042
 20
154.43294697042509
 30
0.0
 40
8.6049892694207433
 50
271.80590392429332
 51
300.25458170277182
  0
LINE
  5
16D1
  8
0
 10
487.37640798091888
 20
146.99999839067419
 30
0.0
 11
487.9787766579754
 21
146.6437749379815
 31
0.0
  0
LINE
  5
16D2
  8
0
 10
482.27281987667089
 20
145.74999958276709
 30
0.0
 11
487.72718131542211
 21
145.74999958276709
 31
0.0
  0
LINE
  5
16D3
  8
0
 10
534.90000337362289
 20
186.9999984279271
 30
0.0
 11
534.90000337362289
 21
202.9999991878864
 31
0.0
  0
LINE
  5
16D4
  8
0
 10
536.63205474615086
 20
185.9999991953369
 30
0.0
 11
536.63205474615086
 21
203.9999984204766
 31
0.0
  0
LINE
  5
16D6
  8
0
 10
530.00000238418579
 20
211.4999987184998
 30
0.0
 11
530.00000238418579
 21
178.49999889731379
 31
0.0
  0
LINE
  5
16D7
  8
0
 10
529.50000137090683
 20
177.9999978840348
 30
0.0
 11
529.50000137090683
 21
211.9999997317787
 31
0.0
  0
POLYLINE
  5
16D9
  8
0
 66
     1
 10
0.0
 20
0.0
 30
0.0
 70
   128
  0
VERTEX
  5
32AA
  8
0
 10
519.56604540348053
 20
178.8378491997716
 30
0.0
  0
VERTEX
  5
32AB
  8
0
 10
520.25877803564072
 20
178.7400528788564
 30
0.0
  0
VERTEX
  5
32AC
  8
0
 10
520.77389627695084
 20
178.59674468636479
 30
0.0
  0
VERTEX
  5
32AD
  8
0
 10
521.07816308736801
 20
178.43853533267949
 30
0.0
  0
VERTEX
  5
32AE
  8
0
 10
521.14408582448959
 20
178.29600758850549
 30
0.0
  0
VERTEX
  5
32AF
  8
0
 10
520.97969621419895
 20
178.1856328248974
 30
0.0
  0
VERTEX
  5
32B0
  8
0
 10
520.60723423957825
 20
178.1104210764166
 30
0.0
  0
VERTEX
  5
32B1
  8
0
 10
520.05611479282379
 20
178.0664011836048
 30
0.0
  0
VERTEX
  5
32B2
  8
0
 10
519.56604540348053
 20
178.05008813738789
 30
0.0
  0
SEQEND
  5
32B3
  8
0
  0
POLYLINE
  5
16DA
  8
0
 66
     1
 10
0.0
 20
0.0
 30
0.0
 70
   128
  0
VERTEX
  5
32B4
  8
0
 10
518.43395203351974
 20
178.8378491997716
 30
0.0
  0
VERTEX
  5
32B5
  8
0
 10
519.13048446178425
 20
178.8610149174925
 30
0.0
  0
VERTEX
  5
32B6
  8
0
 10
519.56604540348053
 20
178.8378491997716
 30
0.0
  0
SEQEND
  5
32B7
  8
0
  0
POLYLINE
  5
16DB
  8
0
 66
     1
 10
0.0
 20
0.0
 30
0.0
 70
   128
  0
VERTEX
  5
32B8
  8
0
 10
518.43395203351974
 20
178.05008813738789
 30
0.0
  0
VERTEX
  5
32B9
  8
0
 10
517.74122685194016
 20
178.07810977101289
 30
0.0
  0
VERTEX
  5
32BA
  8
0
 10
517.22610861063004
 20
178.1354159116741
 30
0.0
  0
VERTEX
  5
32BB
  8
0
 10
516.92183434963215
 20
178.2292615622278
 30
0.0
  0
VERTEX
  5
32BC
  8
0
 10
516.85591906309116
 20
178.356524929404
 30
0.0
  0
VERTEX
  5
32BD
  8
0
 10
517.02030122280121
 20
178.50408926606141
 30
0.0
  0
VERTEX
  5
32BE
  8
0
 10
517.39276319742203
 20
178.65273207426051
 30
0.0
  0
VERTEX
  5
32BF
  8
0
 10
517.94389009475697
 20
178.7776373326775
 30
0.0
  0
VERTEX
  5
32C0
  8
0
 10
518.43395203351974
 20
178.8378491997716
 30
0.0
  0
SEQEND
  5
32C1
  8
0
  0
POLYLINE
  5
16DC
  8
0
 66
     1
 10
0.0
 20
0.0
 30
0.0
 70
   128
  0
VERTEX
  5
32C2
  8
0
 10
519.56604540348053
 20
178.05008813738789
 30
0.0
  0
VERTEX
  5
32C3
  8
0
 10
518.86952042579651
 20
178.04455794393979
 30
0.0
  0
VERTEX
  5
32C4
  8
0
 10
518.43395203351974
 20
178.05008813738789
 30
0.0
  0
SEQEND
  5
32C5
  8
0
  0
ARC
  5
16DD
  8
0
 10
519.10167357259752
 20
198.28759450465401
 30
0.0
 40
2.037177245184401
 50
283.17633102918461
 51
76.823668970815447
  0
POLYLINE
  5
16DE
  8
0
 66
     1
 10
0.0
 20
0.0
 30
0.0
 70
   128
  0
VERTEX
  5
32C6
  8
0
 10
518.43395203351974
 20
200.27113929390879
 30
0.0
  0
VERTEX
  5
32C7
  8
0
 10
519.13048446178425
 20
200.34164600074271
 30
0.0
  0
VERTEX
  5
32C8
  8
0
 10
519.56604540348053
 20
200.27113929390879
 30
0.0
  0
SEQEND
  5
32C9
  8
0
  0
POLYLINE
  5
16DF
  8
0
 66
     1
 10
0.0
 20
0.0
 30
0.0
 70
   128
  0
VERTEX
  5
32CA
  8
0
 10
518.43395203351974
 20
196.30404971539949
 30
0.0
  0
VERTEX
  5
32CB
  8
0
 10
517.74122685194016
 20
196.62777918856571
 30
0.0
  0
VERTEX
  5
32CC
  8
0
 10
517.49999940395355
 20
196.86832746956469
 30
0.0
  0
SEQEND
  5
32CD
  8
0
  0
POLYLINE
  5
16E0
  8
0
 66
     1
 10
0.0
 20
0.0
 30
0.0
 70
   128
  0
VERTEX
  5
32CE
  8
0
 10
517.49999940395355
 20
199.74669711664291
 30
0.0
  0
VERTEX
  5
32CF
  8
0
 10
517.94389009475697
 20
200.0828137621281
 30
0.0
  0
VERTEX
  5
32D0
  8
0
 10
518.43395203351974
 20
200.27113929390879
 30
0.0
  0
SEQEND
  5
32D1
  8
0
  0
POLYLINE
  5
16E1
  8
0
 66
     1
 10
0.0
 20
0.0
 30
0.0
 70
   128
  0
VERTEX
  5
32D2
  8
0
 10
519.56604540348053
 20
196.30404971539949
 30
0.0
  0
VERTEX
  5
32D3
  8
0
 10
518.86952042579651
 20
196.23004135210039
 30
0.0
  0
VERTEX
  5
32D4
  8
0
 10
518.43395203351974
 20
196.30404971539949
 30
0.0
  0
SEQEND
  5
32D5
  8
0
  0
ARC
  5
16E5
  8
0
 10
518.99567433467314
 20
197.9265825848592
 30
0.0
 40
2.1078248142216949
 50
5.5086540926658687
 51
135.20093066141879
  0
LINE
  5
16E8
  8
0
 10
590.10000087320805
 20
145.74999958276709
 30
0.0
 11
590.10000087320805
 21
146.99999839067411
 31
0.0
  0
LINE
  5
16E9
  8
0
 10
590.60000095516443
 20
145.24999856948801
 30
0.0
 11
590.60000095516443
 21
146.99999839067411
 31
0.0
  0
LINE
  5
16EA
  8
0
 10
590.10000087320805
 20
242.99999922513931
 30
0.0
 11
590.10000087320805
 21
244.2499980330463
 31
0.0
  0
LINE
  5
16EB
  8
0
 10
590.60000095516443
 20
242.99999922513931
 30
0.0
 11
590.60000095516443
 21
244.74999904632531
 31
0.0
  0
LINE
  5
16EC
  8
0
 10
486.00000262260448
 20
149.8284250497814
 30
0.0
 11
486.00000262260448
 21
146.99999839067419
 31
0.0
  0
LINE
  5
16EE
  8
0
 10
483.9999985694887
 20
149.8284250497814
 30
0.0
 11
483.9999985694887
 21
146.99999839067419
 31
0.0
  0
LINE
  5
16F0
  8
0
 10
482.00000196695339
 20
146.99999839067419
 30
0.0
 11
488.00000097751609
 21
146.99999839067419
 31
0.0
  0
LINE
  5
16F1
  8
0
 10
584.60000090301025
 20
201.4999989420175
 30
0.0
 11
584.60000090301025
 21
188.4999986737966
 31
0.0
  0
LINE
  5
16F2
  8
0
 10
516.49999737739563
 20
188.4999986737966
 30
0.0
 11
516.49999737739563
 21
201.4999989420175
 31
0.0
  0
LINE
  5
16F3
  8
0
 10
486.98431372642523
 20
144.74999755620919
 30
0.0
 11
483.01568746566778
 21
144.74999755620919
 31
0.0
  0
LINE
  5
16F4
  8
0
 10
589.85857971012592
 20
146.8585789203639
 30
0.0
 11
589.85857971012592
 21
146.99999839067411
 31
0.0
  0
LINE
  5
16F5
  8
0
 10
589.85857971012592
 20
242.99999922513931
 30
0.0
 11
589.85857971012592
 21
243.14141869544949
 31
0.0
  0
LINE
  5
16F8
  8
0
 10
281.0000017285347
 20
426.99999760836363
 30
0.0
 11
281.0000017285347
 21
432.99999766051769
 31
0.0
  0
LINE
  5
16F9
  8
0
 10
268.99999976158142
 20
432.99999766051769
 30
0.0
 11
268.99999976158142
 21
426.99999760836363
 31
0.0
  0
LINE
  5
16FA
  8
0
 10
269.07349973917007
 20
410.99999777972698
 30
0.0
 11
270.073501765728
 21
409.99999761581421
 31
0.0
  0
LINE
  5
16FB
  8
0
 10
279.92649972438812
 20
409.99999761581421
 30
0.0
 11
280.92650175094599
 21
410.99999777972698
 31
0.0
  0
LINE
  5
16FC
  8
0
 10
124.49999749660491
 20
469.99999813735479
 30
0.0
 11
124.49999749660491
 21
477.99999944865709
 31
0.0
  0
LINE
  5
16FD
  8
0
 10
105.49999624490729
 20
477.99999944865709
 30
0.0
 11
105.49999624490729
 21
469.99999813735479
 31
0.0
  0
LINE
  5
16FE
  8
0
 10
120.9999978542327
 20
426.99999760836363
 30
0.0
 11
120.9999978542327
 21
432.99999766051769
 31
0.0
  0
LINE
  5
16FF
  8
0
 10
108.9999958872794
 20
432.99999766051769
 30
0.0
 11
108.9999958872794
 21
426.99999760836363
 31
0.0
  0
LINE
  5
1700
  8
0
 10
109.07349586486809
 20
410.99999777972698
 30
0.0
 11
110.073497891426
 21
409.99999761581421
 31
0.0
  0
LINE
  5
1701
  8
0
 10
119.9264958500862
 20
409.99999761581421
 30
0.0
 11
120.92649787664411
 21
410.99999777972698
 31
0.0
  0
LINE
  5
1704
  8
0
 10
123.9999964833259
 20
468.99999611079693
 30
0.0
 11
123.9999964833259
 21
469.99999813735479
 31
0.0
  0
LINE
  5
1705
  8
0
 10
105.9999972581863
 20
469.99999813735479
 30
0.0
 11
105.9999972581863
 21
468.99999611079693
 31
0.0
  0
LINE
  5
1706
  8
0
 10
245.79999819397909
 20
482.30384595692152
 30
0.0
 11
242.99999922513939
 21
487.15358905494219
 31
0.0
  0
LINE
  5
1707
  8
0
 10
245.79999819397909
 20
468.99999611079693
 30
0.0
 11
245.79999819397909
 21
482.30384595692152
 31
0.0
  0
LINE
  5
1708
  8
0
 10
239.7999972105024
 20
481.99999637901777
 30
0.0
 11
239.7999972105024
 21
479.99999605119228
 31
0.0
  0
LINE
  5
1709
  8
0
 10
246.79685980081501
 20
497.07720361650001
 30
0.0
 11
248.24999868869719
 21
498.53034250438219
 31
0.0
  0
LINE
  5
170A
  8
0
 10
248.24999868869719
 20
517.46965132653713
 30
0.0
 11
246.79685980081501
 21
518.92279021441925
 31
0.0
  0
ARC
  5
170B
  8
0
 10
249.24999880790651
 20
515.89999766051767
 30
0.0
 40
1.000000000000085
 50
180.0
 51
270.0000000000008
  0
ARC
  5
170C
  8
0
 10
249.24999880790651
 20
500.09999766051777
 30
0.0
 40
1.000000000000014
 50
90.0
 51
180.0
  0
LINE
  5
170F
  8
0
 10
255.74999898672041
 20
501.09999559819698
 30
0.0
 11
257.249998301267
 21
502.59999863803392
 31
0.0
  0
LINE
  5
1710
  8
0
 10
257.249998301267
 20
513.3999951928854
 30
0.0
 11
255.74999898672041
 21
514.89999823272228
 31
0.0
  0
LINE
  5
1711
  8
0
 10
143.22525858879021
 20
518.94491098821163
 30
0.0
 11
141.74999892711571
 21
517.46965132653713
 31
0.0
  0
LINE
  5
1712
  8
0
 10
141.74999892711571
 20
498.53034250438219
 30
0.0
 11
143.22525858879021
 21
497.05508284270758
 31
0.0
  0
ARC
  5
1713
  8
0
 10
140.74999880790639
 20
500.09999766051777
 30
0.0
 40
1.000000000000014
 50
0.0
 51
90.0
  0
ARC
  5
1714
  8
0
 10
140.74999880790639
 20
515.89999766051767
 30
0.0
 40
1.000000000000085
 50
270.0000000000008
 51
0.0
  0
LINE
  5
1715
  8
0
 10
134.24999862909249
 20
514.89999823272228
 30
0.0
 11
132.7499993145459
 21
513.3999951928854
 31
0.0
  0
LINE
  5
1716
  8
0
 10
132.7499993145459
 20
502.59999863803392
 30
0.0
 11
134.24999862909249
 21
501.09999559819698
 31
0.0
  0
LINE
  5
1719
  8
0
 10
146.10161855816821
 20
517.82127402722836
 30
0.0
 11
145.74999958276729
 21
517.46965132653713
 31
0.0
  0
LINE
  5
171A
  8
0
 10
145.74999958276729
 20
498.53034250438219
 30
0.0
 11
146.10161855816821
 21
498.17871980369102
 31
0.0
  0
ARC
  5
171B
  8
0
 10
144.74999880790671
 20
500.09999766051777
 30
0.0
 40
1.000000000000014
 50
0.0000000000081422
 51
90.0
  0
ARC
  5
171C
  8
0
 10
144.74999880790671
 20
515.89999766051767
 30
0.0
 40
1.000000000000014
 50
270.0000000000008
 51
0.0000000000081422
  0
LINE
  5
171D
  8
0
 10
144.74999755620931
 20
514.89999823272228
 30
0.0
 11
134.24999862909249
 21
514.89999823272228
 31
0.0
  0
LINE
  5
171E
  8
0
 10
134.24999862909249
 20
501.09999559819698
 30
0.0
 11
144.74999755620931
 21
501.09999559819698
 31
0.0
  0
LINE
  5
171F
  8
0
 10
138.24999928474401
 20
514.89999823272228
 30
0.0
 11
136.74999997019739
 21
513.3999951928854
 31
0.0
  0
LINE
  5
1720
  8
0
 10
136.74999997019739
 20
502.59999863803392
 30
0.0
 11
138.24999928474401
 21
501.09999559819698
 31
0.0
  0
LINE
  5
1721
  8
0
 10
179.46326769888381
 20
514.89999823272228
 30
0.0
 11
178.9177101105449
 21
514.89999823272228
 31
0.0
  0
LINE
  5
1722
  8
0
 10
178.9177101105449
 20
501.09999559819698
 30
0.0
 11
179.46326769888381
 21
501.09999559819698
 31
0.0
  0
LINE
  5
1723
  8
0
 10
243.0689953267572
 20
497.3493360728026
 30
0.0
 11
244.2499980330465
 21
498.53034250438219
 31
0.0
  0
LINE
  5
1724
  8
0
 10
244.2499980330465
 20
517.46965132653713
 30
0.0
 11
243.0689953267572
 21
518.65065775811672
 31
0.0
  0
ARC
  5
1725
  8
0
 10
245.24999880790671
 20
515.89999766051767
 30
0.0
 40
1.000000000000014
 50
180.0
 51
270.0000000000008
  0
ARC
  5
1726
  8
0
 10
245.24999880790671
 20
500.09999766051777
 30
0.0
 40
0.9999999999999431
 50
90.0
 51
180.0
  0
LINE
  5
1727
  8
0
 10
210.53672991693
 20
501.09999559819698
 30
0.0
 11
211.08228750526891
 21
501.09999559819698
 31
0.0
  0
LINE
  5
1728
  8
0
 10
211.08228750526891
 20
514.89999823272228
 30
0.0
 11
210.53672991693
 21
514.89999823272228
 31
0.0
  0
LINE
  5
1729
  8
0
 10
245.2500000596045
 20
501.09999559819698
 30
0.0
 11
255.74999898672041
 21
501.09999559819698
 31
0.0
  0
LINE
  5
172A
  8
0
 10
255.7499989867205
 20
514.89999823272228
 30
0.0
 11
245.2500000596045
 21
514.89999823272228
 31
0.0
  0
LINE
  5
172B
  8
0
 10
251.7499983310698
 20
501.09999559819698
 30
0.0
 11
253.2499976456163
 21
502.59999863803392
 31
0.0
  0
LINE
  5
172C
  8
0
 10
253.2499976456163
 20
513.3999951928854
 30
0.0
 11
251.7499983310698
 21
514.89999823272228
 31
0.0
  0
ARC
  5
172D
  8
0
 10
187.99999880790659
 20
480.99999766051781
 30
0.0
 40
0.9999999999999431
 50
90.0
 51
180.0
  0
ARC
  5
172E
  8
0
 10
201.99999880790671
 20
480.99999766051781
 30
0.0
 40
0.9999999999999431
 50
0.0
 51
90.0
  0
LINE
  5
172F
  8
0
 10
186.99999842792721
 20
479.99999605119228
 30
0.0
 11
186.99999842792721
 21
480.99999807775021
 31
0.0
  0
LINE
  5
1730
  8
0
 10
202.9999991878864
 20
480.99999807775021
 30
0.0
 11
202.9999991878864
 21
479.99999605119228
 31
0.0
  0
LINE
  5
1731
  8
0
 10
201.69999860227111
 20
428.99999747052789
 30
0.0
 11
188.2999990135431
 21
428.99999747052789
 31
0.0
  0
LINE
  5
1732
  8
0
 10
188.2999990135431
 20
428.99999747052789
 30
0.0
 11
187.9999985918403
 21
429.29999765940011
 31
0.0
  0
LINE
  5
1733
  8
0
 10
187.9999985918403
 20
433.59999768901622
 30
0.0
 11
187.5999988056719
 21
433.9999977080152
 31
0.0
  0
LINE
  5
1734
  8
0
 10
184.99999903142461
 20
438.69999775663018
 30
0.0
 11
185.29999852180481
 21
438.99999771267181
 31
0.0
  0
LINE
  5
1735
  8
0
 10
204.6999990940094
 20
438.99999771267181
 30
0.0
 11
204.99999858438969
 21
438.69999775663018
 31
0.0
  0
LINE
  5
1736
  8
0
 10
204.99999858438969
 20
438.99999771267181
 30
0.0
 11
204.99999858438969
 21
433.29999767476698
 31
0.0
  0
LINE
  5
1737
  8
0
 10
204.99999858438969
 20
434.29999766405678
 30
0.0
 11
204.6999990940094
 21
433.9999977080152
 31
0.0
  0
LINE
  5
1738
  8
0
 10
204.6999990940094
 20
433.9999977080152
 30
0.0
 11
202.39999881014231
 21
433.9999977080152
 31
0.0
  0
LINE
  5
1739
  8
0
 10
202.39999881014231
 20
433.9999977080152
 30
0.0
 11
201.99999902397391
 21
433.59999768901622
 31
0.0
  0
LINE
  5
173A
  8
0
 10
201.99999902397391
 20
433.59999768901622
 30
0.0
 11
201.99999902397391
 21
429.29999765940011
 31
0.0
  0
LINE
  5
173B
  8
0
 10
201.99999902397391
 20
429.29999765940011
 30
0.0
 11
201.69999860227111
 21
428.99999747052789
 31
0.0
  0
LINE
  5
173C
  8
0
 10
184.99999903142461
 20
438.99999771267181
 30
0.0
 11
204.99999858438969
 21
438.99999771267181
 31
0.0
  0
LINE
  5
173D
  8
0
 10
187.5999988056719
 20
433.9999977080152
 30
0.0
 11
185.29999852180481
 21
433.9999977080152
 31
0.0
  0
LINE
  5
173E
  8
0
 10
185.29999852180481
 20
433.9999977080152
 30
0.0
 11
184.99999903142461
 21
434.29999766405678
 31
0.0
  0
LINE
  5
173F
  8
0
 10
187.9999985918403
 20
429.29999765940011
 30
0.0
 11
187.9999985918403
 21
433.59999768901622
 31
0.0
  0
LINE
  5
1740
  8
0
 10
184.99999903142461
 20
433.29999748850298
 30
0.0
 11
184.99999903142461
 21
438.99999771267193
 31
0.0
  0
ARC
  5
1741
  8
0
 10
122.399998807907
 20
419.39999766051761
 30
0.0
 40
0.3999999999999559
 50
180.0
 51
270.0000000000008
  0
LINE
  5
1742
  8
0
 10
122.3999992012977
 20
418.99999722838402
 30
0.0
 11
126.0000005364419
 21
418.99999722838402
 31
0.0
  0
LINE
  5
1743
  8
0
 10
126.0000005364419
 20
418.99999722838402
 30
0.0
 11
126.0000005364419
 21
413.49999725818628
 31
0.0
  0
LINE
  5
1744
  8
0
 10
126.0000005364419
 20
413.49999725818628
 30
0.0
 11
123.4999954700471
 21
410.99999777972698
 31
0.0
  0
LINE
  5
1745
  8
0
 10
123.4999954700471
 20
410.99999777972698
 30
0.0
 11
106.4999982714653
 21
410.99999777972698
 31
0.0
  0
LINE
  5
1746
  8
0
 10
106.4999982714653
 20
410.99999777972698
 30
0.0
 11
104.00000065565121
 21
413.49999725818628
 31
0.0
  0
LINE
  5
1747
  8
0
 10
104.00000065565121
 20
413.49999725818628
 30
0.0
 11
104.00000065565121
 21
418.99999722838402
 31
0.0
  0
LINE
  5
1748
  8
0
 10
104.00000065565121
 20
418.99999722838402
 30
0.0
 11
107.60000199079511
 21
418.99999722838402
 31
0.0
  0
ARC
  5
1749
  8
0
 10
107.5999988079069
 20
419.39999766051761
 30
0.0
 40
0.400000000000027
 50
270.0000000000008
 51
0.0
  0
LINE
  5
174A
  8
0
 10
108.0000013113022
 20
419.3999974802137
 30
0.0
 11
108.0000013113022
 21
426.99999760836363
 31
0.0
  0
LINE
  5
174B
  8
0
 10
108.0000013113022
 20
426.99999760836363
 30
0.0
 11
121.9999998807908
 21
426.99999760836363
 31
0.0
  0
LINE
  5
174C
  8
0
 10
121.9999998807908
 20
426.99999760836363
 30
0.0
 11
121.9999998807908
 21
419.3999974802137
 31
0.0
  0
ARC
  5
174D
  8
0
 10
282.3999988079072
 20
419.39999766051761
 30
0.0
 40
0.4000000000000626
 50
180.0
 51
270.0000000000008
  0
LINE
  5
174E
  8
0
 10
282.39999562501907
 20
418.99999722838402
 30
0.0
 11
285.99999696016312
 21
418.99999722838402
 31
0.0
  0
LINE
  5
174F
  8
0
 10
285.99999696016312
 20
418.99999722838402
 30
0.0
 11
285.99999696016312
 21
413.49999725818628
 31
0.0
  0
LINE
  5
1750
  8
0
 10
285.99999696016312
 20
413.49999725818628
 30
0.0
 11
283.49999934434891
 21
410.99999777972698
 31
0.0
  0
LINE
  5
1751
  8
0
 10
283.49999934434891
 20
410.99999777972698
 30
0.0
 11
266.50000214576721
 21
410.99999777972698
 31
0.0
  0
LINE
  5
1752
  8
0
 10
266.50000214576721
 20
410.99999777972698
 30
0.0
 11
263.99999707937241
 21
413.49999725818628
 31
0.0
  0
LINE
  5
1753
  8
0
 10
263.99999707937241
 20
413.49999725818628
 30
0.0
 11
263.99999707937241
 21
418.99999722838402
 31
0.0
  0
LINE
  5
1754
  8
0
 10
263.99999707937241
 20
418.99999722838402
 30
0.0
 11
267.59999841451639
 21
418.99999722838402
 31
0.0
  0
ARC
  5
1755
  8
0
 10
267.59999880790718
 20
419.39999766051761
 30
0.0
 40
0.3999999999999915
 50
270.0000000000008
 51
0.0
  0
LINE
  5
1756
  8
0
 10
267.9999977350235
 20
419.3999974802137
 30
0.0
 11
267.9999977350235
 21
426.99999760836363
 31
0.0
  0
LINE
  5
1757
  8
0
 10
267.9999977350235
 20
426.99999760836363
 30
0.0
 11
281.99999630451202
 21
426.99999760836363
 31
0.0
  0
LINE
  5
1758
  8
0
 10
281.99999630451202
 20
426.99999760836363
 30
0.0
 11
281.99999630451202
 21
419.3999974802137
 31
0.0
  0
LINE
  5
176A
  8
0
 10
270.073501765728
 20
409.99999761581421
 30
0.0
 11
279.92649972438812
 21
409.99999761581421
 31
0.0
  0
POLYLINE
  5
176B
  8
0
 66
     1
 10
0.0
 20
0.0
 30
0.0
 70
   128
  0
VERTEX
  5
32D6
  8
0
 10
105.49999624490739
 20
477.15149007737631
 30
0.0
  0
VERTEX
  5
32D7
  8
0
 10
107.82715529203411
 20
477.76710920035839
 30
0.0
  0
VERTEX
  5
32D8
  8
0
 10
110.2500021457672
 20
477.99999944865698
 30
0.0
  0
SEQEND
  5
32D9
  8
0
  0
POLYLINE
  5
176C
  8
0
 66
     1
 10
0.0
 20
0.0
 30
0.0
 70
   128
  0
VERTEX
  5
32DA
  8
0
 10
110.2500021457672
 20
477.99999944865698
 30
0.0
  0
VERTEX
  5
32DB
  8
0
 10
112.6250013709069
 20
477.77603499591351
 30
0.0
  0
VERTEX
  5
32DC
  8
0
 10
115.0000005960465
 20
477.15149007737631
 30
0.0
  0
SEQEND
  5
32DD
  8
0
  0
LINE
  5
176D
  8
0
 10
115.0000005960465
 20
477.15149007737631
 30
0.0
 11
115.0000005960465
 21
470.59999711811548
 31
0.0
  0
POLYLINE
  5
1771
  8
0
 66
     1
 10
0.0
 20
0.0
 30
0.0
 70
   128
  0
VERTEX
  5
32DE
  8
0
 10
119.7499990463257
 20
477.99999944865698
 30
0.0
  0
VERTEX
  5
32DF
  8
0
 10
122.1249982714653
 20
477.77603499591351
 30
0.0
  0
VERTEX
  5
32E0
  8
0
 10
124.499997496605
 20
477.15149007737631
 30
0.0
  0
SEQEND
  5
32E1
  8
0
  0
POLYLINE
  5
1774
  8
0
 66
     1
 10
0.0
 20
0.0
 30
0.0
 70
   128
  0
VERTEX
  5
32E2
  8
0
 10
115.0000005960465
 20
477.15149007737631
 30
0.0
  0
VERTEX
  5
32E3
  8
0
 10
117.3271596431732
 20
477.76710920035839
 30
0.0
  0
VERTEX
  5
32E4
  8
0
 10
119.7499990463257
 20
477.99999944865698
 30
0.0
  0
SEQEND
  5
32E5
  8
0
  0
LINE
  5
1775
  8
0
 10
124.49999749660481
 20
470.59999711811548
 30
0.0
 11
105.49999624490739
 21
470.59999711811548
 31
0.0
  0
LINE
  5
1777
  8
0
 10
124.49999749660491
 20
469.99999813735479
 30
0.0
 11
105.49999624490729
 21
469.99999813735479
 31
0.0
  0
LINE
  5
177B
  8
0
 10
124.49999749660491
 20
477.99999944865698
 30
0.0
 11
105.49999624490729
 21
477.99999944865698
 31
0.0
  0
LINE
  5
177C
  8
0
 10
110.073497891426
 20
409.99999761581421
 30
0.0
 11
119.9264958500862
 21
409.99999761581421
 31
0.0
  0
LINE
  5
177E
  8
0
 10
146.99999839067419
 20
532.99999915063381
 30
0.0
 11
146.99999839067419
 21
468.99999611079693
 31
0.0
  0
LINE
  5
177F
  8
0
 10
100.0
 20
433.49999768426648
 30
0.0
 11
100.0
 21
467.9999978095293
 31
0.0
  0
LINE
  5
1783
  8
0
 10
100.0
 20
433.49999768426648
 30
0.0
 11
100.500001013279
 21
432.99999766051769
 31
0.0
  0
LINE
  5
1784
  8
0
 10
100.0
 20
467.9999978095293
 30
0.0
 11
101.00000202655789
 21
468.99999611079693
 31
0.0
  0
CIRCLE
  5
178D
  8
0
 10
194.9999988079071
 20
448.99999766051769
 30
0.0
 40
4.2999999999999972
  0
LINE
  5
178E
  8
0
 10
101.00000202655789
 20
468.99999611079693
 30
0.0
 11
288.99999558925629
 21
468.99999611079693
 31
0.0
  0
LINE
  5
1791
  8
0
 10
184.99999903142461
 20
433.29999748850292
 30
0.0
 11
184.6999986097216
 21
432.99999766051769
 31
0.0
  0
LINE
  5
1792
  8
0
 10
187.99999859184021
 20
432.99999766051769
 30
0.0
 11
100.500001013279
 21
432.99999766051769
 31
0.0
  0
CIRCLE
  5
179A
  8
0
 10
194.9999988079071
 20
448.99999766051769
 30
0.0
 40
3.9999999999999849
  0
LINE
  5
179D
  8
0
 10
289.49999660253519
 20
432.99999766051769
 30
0.0
 11
201.99999902397391
 21
432.99999766051769
 31
0.0
  0
LINE
  5
179E
  8
0
 10
205.29999900609249
 20
432.99999766051769
 30
0.0
 11
204.99999858438969
 21
433.29999748850292
 31
0.0
  0
LINE
  5
17A2
  8
0
 10
288.99999558925629
 20
468.99999611079693
 30
0.0
 11
289.99999761581421
 21
467.9999978095293
 31
0.0
  0
LINE
  5
17A4
  8
0
 10
289.99999761581421
 20
467.9999978095293
 30
0.0
 11
289.99999761581421
 21
433.49999768426648
 31
0.0
  0
LINE
  5
17A5
  8
0
 10
289.49999660253519
 20
432.99999766051769
 30
0.0
 11
289.99999761581421
 21
433.49999768426648
 31
0.0
  0
CIRCLE
  5
17A6
  8
0
 10
194.9999988079071
 20
448.99999766051769
 30
0.0
 40
3.4000000000000341
  0
CIRCLE
  5
17AB
  8
0
 10
194.99999880790659
 20
507.99999766051769
 30
0.0
 40
8.2500000000000284
  0
ARC
  5
17AC
  8
0
 10
126.16264234262199
 20
469.80014598872049
 30
0.0
 40
21.228006623767861
 50
357.83983137602428
 51
9.2103336211382594
  0
LINE
  5
17AD
  8
0
 10
147.1169650554655
 20
473.19788418710237
 30
0.0
 11
146.99999839067439
 21
475.09016774594789
 31
0.0
  0
LINE
  5
17B1
  8
0
 10
242.99999922513939
 20
479.99999605119228
 30
0.0
 11
242.99999922513939
 21
475.09016774594789
 31
0.0
  0
LINE
  5
17B2
  8
0
 10
242.99999922513939
 20
475.09016774594789
 30
0.0
 11
242.8830325603484
 21
473.19788418710237
 31
0.0
  0
ARC
  5
17B3
  8
0
 10
263.86157353274922
 20
469.78306710313768
 30
0.0
 40
21.254650245243649
 50
170.75467011873471
 51
182.11138826687181
  0
LINE
  5
17B4
  8
0
 10
146.99999839067431
 20
479.99999605119228
 30
0.0
 11
242.99999922513939
 21
479.99999605119228
 31
0.0
  0
LINE
  5
17B5
  8
0
 10
245.79999819397909
 20
482.30384595692152
 30
0.0
 11
242.99999922513939
 21
482.30384595692152
 31
0.0
  0
ARC
  5
17B6
  8
0
 10
244.93245678751771
 20
499.7154757381233
 30
0.0
 40
3.2421192769996532
 50
304.09752640964172
 51
25.279959729265698
  0
LINE
  5
17B7
  8
0
 10
246.7499993741506
 20
497.03072689473629
 30
0.0
 11
242.99999922513891
 21
497.03072689473629
 31
0.0
  0
ARC
  5
17B8
  8
0
 10
245.12070218656839
 20
516.39175462145886
 30
0.0
 40
3.049291566580381
 50
330.71106114647159
 51
57.702199040290118
  0
LINE
  5
17B9
  8
0
 10
248.24999868869719
 20
514.89999823272228
 30
0.0
 11
248.24999868869719
 21
517.46965132653713
 31
0.0
  0
LINE
  5
17BA
  8
0
 10
248.24999868869719
 20
498.53034250438219
 30
0.0
 11
248.24999868869719
 21
501.09999559819698
 31
0.0
  0
LINE
  5
17BB
  8
0
 10
246.7499993741506
 20
518.96926693618286
 30
0.0
 11
242.99999922513891
 21
518.96926693618286
 31
0.0
  0
LINE
  5
17BD
  8
0
 10
255.74999898672041
 20
501.09999559819698
 30
0.0
 11
255.7499989867205
 21
514.89999823272228
 31
0.0
  0
LINE
  5
17BE
  8
0
 10
257.249998301267
 20
513.3999951928854
 30
0.0
 11
257.249998301267
 21
502.59999863803392
 31
0.0
  0
ARC
  5
17C0
  8
0
 10
144.95673566380259
 20
499.65182413505568
 30
0.0
 40
3.128032549769403
 50
152.42136162638241
 51
236.9325138016294
  0
ARC
  5
17C1
  8
0
 10
144.9849045677378
 20
516.33220955295315
 30
0.0
 40
3.156812458970812
 50
123.3378853875771
 51
206.9806185995219
  0
LINE
  5
17C2
  8
0
 10
141.74999892711571
 20
501.09999559819698
 30
0.0
 11
141.74999892711571
 21
498.53034250438219
 31
0.0
  0
LINE
  5
17C3
  8
0
 10
141.74999892711571
 20
517.46965132653713
 30
0.0
 11
141.74999892711571
 21
514.89999823272228
 31
0.0
  0
LINE
  5
17C4
  8
0
 10
143.2499982416623
 20
497.03044377267361
 30
0.0
 11
146.99999839067391
 21
497.03044377267361
 31
0.0
  0
LINE
  5
17C5
  8
0
 10
143.2499982416623
 20
518.96955005824555
 30
0.0
 11
146.99999839067391
 21
518.96955005824555
 31
0.0
  0
LINE
  5
17C7
  8
0
 10
132.7499993145459
 20
502.59999863803392
 30
0.0
 11
132.7499993145459
 21
513.39999519288551
 31
0.0
  0
LINE
  5
17C8
  8
0
 10
134.24999862909249
 20
514.89999823272228
 30
0.0
 11
134.24999862909249
 21
501.09999559819698
 31
0.0
  0
ARC
  5
17CA
  8
0
 10
155.8597389555469
 20
505.42817197740078
 30
0.0
 40
10.044912959971869
 50
151.8861126777179
 51
208.11388732228289
  0
POLYLINE
  5
17CB
  8
0
 66
     1
 10
0.0
 20
0.0
 30
0.0
 70
   128
  0
VERTEX
  5
32E6
  8
0
 10
146.99999839067439
 20
500.00967763364321
 30
0.0
  0
VERTEX
  5
32E7
  8
0
 10
146.30432277917839
 20
499.59196828305721
 30
0.0
  0
VERTEX
  5
32E8
  8
0
 10
145.80527916550619
 20
498.96868996322149
 30
0.0
  0
VERTEX
  5
32E9
  8
0
 10
145.84034532308559
 20
498.53204123675829
 30
0.0
  0
VERTEX
  5
32EA
  8
0
 10
146.19891941547371
 20
498.08958850801002
 30
0.0
  0
VERTEX
  5
32EB
  8
0
 10
146.99999839067439
 20
497.5910552591086
 30
0.0
  0
SEQEND
  5
32EC
  8
0
  0
POLYLINE
  5
17CC
  8
0
 66
     1
 10
0.0
 20
0.0
 30
0.0
 70
   128
  0
VERTEX
  5
32ED
  8
0
 10
146.1154617369173
 20
517.80743084847916
 30
0.0
  0
VERTEX
  5
32EE
  8
0
 10
146.19891941547371
 20
517.91041277348995
 30
0.0
  0
VERTEX
  5
32EF
  8
0
 10
146.99999839067439
 20
518.40893857181084
 30
0.0
  0
SEQEND
  5
32F0
  8
0
  0
ARC
  5
17CD
  8
0
 10
151.52012104285399
 20
514.65229250490665
 30
0.0
 40
5.7046961539756573
 50
142.4057777198783
 51
217.59422228012161
  0
LINE
  5
17CE
  8
0
 10
145.74999958276729
 20
517.46965132653725
 30
0.0
 11
145.74999958276729
 21
498.53034250438219
 31
0.0
  0
LINE
  5
17D0
  8
0
 10
138.24999928474401
 20
514.89999823272228
 30
0.0
 11
138.24999928474401
 21
501.09999559819698
 31
0.0
  0
LINE
  5
17D3
  8
0
 10
136.74999997019739
 20
502.59999863803392
 30
0.0
 11
136.74999997019739
 21
513.39999519288551
 31
0.0
  0
ARC
  5
17D4
  8
0
 10
240.49516738371261
 20
500.06493113934988
 30
0.0
 40
3.6698539814894122
 50
313.04265519154018
 51
46.957344808460121
  0
ARC
  5
17D5
  8
0
 10
233.45495658010611
 20
508.58152218163008
 30
0.0
 40
10.732119101406759
 50
332.79673218458902
 51
27.203267815412641
  0
ARC
  5
17D6
  8
0
 10
241.52091948981109
 20
516.48236866190234
 30
0.0
 40
2.6259407124456882
 50
304.28134815332788
 51
54.613989378614463
  0
LINE
  5
17D7
  8
0
 10
244.2499980330465
 20
498.53034250438219
 30
0.0
 11
244.2499980330465
 21
517.46965132653713
 31
0.0
  0
LINE
  5
17DA
  8
0
 10
251.7499983310698
 20
501.09999559819698
 30
0.0
 11
251.7499983310698
 21
514.89999823272228
 31
0.0
  0
LINE
  5
17DB
  8
0
 10
253.24999764561639
 20
513.39999519288506
 30
0.0
 11
253.2499976456163
 21
502.59999863803392
 31
0.0
  0
CIRCLE
  5
17DD
  8
0
 10
194.99999880790671
 20
507.99999766051769
 30
0.0
 40
7.8452994616207397
  0
ARC
  5
17DE
  8
0
 10
184.1235306906496
 20
512.44565748009882
 30
0.0
 40
0.5000453575395563
 50
123.5512659625189
 51
157.76562799593199
  0
ARC
  5
17E2
  8
0
 10
184.1270026373067
 20
503.54568209631219
 30
0.0
 40
0.4999789294413299
 50
202.27664193253219
 51
236.47326792314399
  0
ARC
  5
17E5
  8
0
 10
184.1234965991749
 20
512.44569217357787
 30
0.0
 40
0.5000000000000499
 50
90.0
 51
123.55008761466109
  0
LINE
  5
17E6
  8
0
 10
184.12349689751849
 20
512.94568859040726
 30
0.0
 11
186.656137369573
 21
512.94568859040726
 31
0.0
  0
ARC
  5
17E7
  8
0
 10
186.6561374421286
 20
512.64569217357791
 30
0.0
 40
0.3000000000000824
 50
330.89181761853371
 51
90.0
  0
ARC
  5
17EB
  8
0
 10
184.12702025421601
 20
503.54569217357789
 30
0.0
 40
0.5000000000000427
 50
236.4723983049708
 51
270.0000000000008
  0
ARC
  5
17EC
  8
0
 10
186.66093768364081
 20
503.3456921735779
 30
0.0
 40
0.3000000000000361
 50
270.0000000000008
 51
29.167329382503709
  0
LINE
  5
17ED
  8
0
 10
186.66093740612251
 20
503.04569236934191
 30
0.0
 11
184.12702009081829
 21
503.04569236934191
 31
0.0
  0
ARC
  5
17F3
  8
0
 10
205.8765010166384
 20
512.44569217357787
 30
0.0
 40
0.5000000000000427
 50
56.449912385345719
 51
90.0
  0
ARC
  5
17F5
  8
0
 10
203.34386017368459
 20
512.64569217357803
 30
0.0
 40
0.3000000000000824
 50
90.0
 51
209.10818238146791
  0
LINE
  5
17F6
  8
0
 10
203.34386024624101
 20
512.94568859040726
 30
0.0
 11
205.87650071829549
 21
512.94568859040726
 31
0.0
  0
ARC
  5
17F9
  8
0
 10
205.87297736159729
 20
503.54569217357789
 30
0.0
 40
0.5000000000000427
 50
270.0000000000008
 51
303.52760169503102
  0
LINE
  5
17FA
  8
0
 10
205.87297752499569
 20
503.04569236934191
 30
0.0
 11
203.33906020969141
 21
503.04569236934191
 31
0.0
  0
ARC
  5
17FB
  8
0
 10
203.3390599321724
 20
503.3456921735779
 30
0.0
 40
0.3000000000000361
 50
150.83267061749621
 51
270.0000000000008
  0
ARC
  5
17FC
  8
0
 10
194.99999880790659
 20
507.99999766051781
 30
0.0
 40
9.2500000000000462
 50
330.83267061748847
 51
331.21354227820598
  0
ARC
  5
17FD
  8
0
 10
205.87651466915241
 20
512.44569661595688
 30
0.0
 40
0.4999863550869739
 50
22.232290996521488
 51
56.4508150450268
  0
ARC
  5
17FF
  8
0
 10
205.8729873364546
 20
503.54568836797262
 30
0.0
 40
0.4999883785872658
 50
303.52706515983749
 51
337.72302498450608
  0
CIRCLE
  5
1802
  8
0
 10
194.99999880790659
 20
507.99999766051781
 30
0.0
 40
13.500000000000011
  0
CIRCLE
  5
1805
  8
0
 10
194.99999880790651
 20
507.99999766051781
 30
0.0
 40
16.50000000000005
  0
CIRCLE
  5
1806
  8
0
 10
194.99999880790651
 20
507.99999766051781
 30
0.0
 40
17.000000000000028
  0
CIRCLE
  5
1807
  8
0
 10
148.99999880790651
 20
536.99999766051781
 30
0.0
 40
2.4800000000000608
  0
CIRCLE
  5
1808
  8
0
 10
148.99999880790659
 20
536.99999766051781
 30
0.0
 40
1.879999999999969
  0
CIRCLE
  5
1809
  8
0
 10
221.99999880790671
 20
536.99999766051781
 30
0.0
 40
2.4799999999999449
  0
CIRCLE
  5
180A
  8
0
 10
221.99999880790671
 20
536.99999766051781
 30
0.0
 40
1.880000000000023
  0
CIRCLE
  5
180B
  8
0
 10
240.99999880790671
 20
536.99999766051781
 30
0.0
 40
2.4799999999999449
  0
CIRCLE
  5
180C
  8
0
 10
240.99999880790671
 20
536.99999766051781
 30
0.0
 40
1.880000000000023
  0
CIRCLE
  5
180D
  8
0
 10
186.99999880790659
 20
536.99999766051781
 30
0.0
 40
2.4799999999999449
  0
CIRCLE
  5
180E
  8
0
 10
186.99999880790659
 20
536.99999766051781
 30
0.0
 40
1.8800000000000241
  0
CIRCLE
  5
180F
  8
0
 10
202.99999880790659
 20
536.99999766051781
 30
0.0
 40
2.480000000000016
  0
CIRCLE
  5
1810
  8
0
 10
202.99999880790671
 20
536.99999766051781
 30
0.0
 40
1.880000000000023
  0
CIRCLE
  5
1811
  8
0
 10
167.99999880790659
 20
536.99999766051781
 30
0.0
 40
2.4799999999999449
  0
CIRCLE
  5
1812
  8
0
 10
167.99999880790659
 20
536.99999766051781
 30
0.0
 40
1.880000000000023
  0
LINE
  5
1813
  8
0
 10
243.9999975264071
 20
532.99999915063381
 30
0.0
 11
244.99999955296499
 21
534.00000117719173
 31
0.0
  0
LINE
  5
1816
  8
0
 10
144.99999806284879
 20
534.00000117719173
 30
0.0
 11
146.00000008940671
 21
532.99999915063381
 31
0.0
  0
LINE
  5
1817
  8
0
 10
144.99999806284879
 20
534.00000117719173
 30
0.0
 11
144.99999806284879
 21
539.99999843537796
 31
0.0
  0
LINE
  5
1818
  8
0
 10
146.00000008940671
 20
541.000000461936
 30
0.0
 11
144.99999806284879
 21
539.99999843537796
 31
0.0
  0
LINE
  5
1819
  8
0
 10
243.9999975264071
 20
541.000000461936
 30
0.0
 11
146.00000008940671
 21
541.000000461936
 31
0.0
  0
LINE
  5
181A
  8
0
 10
244.99999955296499
 20
539.99999843537796
 30
0.0
 11
243.9999975264071
 21
541.000000461936
 31
0.0
  0
LINE
  5
181B
  8
0
 10
244.99999955296499
 20
534.00000117719173
 30
0.0
 11
244.99999955296499
 21
539.99999843537796
 31
0.0
  0
CIRCLE
  5
181C
  8
0
 10
148.99999880790671
 20
536.99999766051781
 30
0.0
 40
2.899999999999991
  0
CIRCLE
  5
181D
  8
0
 10
167.99999880790671
 20
536.99999766051781
 30
0.0
 40
2.899999999999991
  0
CIRCLE
  5
181E
  8
0
 10
186.99999880790671
 20
536.99999766051781
 30
0.0
 40
2.899999999999991
  0
CIRCLE
  5
181F
  8
0
 10
202.99999880790671
 20
536.99999766051781
 30
0.0
 40
2.9000000000000621
  0
CIRCLE
  5
1820
  8
0
 10
221.99999880790671
 20
536.99999766051781
 30
0.0
 40
2.899999999999991
  0
CIRCLE
  5
1821
  8
0
 10
240.99999880790671
 20
536.99999766051781
 30
0.0
 40
2.899999999999991
  0
CIRCLE
  5
1822
  8
0
 10
148.99999880790671
 20
536.99999766051781
 30
0.0
 40
2.5
  0
CIRCLE
  5
1823
  8
0
 10
167.99999880790671
 20
536.99999766051781
 30
0.0
 40
2.5
  0
CIRCLE
  5
1824
  8
0
 10
186.99999880790671
 20
536.99999766051781
 30
0.0
 40
2.5
  0
CIRCLE
  5
1825
  8
0
 10
202.99999880790671
 20
536.99999766051781
 30
0.0
 40
2.5
  0
CIRCLE
  5
1826
  8
0
 10
221.99999880790671
 20
536.99999766051781
 30
0.0
 40
2.4999999999999281
  0
CIRCLE
  5
1827
  8
0
 10
240.99999880790671
 20
536.99999766051781
 30
0.0
 40
2.5
  0
LINE
  5
1828
  8
0
 10
146.99999839067451
 20
510.58578424155712
 30
0.0
 11
148.0000004172324
 21
510.9999992698431
 31
0.0
  0
LINE
  5
1829
  8
0
 10
148.0000004172324
 20
532.99999915063381
 30
0.0
 11
148.0000004172324
 21
489.99999769032001
 31
0.0
  0
LINE
  5
182C
  8
0
 10
178.4999988973139
 20
489.99999769032001
 30
0.0
 11
178.4999988973139
 21
481.99999637901777
 31
0.0
  0
LINE
  5
182D
  8
0
 10
178.4999988973139
 20
489.99999769032001
 30
0.0
 11
146.99999839067419
 21
489.99999769032001
 31
0.0
  0
LINE
  5
182E
  8
0
 10
148.0000004172324
 20
510.9999992698431
 30
0.0
 11
176.7448619008064
 21
510.9999992698431
 31
0.0
  0
ARC
  5
182F
  8
0
 10
194.99999880790671
 20
507.99999766051781
 30
0.0
 40
18.50000000000005
 50
170.6675818161971
 51
9.332418183802762
  0
LINE
  5
1830
  8
0
 10
213.2551357150077
 20
510.9999992698431
 30
0.0
 11
241.99999719858161
 21
510.9999992698431
 31
0.0
  0
LINE
  5
1831
  8
0
 10
241.99999719858161
 20
489.99999769032001
 30
0.0
 11
241.99999719858161
 21
532.99999915063381
 31
0.0
  0
LINE
  5
1832
  8
0
 10
242.9999992251395
 20
489.99999769032001
 30
0.0
 11
211.4999987185
 21
489.99999769032001
 31
0.0
  0
LINE
  5
1833
  8
0
 10
211.4999987185
 20
489.99999769032001
 30
0.0
 11
211.4999987185
 21
481.99999637901777
 31
0.0
  0
LINE
  5
1838
  8
0
 10
176.7448619008064
 20
510.9999992698431
 30
0.0
 11
177.96327397227279
 21
512.00000129640102
 31
0.0
  0
LINE
  5
1839
  8
0
 10
146.00000008940671
 20
532.99999915063381
 30
0.0
 11
243.9999975264071
 21
532.99999915063381
 31
0.0
  0
LINE
  5
183B
  8
0
 10
212.03672364354119
 20
512.00000129640102
 30
0.0
 11
213.2551357150077
 21
510.9999992698431
 31
0.0
  0
LINE
  5
183D
  8
0
 10
163.49999830126751
 20
489.99999769032001
 30
0.0
 11
163.49999830126751
 21
481.99999637901777
 31
0.0
  0
LINE
  5
1840
  8
0
 10
226.4999993145465
 20
489.99999769032001
 30
0.0
 11
226.4999993145465
 21
481.99999637901777
 31
0.0
  0
LINE
  5
1842
  8
0
 10
241.99999719858161
 20
510.9999992698431
 30
0.0
 11
242.9999992251395
 21
510.58578424155712
 31
0.0
  0
LINE
  5
1849
  8
0
 10
242.9999992251395
 20
532.99999915063381
 30
0.0
 11
242.9999992251395
 21
481.99999637901777
 31
0.0
  0
LINE
  5
184A
  8
0
 10
146.99999839067419
 20
481.99999637901777
 30
0.0
 11
242.9999992251395
 21
481.99999637901777
 31
0.0
  0
ARC
  5
1856
  8
0
 10
152.99999880790671
 20
480.99999766051781
 30
0.0
 40
0.9999999999999786
 50
0.0
 51
90.0
  0
ARC
  5
1858
  8
0
 10
236.99999880790659
 20
480.99999766051781
 30
0.0
 40
0.9999999999999431
 50
90.0
 51
180.0
  0
LINE
  5
1859
  8
0
 10
153.9999976754186
 20
479.99999605119228
 30
0.0
 11
153.9999976754186
 21
480.99999807775021
 31
0.0
  0
LINE
  5
185A
  8
0
 10
235.99999994039521
 20
479.99999605119228
 30
0.0
 11
235.99999994039521
 21
480.99999807775021
 31
0.0
  0
LINE
  5
185B
  8
0
 10
157.0000000298021
 20
479.99999605119228
 30
0.0
 11
157.0000000298021
 21
468.99999611079693
 31
0.0
  0
LINE
  5
185C
  8
0
 10
232.99999758601169
 20
468.99999611079693
 30
0.0
 11
232.99999758601169
 21
479.99999605119228
 31
0.0
  0
LINE
  5
185E
  8
0
 10
144.74999755620931
 20
501.09999559819698
 30
0.0
 11
144.74999755620931
 21
514.89999823272228
 31
0.0
  0
LINE
  5
1860
  8
0
 10
245.2500000596045
 20
514.89999823272228
 30
0.0
 11
245.25000005960439
 21
501.09999559819698
 31
0.0
  0
LINE
  5
186B
  8
0
 10
992.10000425577164
 20
426.99999760836363
 30
0.0
 11
992.10000425577164
 21
432.99999766051769
 31
0.0
  0
LINE
  5
186C
  8
0
 10
980.10000228881825
 20
432.99999766051769
 30
0.0
 11
980.10000228881825
 21
426.99999760836363
 31
0.0
  0
LINE
  5
186D
  8
0
 10
980.17350226640701
 20
410.99999777972698
 30
0.0
 11
981.17350429296494
 21
409.99999761581421
 31
0.0
  0
LINE
  5
186E
  8
0
 10
991.02650225162495
 20
409.99999761581421
 30
0.0
 11
992.02650427818298
 21
410.99999777972698
 31
0.0
  0
LINE
  5
1871
  8
0
 10
820.1734983921051
 20
410.99999777972698
 30
0.0
 11
821.17350041866302
 21
409.99999761581421
 31
0.0
  0
LINE
  5
1872
  8
0
 10
831.02649837732315
 20
409.99999761581421
 30
0.0
 11
832.02650040388107
 21
410.99999777972698
 31
0.0
  0
LINE
  5
1873
  8
0
 10
832.10000038146973
 20
426.99999760836363
 30
0.0
 11
832.10000038146973
 21
432.99999766051769
 31
0.0
  0
LINE
  5
1874
  8
0
 10
820.09999841451645
 20
432.99999766051769
 30
0.0
 11
820.09999841451645
 21
426.99999760836363
 31
0.0
  0
LINE
  5
1875
  8
0
 10
835.0999990105629
 20
468.99999611079693
 30
0.0
 11
835.0999990105629
 21
469.99999813735479
 31
0.0
  0
LINE
  5
1876
  8
0
 10
817.09999978542328
 20
469.99999813735479
 30
0.0
 11
817.09999978542328
 21
468.99999611079693
 31
0.0
  0
LINE
  5
1877
  8
0
 10
995.10000288486481
 20
468.99999611079693
 30
0.0
 11
995.10000288486481
 21
469.99999813735479
 31
0.0
  0
LINE
  5
1878
  8
0
 10
977.10000365972553
 20
469.99999813735479
 30
0.0
 11
977.10000365972553
 21
468.99999611079693
 31
0.0
  0
ARC
  5
1879
  8
0
 10
913.90000133514411
 20
434.69999766051768
 30
0.0
 40
1.2000000000000011
 50
270.0000000000008
 51
324.31466528735268
  0
ARC
  5
187A
  8
0
 10
898.30000133514432
 20
434.69999766051768
 30
0.0
 40
1.2000000000000011
 50
215.6853347126488
 51
270.0000000000008
  0
LINE
  5
187B
  8
0
 10
858.10000091791221
 20
487.15358905494219
 30
0.0
 11
855.30000194907279
 21
482.30384595692152
 31
0.0
  0
LINE
  5
187C
  8
0
 10
855.30000194907279
 20
482.30384595692152
 30
0.0
 11
855.30000194907279
 21
468.99999611079693
 31
0.0
  0
LINE
  5
187D
  8
0
 10
854.30314034223591
 20
518.92279021441925
 30
0.0
 11
852.85000145435367
 21
517.46965132653713
 31
0.0
  0
LINE
  5
187E
  8
0
 10
852.85000145435367
 20
498.53034250438219
 30
0.0
 11
854.30314034223591
 21
497.07720361650001
 31
0.0
  0
ARC
  5
187F
  8
0
 10
851.8500013351445
 20
500.09999766051777
 30
0.0
 40
0.9999999999999431
 50
0.0
 51
90.0
  0
ARC
  5
1880
  8
0
 10
851.8500013351445
 20
515.89999766051767
 30
0.0
 40
1.000000000000085
 50
270.0000000000008
 51
0.0
  0
LINE
  5
1881
  8
0
 10
888.39717596769367
 20
514.89999823272228
 30
0.0
 11
887.86157980561291
 21
514.89999823272228
 31
0.0
  0
LINE
  5
1882
  8
0
 10
887.86157980561291
 20
501.09999559819698
 30
0.0
 11
888.39717596769367
 21
501.09999559819698
 31
0.0
  0
LINE
  5
1883
  8
0
 10
851.85000315308605
 20
514.89999823272228
 30
0.0
 11
845.35000115633045
 21
514.89999823272228
 31
0.0
  0
LINE
  5
1884
  8
0
 10
845.35000115633045
 20
501.09999559819698
 30
0.0
 11
851.85000315308605
 21
501.09999559819698
 31
0.0
  0
LINE
  5
1885
  8
0
 10
845.35000115633045
 20
514.89999823272228
 30
0.0
 11
843.85000184178375
 21
513.3999951928854
 31
0.0
  0
LINE
  5
1886
  8
0
 10
843.85000184178375
 20
502.59999863803392
 30
0.0
 11
845.35000115633045
 21
501.09999559819698
 31
0.0
  0
LINE
  5
1887
  8
0
 10
957.87474155426059
 20
497.05508284270758
 30
0.0
 11
959.35000121593509
 21
498.53034250438219
 31
0.0
  0
LINE
  5
1888
  8
0
 10
959.35000121593509
 20
517.46965132653713
 30
0.0
 11
957.87474155426059
 21
518.94491098821163
 31
0.0
  0
ARC
  5
1889
  8
0
 10
960.35000133514438
 20
515.89999766051767
 30
0.0
 40
1.000000000000085
 50
180.0
 51
270.0000000000008
  0
ARC
  5
188A
  8
0
 10
960.35000133514438
 20
500.09999766051777
 30
0.0
 40
0.9999999999999431
 50
90.0
 51
180.0
  0
LINE
  5
188B
  8
0
 10
966.85000151395832
 20
501.09999559819698
 30
0.0
 11
968.3500008285049
 21
502.59999863803392
 31
0.0
  0
LINE
  5
188C
  8
0
 10
968.3500008285049
 20
513.3999951928854
 30
0.0
 11
966.85000151395832
 21
514.89999823272228
 31
0.0
  0
LINE
  5
188D
  8
0
 10
960.34999951720272
 20
501.09999559819698
 30
0.0
 11
966.85000151395832
 21
501.09999559819698
 31
0.0
  0
LINE
  5
188E
  8
0
 10
966.85000151395832
 20
514.89999823272228
 30
0.0
 11
960.34999951720272
 21
514.89999823272228
 31
0.0
  0
LINE
  5
188F
  8
0
 10
923.8028267025951
 20
501.09999559819698
 30
0.0
 11
924.33842286467586
 21
501.09999559819698
 31
0.0
  0
LINE
  5
1890
  8
0
 10
924.33842286467586
 20
514.89999823272228
 30
0.0
 11
923.8028267025951
 21
514.89999823272228
 31
0.0
  0
LINE
  5
1891
  8
0
 10
899.10000111907721
 20
433.59999768901622
 30
0.0
 11
899.10000111907721
 21
429.29999765940011
 31
0.0
  0
LINE
  5
1892
  8
0
 10
898.70000133290887
 20
433.9999977080152
 30
0.0
 11
899.10000111907721
 21
433.59999768901622
 31
0.0
  0
LINE
  5
1893
  8
0
 10
896.40000104904175
 20
433.9999977080152
 30
0.0
 11
898.70000133290887
 21
433.9999977080152
 31
0.0
  0
LINE
  5
1894
  8
0
 10
896.10000155866135
 20
434.29999766405678
 30
0.0
 11
896.40000104904175
 21
433.9999977080152
 31
0.0
  0
LINE
  5
1895
  8
0
 10
896.10000155866135
 20
438.99999771267181
 30
0.0
 11
896.10000155866157
 21
433.29999748850292
 31
0.0
  0
LINE
  5
1896
  8
0
 10
896.40000104904175
 20
438.99999771267181
 30
0.0
 11
896.10000155866135
 21
438.69999775663018
 31
0.0
  0
LINE
  5
1897
  8
0
 10
916.10000111162663
 20
438.99999771267181
 30
0.0
 11
896.10000155866135
 21
438.99999771267181
 31
0.0
  0
LINE
  5
1898
  8
0
 10
916.10000111162663
 20
438.69999775663018
 30
0.0
 11
915.80000162124634
 21
438.99999771267181
 31
0.0
  0
LINE
  5
1899
  8
0
 10
916.10000111162685
 20
433.29999767476681
 30
0.0
 11
916.10000111162663
 21
438.99999771267181
 31
0.0
  0
LINE
  5
189A
  8
0
 10
915.80000162124634
 20
433.9999977080152
 30
0.0
 11
916.10000111162663
 21
434.29999766405678
 31
0.0
  0
LINE
  5
189B
  8
0
 10
913.50000133737922
 20
433.9999977080152
 30
0.0
 11
915.80000162124634
 21
433.9999977080152
 31
0.0
  0
LINE
  5
189C
  8
0
 10
913.10000155121088
 20
433.59999768901622
 30
0.0
 11
913.50000133737922
 21
433.9999977080152
 31
0.0
  0
LINE
  5
189D
  8
0
 10
913.10000155121088
 20
429.29999765940011
 30
0.0
 11
913.10000155121088
 21
433.59999768901622
 31
0.0
  0
LINE
  5
189E
  8
0
 10
912.80000112950802
 20
428.99999747052789
 30
0.0
 11
913.10000155121088
 21
429.29999765940011
 31
0.0
  0
LINE
  5
189F
  8
0
 10
899.40000154078007
 20
428.99999747052789
 30
0.0
 11
912.80000112950802
 21
428.99999747052789
 31
0.0
  0
LINE
  5
18A0
  8
0
 10
899.10000111907721
 20
429.29999765940011
 30
0.0
 11
899.40000154078007
 21
428.99999747052789
 31
0.0
  0
LINE
  5
18A1
  8
0
 10
993.09999883174885
 20
426.99999760836363
 30
0.0
 11
979.10000026226044
 21
426.99999760836363
 31
0.0
  0
LINE
  5
18A2
  8
0
 10
993.09999883174885
 20
419.3999974802137
 30
0.0
 11
993.09999883174885
 21
426.99999760836363
 31
0.0
  0
ARC
  5
18A3
  8
0
 10
993.50000133514413
 20
419.39999766051761
 30
0.0
 40
0.4000000000000626
 50
180.0
 51
270.0000000000008
  0
LINE
  5
18A4
  8
0
 10
997.09999948740005
 20
418.99999722838402
 30
0.0
 11
993.49999815225601
 21
418.99999722838402
 31
0.0
  0
LINE
  5
18A5
  8
0
 10
997.09999948740005
 20
413.49999725818628
 30
0.0
 11
997.09999948740005
 21
418.99999722838402
 31
0.0
  0
LINE
  5
18A6
  8
0
 10
994.60000187158585
 20
410.99999777972698
 30
0.0
 11
997.09999948740005
 21
413.49999725818628
 31
0.0
  0
LINE
  5
18A7
  8
0
 10
977.60000467300415
 20
410.99999777972698
 30
0.0
 11
994.60000187158585
 21
410.99999777972698
 31
0.0
  0
LINE
  5
18A8
  8
0
 10
975.09999960660934
 20
413.49999725818628
 30
0.0
 11
977.60000467300415
 21
410.99999777972698
 31
0.0
  0
LINE
  5
18A9
  8
0
 10
975.09999960660934
 20
418.99999722838402
 30
0.0
 11
975.09999960660934
 21
413.49999725818628
 31
0.0
  0
LINE
  5
18AA
  8
0
 10
978.70000094175339
 20
418.99999722838402
 30
0.0
 11
975.09999960660934
 21
418.99999722838402
 31
0.0
  0
ARC
  5
18AB
  8
0
 10
978.70000133514395
 20
419.39999766051761
 30
0.0
 40
0.4000000000000626
 50
270.0000000000008
 51
0.0
  0
LINE
  5
18AC
  8
0
 10
979.10000026226044
 20
426.99999760836363
 30
0.0
 11
979.10000026226044
 21
419.3999974802137
 31
0.0
  0
LINE
  5
18AD
  8
0
 10
833.10000240802765
 20
426.99999760836363
 30
0.0
 11
819.10000383853912
 21
426.99999760836363
 31
0.0
  0
LINE
  5
18AE
  8
0
 10
833.10000240802765
 20
419.3999974802137
 30
0.0
 11
833.10000240802765
 21
426.99999760836363
 31
0.0
  0
ARC
  5
18AF
  8
0
 10
833.50000133514413
 20
419.39999766051761
 30
0.0
 40
0.4000000000002047
 50
180.0
 51
270.0000000000008
  0
LINE
  5
18B0
  8
0
 10
817.60000079870224
 20
410.99999777972698
 30
0.0
 11
834.59999799728394
 21
410.99999777972698
 31
0.0
  0
LINE
  5
18B1
  8
0
 10
815.10000318288803
 20
413.49999725818628
 30
0.0
 11
817.60000079870224
 21
410.99999777972698
 31
0.0
  0
LINE
  5
18B2
  8
0
 10
815.10000318288803
 20
418.99999722838402
 30
0.0
 11
815.10000318288803
 21
413.49999725818628
 31
0.0
  0
LINE
  5
18B3
  8
0
 10
818.70000451803207
 20
418.99999722838402
 30
0.0
 11
815.10000318288803
 21
418.99999722838402
 31
0.0
  0
ARC
  5
18B4
  8
0
 10
818.70000133514395
 20
419.39999766051761
 30
0.0
 40
0.4000000000000626
 50
270.0000000000008
 51
0.0
  0
LINE
  5
18B5
  8
0
 10
819.10000383853912
 20
426.99999760836363
 30
0.0
 11
819.10000383853912
 21
419.3999974802137
 31
0.0
  0
LINE
  5
18B6
  8
0
 10
837.10000306367874
 20
418.99999722838402
 30
0.0
 11
833.5000017285347
 21
418.99999722838402
 31
0.0
  0
LINE
  5
18B7
  8
0
 10
834.59999799728394
 20
410.99999777972698
 30
0.0
 11
837.10000306367874
 21
413.49999725818628
 31
0.0
  0
LINE
  5
18B8
  8
0
 10
837.10000306367874
 20
413.49999725818628
 30
0.0
 11
837.10000306367874
 21
418.99999722838402
 31
0.0
  0
POLYLINE
  5
18B9
  8
0
 66
     1
 10
0.0
 20
0.0
 30
0.0
 70
   128
  0
VERTEX
  5
32F1
  8
0
 10
986.0999995470047
 20
477.15149007737631
 30
0.0
  0
VERTEX
  5
32F2
  8
0
 10
988.42715859413147
 20
477.76710920035839
 30
0.0
  0
VERTEX
  5
32F3
  8
0
 10
990.84999799728394
 20
477.99999944865698
 30
0.0
  0
SEQEND
  5
32F4
  8
0
  0
POLYLINE
  5
18BA
  8
0
 66
     1
 10
0.0
 20
0.0
 30
0.0
 70
   128
  0
VERTEX
  5
32F5
  8
0
 10
990.84999799728394
 20
477.99999944865698
 30
0.0
  0
VERTEX
  5
32F6
  8
0
 10
993.22500467300415
 20
477.77603499591351
 30
0.0
  0
VERTEX
  5
32F7
  8
0
 10
995.60000389814377
 20
477.15149007737631
 30
0.0
  0
SEQEND
  5
32F8
  8
0
  0
LINE
  5
18BE
  8
0
 10
986.0999995470047
 20
470.59999711811548
 30
0.0
 11
986.0999995470047
 21
477.15149007737631
 31
0.0
  0
POLYLINE
  5
18BF
  8
0
 66
     1
 10
0.0
 20
0.0
 30
0.0
 70
   128
  0
VERTEX
  5
32F9
  8
0
 10
981.35000109672535
 20
477.99999944865698
 30
0.0
  0
VERTEX
  5
32FA
  8
0
 10
983.72500032186508
 20
477.77603499591351
 30
0.0
  0
VERTEX
  5
32FB
  8
0
 10
986.0999995470047
 20
477.15149007737631
 30
0.0
  0
SEQEND
  5
32FC
  8
0
  0
LINE
  5
18C0
  8
0
 10
995.60000389814377
 20
470.59999711811548
 30
0.0
 11
976.60000264644623
 21
470.59999711811548
 31
0.0
  0
POLYLINE
  5
18C2
  8
0
 66
     1
 10
0.0
 20
0.0
 30
0.0
 70
   128
  0
VERTEX
  5
32FD
  8
0
 10
976.60000264644623
 20
477.15149007737631
 30
0.0
  0
VERTEX
  5
32FE
  8
0
 10
978.927161693573
 20
477.76710920035839
 30
0.0
  0
VERTEX
  5
32FF
  8
0
 10
981.35000109672535
 20
477.99999944865698
 30
0.0
  0
SEQEND
  5
3300
  8
0
  0
LINE
  5
18C5
  8
0
 10
995.60000389814377
 20
469.99999813735479
 30
0.0
 11
976.60000264644623
 21
469.99999813735479
 31
0.0
  0
LINE
  5
18C6
  8
0
 10
995.60000389814377
 20
469.99999813735479
 30
0.0
 11
995.60000389814377
 21
477.99999944865698
 31
0.0
  0
LINE
  5
18C8
  8
0
 10
976.60000264644623
 20
477.99999944865698
 30
0.0
 11
976.60000264644623
 21
469.99999813735479
 31
0.0
  0
LINE
  5
18C9
  8
0
 10
995.60000389814377
 20
477.99999944865698
 30
0.0
 11
976.60000264644623
 21
477.99999944865698
 31
0.0
  0
LINE
  5
18CA
  8
0
 10
981.17350429296494
 20
409.99999761581421
 30
0.0
 11
991.02650225162495
 21
409.99999761581421
 31
0.0
  0
POLYLINE
  5
18CB
  8
0
 66
     1
 10
0.0
 20
0.0
 30
0.0
 70
   128
  0
VERTEX
  5
3301
  8
0
 10
826.10000312328339
 20
477.15149007737631
 30
0.0
  0
VERTEX
  5
3302
  8
0
 10
828.42716217041016
 20
477.76710920035839
 30
0.0
  0
VERTEX
  5
3303
  8
0
 10
830.85000157356262
 20
477.99999944865698
 30
0.0
  0
SEQEND
  5
3304
  8
0
  0
POLYLINE
  5
18CC
  8
0
 66
     1
 10
0.0
 20
0.0
 30
0.0
 70
   128
  0
VERTEX
  5
3305
  8
0
 10
830.85000157356262
 20
477.99999944865698
 30
0.0
  0
VERTEX
  5
3306
  8
0
 10
833.22500079870224
 20
477.77603499591351
 30
0.0
  0
VERTEX
  5
3307
  8
0
 10
835.60000002384174
 20
477.15149007737631
 30
0.0
  0
SEQEND
  5
3308
  8
0
  0
LINE
  5
18D0
  8
0
 10
826.10000312328339
 20
470.59999711811548
 30
0.0
 11
826.10000312328339
 21
477.15149007737631
 31
0.0
  0
POLYLINE
  5
18D1
  8
0
 66
     1
 10
0.0
 20
0.0
 30
0.0
 70
   128
  0
VERTEX
  5
3309
  8
0
 10
821.35000467300415
 20
477.99999944865698
 30
0.0
  0
VERTEX
  5
330A
  8
0
 10
823.72500389814377
 20
477.77603499591351
 30
0.0
  0
VERTEX
  5
330B
  8
0
 10
826.10000312328339
 20
477.15149007737631
 30
0.0
  0
SEQEND
  5
330C
  8
0
  0
LINE
  5
18D2
  8
0
 10
835.60000002384174
 20
470.59999711811548
 30
0.0
 11
816.59999877214432
 21
470.59999711811548
 31
0.0
  0
POLYLINE
  5
18D4
  8
0
 66
     1
 10
0.0
 20
0.0
 30
0.0
 70
   128
  0
VERTEX
  5
330D
  8
0
 10
816.59999877214432
 20
477.15149007737631
 30
0.0
  0
VERTEX
  5
330E
  8
0
 10
818.92715781927109
 20
477.76710920035839
 30
0.0
  0
VERTEX
  5
330F
  8
0
 10
821.35000467300415
 20
477.99999944865698
 30
0.0
  0
SEQEND
  5
3310
  8
0
  0
LINE
  5
18D7
  8
0
 10
835.60000002384174
 20
469.99999813735479
 30
0.0
 11
816.59999877214432
 21
469.99999813735479
 31
0.0
  0
LINE
  5
18D8
  8
0
 10
835.60000002384174
 20
469.99999813735479
 30
0.0
 11
835.60000002384174
 21
477.99999944865698
 31
0.0
  0
LINE
  5
18DA
  8
0
 10
816.59999877214432
 20
477.99999944865698
 30
0.0
 11
816.59999877214432
 21
469.99999813735479
 31
0.0
  0
LINE
  5
18DB
  8
0
 10
835.60000002384174
 20
477.99999944865698
 30
0.0
 11
816.59999877214432
 21
477.99999944865698
 31
0.0
  0
LINE
  5
18DC
  8
0
 10
821.17350041866302
 20
409.99999761581421
 30
0.0
 11
831.02649837732315
 21
409.99999761581421
 31
0.0
  0
LINE
  5
18DF
  8
0
 10
812.10000455379475
 20
468.99999611079693
 30
0.0
 11
1000.099998116493
 21
468.99999611079693
 31
0.0
  0
CIRCLE
  5
18E8
  8
0
 10
906.10000133514404
 20
448.99999766051769
 30
0.0
 40
4.2999999999999261
  0
LINE
  5
18EA
  8
0
 10
1001.100000143051
 20
467.9999978095293
 30
0.0
 11
1001.100000143051
 21
433.49999768426648
 31
0.0
  0
LINE
  5
18EB
  8
0
 10
1000.599999129772
 20
432.99999766051769
 30
0.0
 11
1001.100000143051
 21
433.49999768426648
 31
0.0
  0
LINE
  5
18ED
  8
0
 10
1000.099998116493
 20
468.99999611079693
 30
0.0
 11
1001.100000143051
 21
467.9999978095293
 31
0.0
  0
LINE
  5
18EF
  8
0
 10
1000.599999129772
 20
432.99999766051769
 30
0.0
 11
913.10000155121099
 21
432.99999766051769
 31
0.0
  0
LINE
  5
18F0
  8
0
 10
916.40000153332949
 20
432.99999766051769
 30
0.0
 11
916.10000111162663
 21
433.29999748850258
 31
0.0
  0
CIRCLE
  5
18F8
  8
0
 10
906.10000133514404
 20
448.99999766051769
 30
0.0
 40
3.9999999999999138
  0
LINE
  5
18FD
  8
0
 10
896.10000155866135
 20
433.29999748850292
 30
0.0
 11
895.8000011369586
 21
432.99999766051769
 31
0.0
  0
LINE
  5
18FE
  8
0
 10
899.10000111907721
 20
432.99999766051769
 30
0.0
 11
811.6000035405159
 21
432.99999766051769
 31
0.0
  0
LINE
  5
1901
  8
0
 10
811.10000252723694
 20
433.49999768426648
 30
0.0
 11
811.6000035405159
 21
432.99999766051769
 31
0.0
  0
LINE
  5
1902
  8
0
 10
811.10000252723694
 20
433.49999768426648
 30
0.0
 11
811.10000252723694
 21
467.9999978095293
 31
0.0
  0
LINE
  5
1903
  8
0
 10
811.10000252723694
 20
467.9999978095293
 30
0.0
 11
812.10000455379475
 21
468.99999611079693
 31
0.0
  0
CIRCLE
  5
1904
  8
0
 10
906.10000133514404
 20
448.99999766051769
 30
0.0
 40
3.4000000000000341
  0
LINE
  5
1909
  8
0
 10
898.30000154674087
 20
433.49999768426648
 30
0.0
 11
899.10000111907743
 21
433.49999768426648
 31
0.0
  0
LINE
  5
190A
  8
0
 10
913.09644902125035
 20
433.49999768426648
 30
0.0
 11
913.9000011235479
 21
433.49999768426648
 31
0.0
  0
LINE
  5
190B
  8
0
 10
858.10000091791221
 20
482.30384595692152
 30
0.0
 11
855.30000194907279
 21
482.30384595692152
 31
0.0
  0
LINE
  5
190C
  8
0
 10
854.35000076890014
 20
513.40528510510921
 30
0.0
 11
858.10000091791164
 21
513.40528510510921
 31
0.0
  0
ARC
  5
190D
  8
0
 10
856.45834295443058
 20
516.1872760206461
 30
0.0
 40
3.4906418070919401
 50
127.15680434624861
 51
232.8431956537504
  0
LINE
  5
190E
  8
0
 10
854.35000076890014
 20
518.96926693618286
 30
0.0
 11
858.10000091791164
 21
518.96926693618286
 31
0.0
  0
ARC
  5
190F
  8
0
 10
864.34736450951607
 20
507.92065195739269
 30
0.0
 40
11.40300322402892
 50
151.2504776013381
 51
208.7495223986628
  0
ARC
  5
1910
  8
0
 10
856.30787225365384
 20
499.73337285220629
 30
0.0
 40
3.337297697575218
 50
125.9206114178758
 51
234.0793885821241
  0
LINE
  5
1911
  8
0
 10
852.85000145435367
 20
517.46965132653713
 30
0.0
 11
852.85000145435367
 21
498.53034250438219
 31
0.0
  0
LINE
  5
1912
  8
0
 10
854.35000076890014
 20
502.43601880967623
 30
0.0
 11
858.10000091791164
 21
502.43601880967623
 31
0.0
  0
LINE
  5
1913
  8
0
 10
854.35000076890014
 20
497.03072689473629
 30
0.0
 11
858.10000091791164
 21
497.03072689473629
 31
0.0
  0
LINE
  5
1914
  8
0
 10
845.35000115633045
 20
514.89999823272228
 30
0.0
 11
845.35000115633045
 21
501.09999559819698
 31
0.0
  0
LINE
  5
1915
  8
0
 10
843.85000184178375
 20
502.59999863803392
 30
0.0
 11
843.85000184178375
 21
513.3999951928854
 31
0.0
  0
ARC
  5
1916
  8
0
 10
955.85603430730544
 20
499.75233457982529
 30
0.0
 40
3.374106745838203
 50
306.22527752129679
 51
53.774722478709087
  0
ARC
  5
1917
  8
0
 10
947.8520527893204
 20
507.95900382101541
 30
0.0
 40
11.40358631825929
 50
331.25125223696722
 51
28.748747763033681
  0
ARC
  5
1918
  8
0
 10
955.77829059698945
 20
516.20666615664959
 30
0.0
 40
3.4533339228164168
 50
306.86390320138668
 51
53.136096798613409
  0
LINE
  5
1919
  8
0
 10
959.35000121593509
 20
498.53034250438219
 30
0.0
 11
959.35000121593509
 21
517.46965132653713
 31
0.0
  0
LINE
  5
191A
  8
0
 10
957.85000190138851
 20
518.96955005824555
 30
0.0
 11
954.1000017523769
 21
518.96955005824555
 31
0.0
  0
LINE
  5
191B
  8
0
 10
957.85000190138851
 20
513.44378225505352
 30
0.0
 11
954.1000017523769
 21
513.44378225505352
 31
0.0
  0
LINE
  5
191C
  8
0
 10
957.85000190138851
 20
502.4742253869772
 30
0.0
 11
954.1000017523769
 21
502.4742253869772
 31
0.0
  0
LINE
  5
191D
  8
0
 10
957.85000190138851
 20
497.03044377267361
 30
0.0
 11
954.1000017523769
 21
497.03044377267361
 31
0.0
  0
LINE
  5
191E
  8
0
 10
968.3500008285049
 20
513.3999951928854
 30
0.0
 11
968.3500008285049
 21
502.59999863803392
 31
0.0
  0
LINE
  5
191F
  8
0
 10
966.85000151395832
 20
501.09999559819698
 30
0.0
 11
966.85000151395832
 21
514.89999823272228
 31
0.0
  0
LINE
  5
1927
  8
0
 10
911.60000130534195
 20
517.52627573907375
 30
0.0
 11
900.60000136494648
 21
517.52627573907375
 31
0.0
  0
LINE
  5
192A
  8
0
 10
900.60000136494648
 20
498.47371809184563
 30
0.0
 11
911.60000130534195
 21
498.47371809184563
 31
0.0
  0
LINE
  5
1932
  8
0
 10
906.36627187253919
 20
498.47371809184563
 30
0.0
 11
905.83373079774924
 21
498.47371809184563
 31
0.0
  0
LINE
  5
1933
  8
0
 10
897.71686602383875
 20
512.53253899514675
 30
0.0
 11
897.98313673585665
 21
512.99373738467693
 31
0.0
  0
LINE
  5
1934
  8
0
 10
897.98313673585665
 20
503.00626389682299
 30
0.0
 11
897.71686602383875
 21
503.46745483577263
 31
0.0
  0
LINE
  5
1935
  8
0
 10
914.21686593443167
 20
512.99373738467693
 30
0.0
 11
914.48313664644968
 21
512.53253899514675
 31
0.0
  0
LINE
  5
1936
  8
0
 10
905.83373079774924
 20
517.52627573907375
 30
0.0
 11
906.36627187253919
 21
517.52627573907375
 31
0.0
  0
LINE
  5
1937
  8
0
 10
914.48313664644968
 20
503.46745483577263
 30
0.0
 11
914.21686593443167
 21
503.00626389682299
 31
0.0
  0
CIRCLE
  5
1938
  8
0
 10
906.10000133514416
 20
507.99999766051769
 30
0.0
 40
19.00000000000005
  0
CIRCLE
  5
1939
  8
0
 10
906.10000133514416
 20
507.99999766051769
 30
0.0
 40
18.500000000000082
  0
CIRCLE
  5
193A
  8
0
 10
914.10000133514438
 20
536.99999766051781
 30
0.0
 40
2.480000000000016
  0
CIRCLE
  5
193B
  8
0
 10
914.10000133514438
 20
536.99999766051781
 30
0.0
 40
1.8799999999999519
  0
CIRCLE
  5
193C
  8
0
 10
952.10000133514427
 20
536.99999766051781
 30
0.0
 40
2.480000000000016
  0
CIRCLE
  5
193D
  8
0
 10
952.10000133514427
 20
536.99999766051781
 30
0.0
 40
1.8799999999999519
  0
CIRCLE
  5
193E
  8
0
 10
898.10000133514461
 20
536.99999766051781
 30
0.0
 40
2.4799999999998739
  0
CIRCLE
  5
193F
  8
0
 10
898.10000133514416
 20
536.99999766051781
 30
0.0
 40
1.8799999999999519
  0
CIRCLE
  5
1940
  8
0
 10
879.10000133514438
 20
536.99999766051781
 30
0.0
 40
2.480000000000016
  0
CIRCLE
  5
1941
  8
0
 10
879.10000133514438
 20
536.99999766051781
 30
0.0
 40
1.8799999999999519
  0
CIRCLE
  5
1942
  8
0
 10
933.1000013351445
 20
536.99999766051781
 30
0.0
 40
2.480000000000016
  0
CIRCLE
  5
1943
  8
0
 10
933.1000013351445
 20
536.99999766051781
 30
0.0
 40
1.8799999999999519
  0
CIRCLE
  5
1944
  8
0
 10
860.10000133514427
 20
536.99999766051781
 30
0.0
 40
2.480000000000016
  0
CIRCLE
  5
1945
  8
0
 10
860.10000133514427
 20
536.99999766051781
 30
0.0
 40
1.880000000000023
  0
LINE
  5
1947
  8
0
 10
955.10000005364452
 20
532.99999915063381
 30
0.0
 11
857.10000261664413
 21
532.99999915063381
 31
0.0
  0
LINE
  5
1948
  8
0
 10
856.10000059008632
 20
534.00000117719173
 30
0.0
 11
857.10000261664413
 21
532.99999915063381
 31
0.0
  0
LINE
  5
1949
  8
0
 10
856.10000059008632
 20
534.00000117719173
 30
0.0
 11
856.10000059008632
 21
539.99999843537796
 31
0.0
  0
LINE
  5
194A
  8
0
 10
857.10000261664413
 20
541.000000461936
 30
0.0
 11
856.10000059008632
 21
539.99999843537796
 31
0.0
  0
LINE
  5
194B
  8
0
 10
955.10000005364452
 20
541.000000461936
 30
0.0
 11
857.10000261664413
 21
541.000000461936
 31
0.0
  0
CIRCLE
  5
194C
  8
0
 10
860.10000133514427
 20
536.99999766051781
 30
0.0
 40
2.9000000000000621
  0
CIRCLE
  5
194D
  8
0
 10
879.10000133514438
 20
536.99999766051781
 30
0.0
 40
2.89999999999992
  0
CIRCLE
  5
194E
  8
0
 10
898.10000133514416
 20
536.99999766051781
 30
0.0
 40
2.9000000000000621
  0
CIRCLE
  5
194F
  8
0
 10
914.10000133514438
 20
536.99999766051781
 30
0.0
 40
2.9000000000000621
  0
CIRCLE
  5
1950
  8
0
 10
933.1000013351445
 20
536.99999766051781
 30
0.0
 40
2.89999999999992
  0
CIRCLE
  5
1951
  8
0
 10
952.10000133514427
 20
536.99999766051781
 30
0.0
 40
2.9000000000000621
  0
LINE
  5
1952
  8
0
 10
955.10000005364452
 20
532.99999915063381
 30
0.0
 11
956.10000208020244
 21
534.00000117719173
 31
0.0
  0
LINE
  5
1953
  8
0
 10
956.10000208020244
 20
534.00000117719173
 30
0.0
 11
956.10000208020244
 21
539.99999843537796
 31
0.0
  0
LINE
  5
1954
  8
0
 10
956.10000208020244
 20
539.99999843537796
 30
0.0
 11
955.10000005364452
 21
541.000000461936
 31
0.0
  0
CIRCLE
  5
1955
  8
0
 10
952.10000133514427
 20
536.99999766051781
 30
0.0
 40
2.5
  0
CIRCLE
  5
1956
  8
0
 10
933.1000013351445
 20
536.99999766051781
 30
0.0
 40
2.5
  0
CIRCLE
  5
1957
  8
0
 10
914.10000133514438
 20
536.99999766051781
 30
0.0
 40
2.5
  0
CIRCLE
  5
1958
  8
0
 10
898.10000133514416
 20
536.99999766051781
 30
0.0
 40
2.5
  0
CIRCLE
  5
1959
  8
0
 10
879.10000133514438
 20
536.99999766051781
 30
0.0
 40
2.5
  0
CIRCLE
  5
195A
  8
0
 10
860.10000133514427
 20
536.99999766051781
 30
0.0
 40
2.5
  0
CIRCLE
  5
195B
  8
0
 10
906.10000133514416
 20
507.99999766051769
 30
0.0
 40
19.49999999999995
  0
LINE
  5
195C
  8
0
 10
859.10000294446957
 20
489.99999769032001
 30
0.0
 11
874.60000082850468
 21
489.99999769032001
 31
0.0
  0
LINE
  5
195D
  8
0
 10
859.10000294446979
 20
532.99999915063381
 30
0.0
 11
859.10000294446957
 21
489.99999769032001
 31
0.0
  0
LINE
  5
195F
  8
0
 10
953.09999972581875
 20
489.99999769032001
 30
0.0
 11
953.09999972581898
 21
532.99999915063381
 31
0.0
  0
LINE
  5
1960
  8
0
 10
937.60000184178352
 20
489.99999769032001
 30
0.0
 11
953.09999972581875
 21
489.99999769032001
 31
0.0
  0
ARC
  5
1961
  8
0
 10
937.60000133514416
 20
474.99999766051781
 30
0.0
 40
15.0
 50
89.999999999999204
 51
138.18968510422101
  0
LINE
  5
1962
  8
0
 10
926.41966059803963
 20
484.99999873340141
 30
0.0
 11
885.78034207224857
 21
484.99999873340141
 31
0.0
  0
ARC
  5
1963
  8
0
 10
874.60000133514427
 20
474.99999766051781
 30
0.0
 40
15.0
 50
41.810314895778937
 51
90.00000000000081
  0
POLYLINE
  5
1964
  8
0
 66
     1
 10
0.0
 20
0.0
 30
0.0
 70
   128
  0
VERTEX
  5
3311
  8
0
 10
864.10000190138828
 20
512.14034788310516
 30
0.0
  0
VERTEX
  5
3312
  8
0
 10
863.28825369477295
 20
512.04456321895134
 30
0.0
  0
VERTEX
  5
3313
  8
0
 10
862.56447076797497
 20
511.76759533584112
 30
0.0
  0
VERTEX
  5
3314
  8
0
 10
862.0070853829385
 20
511.3394551724196
 30
0.0
  0
VERTEX
  5
3315
  8
0
 10
861.67649939656269
 20
510.80654494464392
 30
0.0
  0
VERTEX
  5
3316
  8
0
 10
861.60853892564785
 20
510.22659920156008
 30
0.0
  0
VERTEX
  5
3317
  8
0
 10
861.81056886911415
 20
509.66247849166399
 30
0.0
  0
VERTEX
  5
3318
  8
0
 10
862.26069197058689
 20
509.17530737817287
 30
0.0
  0
VERTEX
  5
3319
  8
0
 10
862.91013300418865
 20
508.81787322461599
 30
0.0
  0
VERTEX
  5
331A
  8
0
 10
863.68851378560078
 20
508.62892650067801
 30
0.0
  0
VERTEX
  5
331B
  8
0
 10
864.51148629188549
 20
508.62892650067801
 30
0.0
  0
VERTEX
  5
331C
  8
0
 10
865.28987079858803
 20
508.81787322461599
 30
0.0
  0
VERTEX
  5
331D
  8
0
 10
865.93931183218967
 20
509.17530737817287
 30
0.0
  0
VERTEX
  5
331E
  8
0
 10
866.38943493366264
 20
509.66247849166399
 30
0.0
  0
VERTEX
  5
331F
  8
0
 10
866.59146115183853
 20
510.22659920156008
 30
0.0
  0
VERTEX
  5
3320
  8
0
 10
866.52350068092358
 20
510.80654494464392
 30
0.0
  0
VERTEX
  5
3321
  8
0
 10
866.19291841983807
 20
511.3394551724196
 30
0.0
  0
VERTEX
  5
3322
  8
0
 10
865.6355330348016
 20
511.76759533584112
 30
0.0
  0
VERTEX
  5
3323
  8
0
 10
864.91175010800384
 20
512.04456321895134
 30
0.0
  0
VERTEX
  5
3324
  8
0
 10
864.10000190138828
 20
512.14034788310516
 30
0.0
  0
SEQEND
  5
3325
  8
0
  0
POLYLINE
  5
1965
  8
0
 66
     1
 10
0.0
 20
0.0
 30
0.0
 70
   128
  0
VERTEX
  5
3326
  8
0
 10
948.10000076890014
 20
512.14034788310516
 30
0.0
  0
VERTEX
  5
3327
  8
0
 10
947.28825256228458
 20
512.04456321895134
 30
0.0
  0
VERTEX
  5
3328
  8
0
 10
946.56446963548683
 20
511.76759533584112
 30
0.0
  0
VERTEX
  5
3329
  8
0
 10
946.00708425045025
 20
511.3394551724196
 30
0.0
  0
VERTEX
  5
332A
  8
0
 10
945.67650198936485
 20
510.80654494464392
 30
0.0
  0
VERTEX
  5
332B
  8
0
 10
945.6085415184499
 20
510.22659920156008
 30
0.0
  0
VERTEX
  5
332C
  8
0
 10
945.81056773662579
 20
509.66247849166399
 30
0.0
  0
VERTEX
  5
332D
  8
0
 10
946.26069083809875
 20
509.17530737817287
 30
0.0
  0
VERTEX
  5
332E
  8
0
 10
946.91013187170051
 20
508.81787322461599
 30
0.0
  0
VERTEX
  5
332F
  8
0
 10
947.68851637840294
 20
508.62892650067801
 30
0.0
  0
VERTEX
  5
3330
  8
0
 10
948.51148888468765
 20
508.62892650067801
 30
0.0
  0
VERTEX
  5
3331
  8
0
 10
949.28986966609966
 20
508.81787322461599
 30
0.0
  0
VERTEX
  5
3332
  8
0
 10
949.93931069970154
 20
509.17530737817287
 30
0.0
  0
VERTEX
  5
3333
  8
0
 10
950.38943380117428
 20
509.66247849166399
 30
0.0
  0
VERTEX
  5
3334
  8
0
 10
950.59146374464046
 20
510.22659920156008
 30
0.0
  0
VERTEX
  5
3335
  8
0
 10
950.52350327372574
 20
510.80654494464392
 30
0.0
  0
VERTEX
  5
3336
  8
0
 10
950.19291728734993
 20
511.3394551724196
 30
0.0
  0
VERTEX
  5
3337
  8
0
 10
949.63553190231335
 20
511.76759533584112
 30
0.0
  0
VERTEX
  5
3338
  8
0
 10
948.91174897551548
 20
512.04456321895134
 30
0.0
  0
VERTEX
  5
3339
  8
0
 10
948.10000076890014
 20
512.14034788310516
 30
0.0
  0
SEQEND
  5
333A
  8
0
  0
LINE
  5
1966
  8
0
 10
937.60000184178352
 20
489.99999769032001
 30
0.0
 11
937.60000184178352
 21
468.99999611079693
 31
0.0
  0
LINE
  5
1967
  8
0
 10
926.41966059803963
 20
468.99999611079693
 30
0.0
 11
926.41966059803963
 21
484.99999873340141
 31
0.0
  0
LINE
  5
1968
  8
0
 10
885.78034207224857
 20
484.99999873340141
 30
0.0
 11
885.78034207224857
 21
468.99999611079693
 31
0.0
  0
LINE
  5
1969
  8
0
 10
874.60000082850468
 20
489.99999769032001
 30
0.0
 11
874.60000082850468
 21
468.99999611079693
 31
0.0
  0
LINE
  5
196A
  8
0
 10
953.09999972581875
 20
489.99999769032001
 30
0.0
 11
954.10000175237656
 21
488.58578436076641
 31
0.0
  0
LINE
  5
196D
  8
0
 10
954.1000017523769
 20
532.99999915063381
 30
0.0
 11
954.10000175237644
 21
468.99999611079693
 31
0.0
  0
LINE
  5
196F
  8
0
 10
858.10000091791164
 20
488.58578436076641
 30
0.0
 11
859.10000294446957
 21
489.99999769032001
 31
0.0
  0
LINE
  5
1971
  8
0
 10
858.10000091791164
 20
468.99999611079693
 30
0.0
 11
858.10000091791164
 21
532.99999915063381
 31
0.0
  0
LINE
  5
1972
  8
0
 10
851.85000315308605
 20
501.09999559819698
 30
0.0
 11
851.85000315308605
 21
514.89999823272228
 31
0.0
  0
LINE
  5
1973
  8
0
 10
960.34999951720272
 20
514.89999823272228
 30
0.0
 11
960.34999951720272
 21
501.09999559819698
 31
0.0
  0
LINE
  5
1C63
  8
1
 10
412.4500009775162
 20
818.99999926984322
 30
0.0
 11
431.55000097751622
 21
818.99999926984322
 31
0.0
  0
LINE
  5
1C68
  8
1
 10
441.50000097751621
 20
835.99999926984333
 30
0.0
 11
466.50000097751621
 21
835.99999926984333
 31
0.0
  0
LINE
  5
1C69
  8
1
 10
454.00000097751558
 20
848.49999926984322
 30
0.0
 11
454.00000097751558
 21
809.44999926984303
 31
0.0
  0
LINE
  5
1C6A
  8
1
 10
422.00000097751598
 20
848.49999926984333
 30
0.0
 11
422.00000097751598
 21
809.44999926984303
 31
0.0
  0
LINE
  5
1C6B
  8
1
 10
409.50000097751632
 20
835.99999926984333
 30
0.0
 11
434.50000097751632
 21
835.99999926984333
 31
0.0
  0
LINE
  5
1C6C
  8
1
 10
666.60000097751606
 20
675.99999926984265
 30
0.0
 11
691.60000097751606
 21
675.99999926984265
 31
0.0
  0
LINE
  5
1C6E
  8
1
 10
679.10000586509796
 20
702.54999926984181
 30
0.0
 11
679.10000586509796
 21
663.5000005811454
 31
0.0
  0
LINE
  5
1C6F
  8
1
 10
669.55000097751622
 20
692.99999926984322
 30
0.0
 11
688.65000097751636
 21
692.99999926984322
 31
0.0
  0
LINE
  5
1C79
  8
1
 10
395.00000381469778
 20
755.99999926984322
 30
0.0
 11
706.10000500083015
 21
755.99999926984322
 31
0.0
  0
CIRCLE
  5
1F51
  8
0
 10
679.10000097751606
 20
835.99999926984299
 30
0.0
 40
9.5000000000000284
  0
CIRCLE
  5
1F5D
  8
0
 10
605.10000097751617
 20
835.99999926984299
 30
0.0
 40
9.5000000000000284
  0
LINE
  5
1F5F
  8
0
 10
599.61517369747162
 20
826.5000005811454
 30
0.0
 11
610.58482742309559
 21
826.5000005811454
 31
0.0
  0
LINE
  5
1F63
  8
0
 10
610.58482742309559
 20
845.50000183284283
 30
0.0
 11
599.61517369747162
 21
845.50000183284283
 31
0.0
  0
CIRCLE
  5
1F64
  8
0
 10
454.00000097751621
 20
835.99999926984322
 30
0.0
 40
9.5000000000000284
  0
LINE
  5
1F66
  8
0
 10
448.51517369747171
 20
826.5000005811454
 30
0.0
 11
459.48482742309579
 21
826.5000005811454
 31
0.0
  0
LINE
  5
1F6A
  8
0
 10
459.48482742309579
 20
845.50000183284305
 30
0.0
 11
448.51517369747171
 21
845.50000183284305
 31
0.0
  0
CIRCLE
  5
1F6B
  8
0
 10
422.00000097751632
 20
835.99999926984333
 30
0.0
 40
9.5000000000000284
  0
LINE
  5
1F6D
  8
0
 10
416.51517369747171
 20
826.50000058114563
 30
0.0
 11
427.48482742309579
 21
826.50000058114563
 31
0.0
  0
LINE
  5
1F71
  8
0
 10
427.48482742309579
 20
845.50000183284305
 30
0.0
 11
416.51517369747171
 21
845.50000183284305
 31
0.0
  0
CIRCLE
  5
1F72
  8
0
 10
422.00000097751609
 20
675.99999926984322
 30
0.0
 40
9.5000000000000284
  0
LINE
  5
1F74
  8
0
 10
416.5151736974716
 20
666.50000058114551
 30
0.0
 11
427.48482742309568
 21
666.50000058114551
 31
0.0
  0
LINE
  5
1F78
  8
0
 10
427.48482742309568
 20
685.50000183284294
 30
0.0
 11
416.5151736974716
 21
685.50000183284294
 31
0.0
  0
CIRCLE
  5
1F79
  8
0
 10
454.00000097751621
 20
675.9999992698431
 30
0.0
 40
9.5000000000000284
  0
LINE
  5
1F7B
  8
0
 10
448.5151736974716
 20
666.5000005811454
 30
0.0
 11
459.48482742309568
 21
666.5000005811454
 31
0.0
  0
LINE
  5
1F7F
  8
0
 10
459.48482742309568
 20
685.50000183284283
 30
0.0
 11
448.5151736974716
 21
685.50000183284283
 31
0.0
  0
CIRCLE
  5
1F80
  8
0
 10
605.10000097751629
 20
675.9999992698431
 30
0.0
 40
9.5000000000000284
  0
LINE
  5
1F82
  8
0
 10
599.61517369747185
 20
666.5000005811454
 30
0.0
 11
610.58482742309593
 21
666.5000005811454
 31
0.0
  0
LINE
  5
1F86
  8
0
 10
610.58482742309593
 20
685.50000183284283
 30
0.0
 11
599.61517369747185
 21
685.50000183284283
 31
0.0
  0
CIRCLE
  5
1F87
  8
0
 10
679.10000097751606
 20
675.9999992698431
 30
0.0
 40
9.5000000000000284
  0
LINE
  5
1F89
  8
0
 10
673.61517369747162
 20
666.5000005811454
 30
0.0
 11
684.5848274230957
 21
666.5000005811454
 31
0.0
  0
LINE
  5
1F8D
  8
0
 10
684.5848274230957
 20
685.50000183284283
 30
0.0
 11
673.61517369747162
 21
685.50000183284283
 31
0.0
  0
LINE
  5
1F96
  8
0
 10
480.49999892711651
 20
706.75000004470314
 30
0.0
 11
474.53034043312061
 21
706.75000004470314
 31
0.0
  0
ARC
  5
1F97
  8
0
 10
477.20293916872572
 20
712.25029191018496
 30
0.0
 40
5.4371174168591363
 50
231.41815264166681
 51
307.32954300658002
  0
POLYLINE
  5
1F98
  8
0
 66
     1
 10
0.0
 20
0.0
 30
0.0
 70
   128
  0
VERTEX
  5
333B
  8
0
 10
473.53135168552399
 20
707.99999885261025
 30
0.0
  0
VERTEX
  5
333C
  8
0
 10
473.89567017555248
 20
707.42108501493885
 30
0.0
  0
VERTEX
  5
333D
  8
0
 10
474.13569808006298
 20
707.1446498483416
 30
0.0
  0
SEQEND
  5
333E
  8
0
  0
ARC
  5
1F99
  8
0
 10
476.10000097751612
 20
705.74999926984253
 30
0.0
 40
1.000000000000014
 50
0.0
 51
89.999999999999204
  0
LINE
  5
1F9A
  8
0
 10
474.53034043312061
 20
706.75000004470314
 30
0.0
 11
474.13569808006298
 21
707.1446498483416
 31
0.0
  0
LINE
  5
1F9B
  8
0
 10
599.63034585118294
 20
702.74999938905216
 30
0.0
 11
618.56965653598309
 21
702.74999938905216
 31
0.0
  0
LINE
  5
1FB1
  8
0
 10
599.59990985837055
 20
702.78067715466
 30
0.0
 11
599.57206293796276
 21
705.99999852478481
 31
0.0
  0
LINE
  5
1FB3
  8
0
 10
599.59990985837055
 20
809.21932138502575
 30
0.0
 11
599.57206293796276
 21
806.00000001490105
 31
0.0
  0
LINE
  5
1FB4
  8
0
 10
618.60033243894566
 20
809.21932138502575
 30
0.0
 11
618.64547923207283
 21
803.99999968707516
 31
0.0
  0
LINE
  5
1FB5
  8
0
 10
599.63034585118294
 20
809.24999915063358
 30
0.0
 11
618.56965653598309
 21
809.24999915063358
 31
0.0
  0
LINE
  5
1FB7
  8
0
 10
618.56965653598309
 20
809.24999915063358
 30
0.0
 11
618.60033243894566
 21
809.21932138502575
 31
0.0
  0
LINE
  5
1FB8
  8
0
 10
599.59966971538961
 20
809.21932138502575
 30
0.0
 11
599.63034585118294
 21
809.24999915063358
 31
0.0
  0
LINE
  5
1FC1
  8
0
 10
609.14733659476042
 20
704.24999870359864
 30
0.0
 11
609.14733659476042
 21
705.9999985247847
 31
0.0
  0
ARC
  5
1FC2
  8
0
 10
604.38554690219462
 20
711.52247804894148
 30
0.0
 40
8.6927324187891823
 50
236.78448787597009
 51
303.21551212403102
  0
ARC
  5
1FC3
  8
0
 10
613.88545835390676
 20
711.44473343439108
 30
0.0
 40
8.6147551126524728
 50
236.63293568814879
 51
303.28270395287029
  0
LINE
  5
1FC4
  8
0
 10
599.62375720962882
 20
704.24999870359864
 30
0.0
 11
599.62375720962882
 21
705.9999985247847
 31
0.0
  0
LINE
  5
1FD2
  8
1
 10
444.4500009775158
 20
818.99999926984322
 30
0.0
 11
463.55000097751571
 21
818.99999926984322
 31
0.0
  0
LINE
  5
1FD3
  8
1
 10
679.10000097751549
 20
848.49999926984299
 30
0.0
 11
679.10000097751549
 21
809.44999926984292
 31
0.0
  0
LINE
  5
1FD4
  8
1
 10
666.60000097751606
 20
835.99999926984299
 30
0.0
 11
691.60000097751606
 21
835.99999926984299
 31
0.0
  0
LINE
  5
1FD5
  8
1
 10
669.55000097751565
 20
818.99999926984299
 30
0.0
 11
688.65000097751556
 21
818.99999926984299
 31
0.0
  0
LINE
  5
1FD6
  8
1
 10
605.10000097751595
 20
848.49999926984322
 30
0.0
 11
605.10000097751595
 21
809.44999926984292
 31
0.0
  0
LINE
  5
1FD7
  8
1
 10
595.55000097751599
 20
818.99999926984299
 30
0.0
 11
614.65000097751579
 21
818.99999926984299
 31
0.0
  0
LINE
  5
1FD8
  8
1
 10
592.60000097751617
 20
835.99999926984299
 30
0.0
 11
617.60000097751617
 21
835.99999926984299
 31
0.0
  0
LINE
  5
1FDF
  8
1
 10
592.59999608993439
 20
675.99999926984265
 30
0.0
 11
617.59999608993439
 21
675.99999926984265
 31
0.0
  0
LINE
  5
1FE0
  8
1
 10
595.5499960899341
 20
692.9999992698431
 30
0.0
 11
614.64999608993435
 21
692.9999992698431
 31
0.0
  0
LINE
  5
1FE1
  8
1
 10
605.10000097751617
 20
702.54999926984181
 30
0.0
 11
605.10000097751617
 21
663.5000005811454
 31
0.0
  0
LINE
  5
1FE3
  8
1
 10
441.49999608993431
 20
675.99999926984265
 30
0.0
 11
466.49999608993431
 21
675.99999926984265
 31
0.0
  0
LINE
  5
1FE4
  8
1
 10
444.4499960899343
 20
692.9999992698431
 30
0.0
 11
463.5499960899345
 21
692.9999992698431
 31
0.0
  0
LINE
  5
1FE5
  8
1
 10
454.00000097751621
 20
702.54999926984181
 30
0.0
 11
454.00000097751621
 21
663.5000005811454
 31
0.0
  0
LINE
  5
1FE7
  8
1
 10
409.49999608993443
 20
675.99999926984265
 30
0.0
 11
434.49999608993443
 21
675.99999926984265
 31
0.0
  0
LINE
  5
1FE8
  8
1
 10
412.4499960899343
 20
692.9999992698431
 30
0.0
 11
431.54999608993438
 21
692.9999992698431
 31
0.0
  0
LINE
  5
1FE9
  8
1
 10
422.00000097751609
 20
702.54999926984181
 30
0.0
 11
422.00000097751609
 21
663.5000005811454
 31
0.0
  0
LINE
  5
26EB
  8
1
 10
906.10000133514416
 20
555.99999433729442
 30
0.0
 11
906.10000133514416
 21
413.999997470528
 31
0.0
  0
LINE
  5
26F8
  8
1
 10
621.09999986750108
 20
507.99999766051769
 30
0.0
 11
466.80000097751639
 21
507.99999766051769
 31
0.0
  0
LINE
  5
26F9
  8
1
 10
484.00000097751632
 20
525.19999766051785
 30
0.0
 11
484.00000097751632
 21
490.79999766051748
 31
0.0
  0
LINE
  5
26FA
  8
1
 10
609.09999940693433
 20
521.85640894716857
 30
0.0
 11
609.09999940693433
 21
494.1436037949864
 31
0.0
  0
LINE
  5
2CD0
  8
1
 10
983.35000497102794
 20
507.99999766051758
 30
0.0
 11
828.85000497102715
 21
507.99999766051781
 31
0.0
  0
LINE
  5
2D00
  8
1
 10
421.99999958276771
 20
487.89935745267519
 30
0.0
 11
421.99999958276749
 21
399.99999761581421
 31
0.0
  0
LINE
  5
2D01
  8
3
 10
416.9469995827676
 20
432.99999766051769
 30
0.0
 11
416.9469995827676
 21
426.99999760836363
 31
0.0
  0
LINE
  5
2D02
  8
3
 10
427.05299958276771
 20
432.99999766051769
 30
0.0
 11
427.05299958276782
 21
426.99999760836363
 31
0.0
  0
LINE
  5
2D05
  8
3
 10
427.05299958276811
 20
410.99999777972698
 30
0.0
 11
427.05299958276811
 21
410.12650212614187
 31
0.0
  0
LINE
  5
2D06
  8
3
 10
416.9469995827676
 20
410.99999777972698
 30
0.0
 11
416.9469995827676
 21
410.1265021261413
 31
0.0
  0
LINE
  5
2D07
  8
3
 10
459.05300482797668
 20
410.99999777972698
 30
0.0
 11
459.05300482797668
 21
410.12650212614187
 31
0.0
  0
LINE
  5
2D08
  8
3
 10
448.94700482797629
 20
410.99999777972698
 30
0.0
 11
448.94700482797629
 21
410.1265021261413
 31
0.0
  0
LINE
  5
2D09
  8
1
 10
454.0000048279764
 20
487.89935745267519
 30
0.0
 11
454.00000482797611
 21
399.99999761581421
 31
0.0
  0
LINE
  5
2D0A
  8
3
 10
459.05300482797639
 20
432.99999766051769
 30
0.0
 11
459.05300482797651
 21
426.99999760836363
 31
0.0
  0
LINE
  5
2D0B
  8
3
 10
448.94700482797629
 20
432.99999766051769
 30
0.0
 11
448.94700482797629
 21
426.99999760836363
 31
0.0
  0
LINE
  5
2D0C
  8
3
 10
610.15300100359366
 20
410.99999777972698
 30
0.0
 11
610.15300100359366
 21
410.12650212614187
 31
0.0
  0
LINE
  5
2D0D
  8
3
 10
600.04700100359321
 20
410.99999777972698
 30
0.0
 11
600.04700100359321
 21
410.1265021261413
 31
0.0
  0
LINE
  5
2D0E
  8
1
 10
605.10000100359343
 20
487.89935745267519
 30
0.0
 11
605.10000100359321
 21
399.99999761581421
 31
0.0
  0
LINE
  5
2D0F
  8
3
 10
610.15300100359332
 20
432.99999766051769
 30
0.0
 11
610.15300100359354
 21
426.99999760836363
 31
0.0
  0
LINE
  5
2D10
  8
3
 10
600.04700100359321
 20
432.99999766051769
 30
0.0
 11
600.04700100359321
 21
426.99999760836363
 31
0.0
  0
LINE
  5
2D11
  8
3
 10
684.15300056028423
 20
410.99999777972698
 30
0.0
 11
684.15300056028423
 21
410.12650212614187
 31
0.0
  0
LINE
  5
2D12
  8
3
 10
674.04700056028366
 20
410.99999777972698
 30
0.0
 11
674.04700056028366
 21
410.1265021261413
 31
0.0
  0
LINE
  5
2D13
  8
1
 10
679.10000056028389
 20
487.89935745267519
 30
0.0
 11
679.10000056028355
 21
399.99999761581421
 31
0.0
  0
LINE
  5
2D14
  8
3
 10
684.15300056028366
 20
432.99999766051769
 30
0.0
 11
684.153000560284
 21
426.99999760836363
 31
0.0
  0
LINE
  5
2D15
  8
3
 10
674.04700056028366
 20
432.99999766051769
 30
0.0
 11
674.04700056028366
 21
426.99999760836363
 31
0.0
  0
LINE
  5
2D2B
  8
0
 10
911.60000130534195
 20
498.47371809184563
 30
0.0
 11
917.10000127553963
 21
508.00000064074999
 31
0.0
  0
LINE
  5
2D2C
  8
0
 10
911.60000130534195
 20
517.52627573907375
 30
0.0
 11
917.10000127553963
 21
508.00000064074999
 31
0.0
  0
LINE
  5
2D2D
  8
0
 10
900.60000136494648
 20
517.52627573907375
 30
0.0
 11
895.10000139474892
 21
508.00000064074999
 31
0.0
  0
LINE
  5
2D2E
  8
0
 10
895.10000139474892
 20
508.00000064074999
 30
0.0
 11
900.60000136494648
 21
498.47371809184563
 31
0.0
  0
CIRCLE
  5
2D2F
  8
0
 10
906.10000497102726
 20
507.99999766051769
 30
0.0
 40
9.5299979334448235
  0
LINE
  5
2D38
  8
3
 10
821.04699922337022
 20
432.99999766051769
 30
0.0
 11
821.04699922337022
 21
426.99999760836363
 31
0.0
  0
LINE
  5
2D39
  8
3
 10
831.1529992233701
 20
432.99999766051769
 30
0.0
 11
831.15299922337044
 21
426.99999760836363
 31
0.0
  0
LINE
  5
2D3A
  8
1
 10
826.09999922337033
 20
487.89935745267519
 30
0.0
 11
826.09999922337011
 21
399.99999761581421
 31
0.0
  0
LINE
  5
2D3B
  8
3
 10
831.15299922337056
 20
410.99999777972698
 30
0.0
 11
831.15299922337056
 21
410.12650212614187
 31
0.0
  0
LINE
  5
2D3C
  8
3
 10
821.04699922337022
 20
410.99999777972698
 30
0.0
 11
821.04699922337022
 21
410.1265021261413
 31
0.0
  0
LINE
  5
2D3D
  8
3
 10
981.04700309767225
 20
432.99999766051769
 30
0.0
 11
981.04700309767225
 21
426.99999760836363
 31
0.0
  0
LINE
  5
2D3E
  8
3
 10
991.15300309767235
 20
432.99999766051769
 30
0.0
 11
991.15300309767235
 21
426.99999760836363
 31
0.0
  0
LINE
  5
2D3F
  8
1
 10
986.10000309767202
 20
487.89935745267519
 30
0.0
 11
986.10000309767202
 21
399.99999761581421
 31
0.0
  0
LINE
  5
2D40
  8
3
 10
991.15300309767235
 20
410.99999777972698
 30
0.0
 11
991.15300309767235
 21
410.12650212614187
 31
0.0
  0
LINE
  5
2D41
  8
3
 10
981.04700309767225
 20
410.99999777972698
 30
0.0
 11
981.04700309767225
 21
410.1265021261413
 31
0.0
  0
CIRCLE
  5
2D8D
  8
0
 10
485.00000097751621
 20
219.99999880790671
 30
0.0
 40
4.99999999996919
  0
CIRCLE
  5
2D8E
  8
0
 10
484.99999972158957
 20
219.99999920278739
 30
0.0
 40
7.8000007197261993
  0
CIRCLE
  5
2D8F
  8
0
 10
485.00000097751621
 20
219.99999880790671
 30
0.0
 40
9.0000000000000213
  0
LINE
  5
2D90
  8
0
 10
490.77372465482898
 20
219.9999982695189
 30
0.0
 11
487.8867504835128
 21
214.9999993145461
 31
0.0
  0
LINE
  5
2D92
  8
0
 10
487.8867504835128
 20
214.9999993145461
 30
0.0
 11
482.113250875473
 21
214.9999993145461
 31
0.0
  0
LINE
  5
2D94
  8
0
 10
482.1132905624678
 20
214.9999993145461
 30
0.0
 11
479.22649734616277
 21
219.99999827146479
 31
0.0
  0
LINE
  5
2D97
  8
0
 10
479.22649734616277
 20
219.99999827146479
 30
0.0
 11
482.11318608963848
 21
224.99999722838359
 31
0.0
  0
LINE
  5
2D99
  8
0
 10
487.8867504835128
 20
224.99999722838351
 30
0.0
 11
490.77372465482898
 21
219.99999826951881
 31
0.0
  0
LINE
  5
2D9A
  8
0
 10
482.113250875473
 20
224.99999722838351
 30
0.0
 11
487.88675048351291
 21
224.99999722838351
 31
0.0
  0
ARC
  5
2D9D
  8
0
 10
485.00000097751621
 20
219.99999880790671
 30
0.0
 40
5.7150000000047472
 50
61.032035393573373
 51
118.9679646064249
  0
ARC
  5
2D9F
  8
0
 10
485.00000097751621
 20
219.99999880790671
 30
0.0
 40
5.7150000000047871
 50
1.0320353935735429
 51
58.967964606424971
  0
ARC
  5
2DA1
  8
0
 10
485.00000097751621
 20
219.99999880790671
 30
0.0
 40
5.7150000000047232
 50
121.0320353935733
 51
178.96796460642639
  0
ARC
  5
2DA3
  8
0
 10
485.00000097751621
 20
219.99999880790671
 30
0.0
 40
5.7150000000047436
 50
181.0320353935746
 51
238.9679646064277
  0
ARC
  5
2DA5
  8
0
 10
485.00000097751621
 20
219.99999880790671
 30
0.0
 40
5.7150000000048173
 50
301.03203539357509
 51
358.9679646064269
  0
ARC
  5
2DA7
  8
0
 10
485.00000097751621
 20
219.99999880790671
 30
0.0
 40
5.7150000000047472
 50
241.03203539357591
 51
298.96796460642747
  0
CIRCLE
  5
2DA8
  8
0
 10
485.00000097751621
 20
219.99999880790671
 30
0.0
 40
10.00000000000003
  0
CIRCLE
  5
2DCC
  8
3
 10
679.10000097751606
 20
114.9999988079072
 30
0.0
 40
5.0529995827677112
  0
CIRCLE
  5
2DCD
  8
3
 10
605.10000097751617
 20
114.9999988079072
 30
0.0
 40
5.0530000260773704
  0
CIRCLE
  5
2DD2
  8
3
 10
422.00000097751609
 20
274.9999988079071
 30
0.0
 40
5.0530000260773704
  0
CIRCLE
  5
2DD3
  8
3
 10
454.00000097751621
 20
274.99999880790722
 30
0.0
 40
5.0530000260773704
  0
CIRCLE
  5
2DD4
  8
3
 10
422.00000097751609
 20
114.99999880790701
 30
0.0
 40
5.0530000260773704
  0
CIRCLE
  5
2DD5
  8
3
 10
454.00000097751621
 20
114.99999880790701
 30
0.0
 40
5.0530000260773704
  0
LINE
  5
2DEE
  8
1
 10
422.00000097751609
 20
141.54999880790581
 30
0.0
 11
422.00000097751609
 21
102.49999880790701
 31
0.0
  0
LINE
  5
2DEF
  8
1
 10
412.4499960899343
 20
131.9999988079071
 30
0.0
 11
431.54999608993438
 21
131.9999988079071
 31
0.0
  0
LINE
  5
2DF0
  8
1
 10
409.49999608993443
 20
114.99999880790671
 30
0.0
 11
434.49999608993443
 21
114.99999880790671
 31
0.0
  0
LINE
  5
2DF2
  8
1
 10
454.00000097751621
 20
141.54999880790581
 30
0.0
 11
454.00000097751621
 21
102.49999880790701
 31
0.0
  0
LINE
  5
2DF3
  8
1
 10
444.4499960899343
 20
131.9999988079071
 30
0.0
 11
463.5499960899345
 21
131.9999988079071
 31
0.0
  0
LINE
  5
2DF4
  8
1
 10
441.49999608993431
 20
114.99999880790671
 30
0.0
 11
466.49999608993431
 21
114.99999880790671
 31
0.0
  0
LINE
  5
2DF6
  8
1
 10
605.10000097751617
 20
141.54999880790581
 30
0.0
 11
605.10000097751617
 21
102.49999880790701
 31
0.0
  0
LINE
  5
2DF7
  8
1
 10
595.5499960899341
 20
131.9999988079071
 30
0.0
 11
614.64999608993435
 21
131.9999988079071
 31
0.0
  0
LINE
  5
2DF8
  8
1
 10
592.59999608993439
 20
114.99999880790671
 30
0.0
 11
617.59999608993439
 21
114.99999880790671
 31
0.0
  0
LINE
  5
2DFA
  8
1
 10
592.60000097751617
 20
274.9999988079071
 30
0.0
 11
617.60000097751617
 21
274.99999880790699
 31
0.0
  0
LINE
  5
2DFB
  8
1
 10
595.55000097751599
 20
257.99999880790699
 30
0.0
 11
614.65000097751579
 21
257.99999880790699
 31
0.0
  0
LINE
  5
2DFC
  8
1
 10
605.10000097751595
 20
287.49999880790722
 30
0.0
 11
605.10000097751595
 21
248.44999880790689
 31
0.0
  0
LINE
  5
2DFD
  8
1
 10
669.55000097751565
 20
257.99999880790699
 30
0.0
 11
688.65000097751556
 21
257.99999880790699
 31
0.0
  0
LINE
  5
2DFE
  8
1
 10
666.60000097751606
 20
274.99999880790699
 30
0.0
 11
691.60000097751606
 21
274.9999988079071
 31
0.0
  0
LINE
  5
2DFF
  8
1
 10
679.10000097751549
 20
287.49999880790699
 30
0.0
 11
679.10000097751549
 21
248.44999880790689
 31
0.0
  0
LINE
  5
2E00
  8
1
 10
444.4500009775158
 20
257.99999880790722
 30
0.0
 11
463.55000097751571
 21
257.99999880790722
 31
0.0
  0
LINE
  5
2E01
  8
1
 10
395.00000381469778
 20
194.99999880790719
 30
0.0
 11
706.10000500083015
 21
194.99999880790719
 31
0.0
  0
LINE
  5
2E02
  8
1
 10
669.55000097751622
 20
131.99999880790719
 30
0.0
 11
688.65000097751636
 21
131.99999880790719
 31
0.0
  0
LINE
  5
2E03
  8
1
 10
679.10000586509796
 20
141.54999880790581
 30
0.0
 11
679.10000586509796
 21
102.49999880790701
 31
0.0
  0
LINE
  5
2E05
  8
1
 10
666.60000097751606
 20
114.99999880790671
 30
0.0
 11
691.60000097751606
 21
114.99999880790671
 31
0.0
  0
LINE
  5
2E06
  8
1
 10
409.50000097751632
 20
274.99999880790728
 30
0.0
 11
434.50000097751632
 21
274.99999880790728
 31
0.0
  0
LINE
  5
2E07
  8
1
 10
422.00000097751598
 20
287.49999880790739
 30
0.0
 11
422.00000097751598
 21
248.44999880790709
 31
0.0
  0
LINE
  5
2E08
  8
1
 10
454.00000097751558
 20
287.49999880790722
 30
0.0
 11
454.00000097751558
 21
248.44999880790709
 31
0.0
  0
LINE
  5
2E09
  8
1
 10
441.50000097751621
 20
274.99999880790728
 30
0.0
 11
466.50000097751621
 21
274.99999880790728
 31
0.0
  0
LINE
  5
2E0A
  8
1
 10
412.4500009775162
 20
257.99999880790722
 30
0.0
 11
431.55000097751622
 21
257.99999880790722
 31
0.0
  0
LINE
  5
2E17
  8
0
 10
284.50000137090689
 20
477.99999944865698
 30
0.0
 11
265.50000011920918
 21
477.99999944865698
 31
0.0
  0
LINE
  5
2E18
  8
0
 10
284.50000137090689
 20
469.99999813735479
 30
0.0
 11
265.50000011920918
 21
469.99999813735479
 31
0.0
  0
LINE
  5
2E19
  8
0
 10
284.50000137090677
 20
470.59999711811548
 30
0.0
 11
265.50000011920929
 21
470.59999711811548
 31
0.0
  0
POLYLINE
  5
2E1A
  8
0
 66
     1
 10
0.0
 20
0.0
 30
0.0
 70
   128
  0
VERTEX
  5
333F
  8
0
 10
275.00000447034841
 20
477.15149007737631
 30
0.0
  0
VERTEX
  5
3340
  8
0
 10
277.32716351747519
 20
477.76710920035839
 30
0.0
  0
VERTEX
  5
3341
  8
0
 10
279.75000292062759
 20
477.99999944865698
 30
0.0
  0
SEQEND
  5
3342
  8
0
  0
POLYLINE
  5
2E1B
  8
0
 66
     1
 10
0.0
 20
0.0
 30
0.0
 70
   128
  0
VERTEX
  5
3343
  8
0
 10
279.75000292062759
 20
477.99999944865698
 30
0.0
  0
VERTEX
  5
3344
  8
0
 10
282.12500214576733
 20
477.77603499591351
 30
0.0
  0
VERTEX
  5
3345
  8
0
 10
284.50000137090689
 20
477.15149007737631
 30
0.0
  0
SEQEND
  5
3346
  8
0
  0
LINE
  5
2E1C
  8
0
 10
275.00000447034847
 20
477.15149007737631
 30
0.0
 11
275.00000447034847
 21
470.59999711811548
 31
0.0
  0
POLYLINE
  5
2E1D
  8
0
 66
     1
 10
0.0
 20
0.0
 30
0.0
 70
   128
  0
VERTEX
  5
3347
  8
0
 10
270.25000602006918
 20
477.99999944865698
 30
0.0
  0
VERTEX
  5
3348
  8
0
 10
272.6250052452088
 20
477.77603499591351
 30
0.0
  0
VERTEX
  5
3349
  8
0
 10
275.00000447034841
 20
477.15149007737631
 30
0.0
  0
SEQEND
  5
334A
  8
0
  0
POLYLINE
  5
2E1E
  8
0
 66
     1
 10
0.0
 20
0.0
 30
0.0
 70
   128
  0
VERTEX
  5
334B
  8
0
 10
265.50000011920929
 20
477.15149007737631
 30
0.0
  0
VERTEX
  5
334C
  8
0
 10
267.827159166336
 20
477.76710920035839
 30
0.0
  0
VERTEX
  5
334D
  8
0
 10
270.25000602006918
 20
477.99999944865698
 30
0.0
  0
SEQEND
  5
334E
  8
0
  0
LINE
  5
2E1F
  8
0
 10
266.00000113248819
 20
469.99999813735479
 30
0.0
 11
266.00000113248819
 21
468.99999611079693
 31
0.0
  0
LINE
  5
2E20
  8
0
 10
284.00000035762793
 20
468.99999611079693
 30
0.0
 11
284.00000035762793
 21
469.99999813735479
 31
0.0
  0
LINE
  5
2E21
  8
0
 10
265.50000011920918
 20
477.99999944865709
 30
0.0
 11
265.50000011920918
 21
469.99999813735479
 31
0.0
  0
LINE
  5
2E22
  8
0
 10
284.50000137090689
 20
469.99999813735479
 30
0.0
 11
284.50000137090677
 21
477.99999944865709
 31
0.0
  0
LINE
  5
2E23
  8
1
 10
272.2499988079071
 20
507.99999766051758
 30
0.0
 11
117.74999880790659
 21
507.99999766051781
 31
0.0
  0
LINE
  5
2E24
  8
1
 10
194.99999517202369
 20
555.99999433729442
 30
0.0
 11
194.99999517202369
 21
413.999997470528
 31
0.0
  0
LINE
  5
2E25
  8
1
 10
274.99999693455152
 20
487.89935745267519
 30
0.0
 11
274.99999693455152
 21
399.99999761581421
 31
0.0
  0
LINE
  5
2E26
  8
1
 10
114.99999306024959
 20
487.89935745267519
 30
0.0
 11
114.99999306024939
 21
399.99999761581421
 31
0.0
  0
LINE
  5
2E27
  8
3
 10
109.9469930602495
 20
432.99999766051769
 30
0.0
 11
109.9469930602495
 21
426.99999760836363
 31
0.0
  0
LINE
  5
2E28
  8
3
 10
120.05299306024961
 20
432.99999766051769
 30
0.0
 11
120.0529930602497
 21
426.99999760836363
 31
0.0
  0
LINE
  5
2E29
  8
3
 10
120.05299306025
 20
410.99999777972698
 30
0.0
 11
120.05299306025
 21
410.12650212614187
 31
0.0
  0
LINE
  5
2E2A
  8
3
 10
109.9469930602495
 20
410.99999777972698
 30
0.0
 11
109.9469930602495
 21
410.1265021261413
 31
0.0
  0
LINE
  5
2E2B
  8
3
 10
280.05299693455157
 20
432.99999766051769
 30
0.0
 11
280.0529969345518
 21
426.99999760836363
 31
0.0
  0
LINE
  5
2E2C
  8
3
 10
269.94699693455158
 20
432.99999766051769
 30
0.0
 11
269.94699693455158
 21
426.99999760836363
 31
0.0
  0
LINE
  5
2E2D
  8
3
 10
280.0529969345518
 20
410.99999777972698
 30
0.0
 11
280.0529969345518
 21
410.12650212614187
 31
0.0
  0
LINE
  5
2E2E
  8
3
 10
269.94699693455158
 20
410.99999777972698
 30
0.0
 11
269.94699693455158
 21
410.1265021261413
 31
0.0
  0
TEXT
  5
2ED8
  8
0
 62
     3
 10
0.0
 20
0.0
 30
0.0
 40
10.0
  1
SCS3AX-14CL
  7
STANDARD1
  0
LINE
  5
2FE8
  8
0
 10
411.03034580227728
 20
835.99999926984333
 30
0.0
 11
416.51517369747171
 21
845.50000183284305
 31
0.0
  0
LINE
  5
2FE9
  8
0
 10
427.48482742309579
 20
845.50000183284305
 30
0.0
 11
432.96966040778739
 21
835.99998687829486
 31
0.0
  0
LINE
  5
2FEA
  8
0
 10
411.03034580227728
 20
835.99999926984333
 30
0.0
 11
416.51517369747171
 21
826.50000058114563
 31
0.0
  0
LINE
  5
2FEB
  8
0
 10
427.48482742309579
 20
826.50000058114563
 30
0.0
 11
432.96966040778739
 21
835.99998687829486
 31
0.0
  0
LINE
  5
2FEC
  8
0
 10
443.03034580227728
 20
835.99999926984333
 30
0.0
 11
448.51517369747171
 21
845.50000183284305
 31
0.0
  0
LINE
  5
2FED
  8
0
 10
459.48482742309579
 20
845.50000183284305
 30
0.0
 11
464.96966040778739
 21
835.99998687829486
 31
0.0
  0
LINE
  5
2FEE
  8
0
 10
443.03034580227728
 20
835.99999926984333
 30
0.0
 11
448.51517369747171
 21
826.50000058114563
 31
0.0
  0
LINE
  5
2FEF
  8
0
 10
459.48482742309579
 20
826.50000058114563
 30
0.0
 11
464.96966040778739
 21
835.99998687829486
 31
0.0
  0
LINE
  5
2FF0
  8
0
 10
443.03034091469539
 20
675.99999926984265
 30
0.0
 11
448.51516880988981
 21
685.50000183284249
 31
0.0
  0
LINE
  5
2FF1
  8
0
 10
459.4848225355139
 20
685.50000183284249
 30
0.0
 11
464.96965552020549
 21
675.99998687829429
 31
0.0
  0
LINE
  5
2FF2
  8
0
 10
443.03034091469539
 20
675.99999926984265
 30
0.0
 11
448.51516880988981
 21
666.50000058114495
 31
0.0
  0
LINE
  5
2FF3
  8
0
 10
459.4848225355139
 20
666.50000058114495
 30
0.0
 11
464.96965552020549
 21
675.99998687829429
 31
0.0
  0
LINE
  5
2FF4
  8
0
 10
411.03034091469539
 20
675.99999926984265
 30
0.0
 11
416.51516880988981
 21
685.50000183284249
 31
0.0
  0
LINE
  5
2FF5
  8
0
 10
427.4848225355139
 20
685.50000183284249
 30
0.0
 11
432.96965552020549
 21
675.99998687829429
 31
0.0
  0
LINE
  5
2FF6
  8
0
 10
411.03034091469539
 20
675.99999926984265
 30
0.0
 11
416.51516880988981
 21
666.50000058114495
 31
0.0
  0
LINE
  5
2FF7
  8
0
 10
427.4848225355139
 20
666.50000058114495
 30
0.0
 11
432.96965552020549
 21
675.99998687829429
 31
0.0
  0
LINE
  5
2FF8
  8
0
 10
594.13034091469535
 20
675.99999926984265
 30
0.0
 11
599.61516880988984
 21
685.50000183284249
 31
0.0
  0
LINE
  5
2FF9
  8
0
 10
610.58482253551381
 20
685.50000183284249
 30
0.0
 11
616.06965552020552
 21
675.99998687829429
 31
0.0
  0
LINE
  5
2FFA
  8
0
 10
594.13034091469535
 20
675.99999926984265
 30
0.0
 11
599.61516880988984
 21
666.50000058114495
 31
0.0
  0
LINE
  5
2FFB
  8
0
 10
610.58482253551381
 20
666.50000058114495
 30
0.0
 11
616.06965552020552
 21
675.99998687829429
 31
0.0
  0
LINE
  5
2FFC
  8
0
 10
668.13034580227713
 20
675.99999926984265
 30
0.0
 11
673.61517369747162
 21
685.50000183284226
 31
0.0
  0
LINE
  5
2FFD
  8
0
 10
684.5848274230957
 20
685.50000183284226
 30
0.0
 11
690.06966040778718
 21
675.99998687829429
 31
0.0
  0
LINE
  5
2FFE
  8
0
 10
668.13034580227713
 20
675.99999926984265
 30
0.0
 11
673.61517369747162
 21
666.50000058114495
 31
0.0
  0
LINE
  5
2FFF
  8
0
 10
684.5848274230957
 20
666.50000058114495
 30
0.0
 11
690.06966040778718
 21
675.99998687829429
 31
0.0
  0
LINE
  5
3000
  8
0
 10
668.13034580227713
 20
835.99999926984299
 30
0.0
 11
673.61517369747162
 21
845.50000183284283
 31
0.0
  0
LINE
  5
3001
  8
0
 10
684.5848274230957
 20
845.50000183284283
 30
0.0
 11
690.06966040778718
 21
835.99998687829475
 31
0.0
  0
LINE
  5
3002
  8
0
 10
668.13034580227713
 20
835.99999926984299
 30
0.0
 11
673.61517369747162
 21
826.5000005811454
 31
0.0
  0
LINE
  5
3003
  8
0
 10
684.5848274230957
 20
826.5000005811454
 30
0.0
 11
690.06966040778718
 21
835.99998687829475
 31
0.0
  0
LINE
  5
3004
  8
0
 10
594.13034580227691
 20
835.99999926984299
 30
0.0
 11
599.61517369747139
 21
845.50000183284283
 31
0.0
  0
LINE
  5
3005
  8
0
 10
610.58482742309548
 20
845.50000183284283
 30
0.0
 11
616.06966040778707
 21
835.99998687829475
 31
0.0
  0
LINE
  5
3006
  8
0
 10
594.13034580227691
 20
835.99999926984299
 30
0.0
 11
599.61517369747139
 21
826.5000005811454
 31
0.0
  0
LINE
  5
3007
  8
0
 10
610.58482742309548
 20
826.5000005811454
 30
0.0
 11
616.06966040778707
 21
835.99998687829475
 31
0.0
  0
CIRCLE
  5
3008
  8
0
 10
194.99999880790659
 20
507.99999766051781
 30
0.0
 40
17.5
  0
CIRCLE
  5
3009
  8
0
 10
194.99999517202369
 20
507.99999766051769
 30
0.0
 40
12.25
  0
CIRCLE
  5
300B
  8
0
 10
194.99999880790679
 20
507.99999766051769
 30
0.0
 40
9.25
  0
LINE
  5
3050
  8
0
 10
474.8443824052809
 20
514.04218308627605
 30
0.0
 11
474.18950617313391
 21
503.09208713471889
 31
0.0
  0
LINE
  5
3051
  8
0
 10
483.34512978792208
 20
497.04990468919272
 30
0.0
 11
493.15562218427658
 21
501.95781819522392
 31
0.0
  0
LINE
  5
3052
  8
0
 10
493.81049096584331
 20
512.90790669620026
 30
0.0
 11
484.65487480163591
 21
518.95008914172649
 31
0.0
  0
CIRCLE
  5
30DB
  8
0
 10
485.00000097751621
 20
242.79999880790689
 30
0.0
 40
2.3094013452532951
  0
LINE
  5
30DC
  8
0
 10
483.00000399351131
 20
243.95469799637789
 30
0.0
 11
485.00000097751621
 21
245.1094001531601
 31
0.0
  0
LINE
  5
30DD
  8
0
 10
485.00000097751621
 20
240.49059746265351
 30
0.0
 11
487.00000464916229
 21
241.6453040920361
 31
0.0
  0
LINE
  5
30DE
  8
0
 10
486.99999796152122
 20
243.95469799637789
 30
0.0
 11
485.00000097751621
 21
245.1094001531601
 31
0.0
  0
LINE
  5
30DF
  8
0
 10
485.00000097751621
 20
240.49059746265351
 30
0.0
 11
482.99999730587012
 21
241.6453040920361
 31
0.0
  0
CIRCLE
  5
30E2
  8
0
 10
484.99999972158957
 20
169.99999920278739
 30
0.0
 40
4.99999999996919
  0
CIRCLE
  5
30E3
  8
0
 10
484.999998465663
 20
169.99999959766799
 30
0.0
 40
7.8000007197261993
  0
CIRCLE
  5
30E4
  8
0
 10
484.99999972158957
 20
169.99999920278739
 30
0.0
 40
9.0000000000000213
  0
LINE
  5
30E5
  8
0
 10
490.7737233989024
 20
169.9999986643995
 30
0.0
 11
487.88674922758628
 21
164.9999997094267
 31
0.0
  0
LINE
  5
30E6
  8
0
 10
487.88674922758628
 20
164.9999997094267
 30
0.0
 11
482.11324961954642
 21
164.9999997094267
 31
0.0
  0
LINE
  5
30E7
  8
0
 10
482.11328930654128
 20
164.9999997094267
 30
0.0
 11
479.2264960902362
 21
169.9999986663455
 31
0.0
  0
LINE
  5
30E8
  8
0
 10
479.2264960902362
 20
169.9999986663455
 30
0.0
 11
482.1131848337119
 21
174.99999762326419
 31
0.0
  0
LINE
  5
30E9
  8
0
 10
487.88674922758628
 20
174.99999762326419
 30
0.0
 11
490.7737233989024
 21
169.9999986643995
 31
0.0
  0
LINE
  5
30EA
  8
0
 10
482.11324961954642
 20
174.99999762326419
 30
0.0
 11
487.88674922758639
 21
174.99999762326419
 31
0.0
  0
ARC
  5
30EB
  8
0
 10
484.99999972158957
 20
169.99999920278739
 30
0.0
 40
5.7150000000047472
 50
61.032035393573267
 51
118.967964606425
  0
ARC
  5
30EC
  8
0
 10
484.99999972158957
 20
169.99999920278739
 30
0.0
 40
5.7150000000047871
 50
1.032035393573542
 51
58.967964606425021
  0
ARC
  5
30ED
  8
0
 10
484.99999972158957
 20
169.99999920278739
 30
0.0
 40
5.7150000000047232
 50
121.0320353935733
 51
178.96796460642639
  0
ARC
  5
30EE
  8
0
 10
484.99999972158957
 20
169.99999920278739
 30
0.0
 40
5.7150000000047436
 50
181.03203539357469
 51
238.96796460642761
  0
ARC
  5
30EF
  8
0
 10
484.99999972158957
 20
169.99999920278739
 30
0.0
 40
5.7150000000048173
 50
301.03203539357497
 51
358.9679646064269
  0
ARC
  5
30F0
  8
0
 10
484.99999972158957
 20
169.99999920278739
 30
0.0
 40
5.7150000000047472
 50
241.0320353935758
 51
298.96796460642759
  0
CIRCLE
  5
30F1
  8
0
 10
484.99999972158957
 20
169.99999920278739
 30
0.0
 40
10.00000000000003
  0
CIRCLE
  5
30F2
  8
0
 10
657.10000097751606
 20
158.49999880790699
 30
0.0
 40
4.99999999996919
  0
CIRCLE
  5
30F3
  8
0
 10
657.0999997215896
 20
158.49999920278759
 30
0.0
 40
7.8000007197261993
  0
CIRCLE
  5
30F4
  8
0
 10
657.10000097751606
 20
158.49999880790699
 30
0.0
 40
9.0000000000000213
  0
LINE
  5
30F5
  8
0
 10
662.87372465482895
 20
158.4999982695191
 30
0.0
 11
659.98675048351276
 21
153.4999993145463
 31
0.0
  0
LINE
  5
30F6
  8
0
 10
659.98675048351276
 20
153.4999993145463
 30
0.0
 11
654.21325087547302
 21
153.4999993145463
 31
0.0
  0
LINE
  5
30F7
  8
0
 10
654.21329056246771
 20
153.4999993145463
 30
0.0
 11
651.3264973461628
 21
158.49999827146499
 31
0.0
  0
LINE
  5
30F8
  8
0
 10
651.3264973461628
 20
158.49999827146499
 30
0.0
 11
654.21318608963861
 21
163.49999722838379
 31
0.0
  0
LINE
  5
30F9
  8
0
 10
659.98675048351276
 20
163.49999722838379
 30
0.0
 11
662.87372465482895
 21
158.4999982695191
 31
0.0
  0
LINE
  5
30FA
  8
0
 10
654.21325087547302
 20
163.49999722838379
 30
0.0
 11
659.98675048351276
 21
163.49999722838371
 31
0.0
  0
ARC
  5
30FB
  8
0
 10
657.10000097751606
 20
158.49999880790699
 30
0.0
 40
5.7150000000047472
 50
61.03203539357321
 51
118.967964606425
  0
ARC
  5
30FC
  8
0
 10
657.10000097751606
 20
158.49999880790699
 30
0.0
 40
5.7150000000047871
 50
1.032035393573528
 51
58.967964606425667
  0
ARC
  5
30FD
  8
0
 10
657.10000097751606
 20
158.49999880790699
 30
0.0
 40
5.7150000000047232
 50
121.03203539357391
 51
178.96796460642639
  0
ARC
  5
30FE
  8
0
 10
657.10000097751606
 20
158.49999880790699
 30
0.0
 40
5.7150000000047436
 50
181.03203539357469
 51
238.9679646064277
  0
ARC
  5
30FF
  8
0
 10
657.10000097751606
 20
158.49999880790699
 30
0.0
 40
5.7150000000048173
 50
301.03203539357571
 51
358.9679646064269
  0
ARC
  5
3100
  8
0
 10
657.10000097751606
 20
158.49999880790699
 30
0.0
 40
5.7150000000047472
 50
241.0320353935752
 51
298.96796460642702
  0
CIRCLE
  5
3101
  8
0
 10
657.10000097751606
 20
158.49999880790699
 30
0.0
 40
10.00000000000003
  0
CIRCLE
  5
3102
  8
0
 10
657.10000097751606
 20
231.49999880790719
 30
0.0
 40
4.99999999996919
  0
CIRCLE
  5
3103
  8
0
 10
657.0999997215896
 20
231.4999992027879
 30
0.0
 40
7.8000007197261993
  0
CIRCLE
  5
3104
  8
0
 10
657.10000097751606
 20
231.49999880790719
 30
0.0
 40
9.0000000000000213
  0
LINE
  5
3105
  8
0
 10
662.87372465482895
 20
231.4999982695193
 30
0.0
 11
659.98675048351276
 21
226.49999931454661
 31
0.0
  0
LINE
  5
3106
  8
0
 10
659.98675048351276
 20
226.4999993145465
 30
0.0
 11
654.21325087547302
 21
226.49999931454661
 31
0.0
  0
LINE
  5
3107
  8
0
 10
654.21329056246771
 20
226.4999993145465
 30
0.0
 11
651.3264973461628
 21
231.4999982714653
 31
0.0
  0
LINE
  5
3108
  8
0
 10
651.3264973461628
 20
231.4999982714653
 30
0.0
 11
654.21318608963861
 21
236.4999972283841
 31
0.0
  0
LINE
  5
3109
  8
0
 10
659.98675048351276
 20
236.49999722838399
 30
0.0
 11
662.87372465482895
 21
231.4999982695193
 31
0.0
  0
LINE
  5
310A
  8
0
 10
654.21325087547302
 20
236.49999722838399
 30
0.0
 11
659.98675048351276
 21
236.49999722838399
 31
0.0
  0
ARC
  5
310B
  8
0
 10
657.10000097751606
 20
231.49999880790719
 30
0.0
 40
5.7150000000047472
 50
61.032035393573302
 51
118.9679646064249
  0
ARC
  5
310C
  8
0
 10
657.10000097751606
 20
231.49999880790719
 30
0.0
 40
5.7150000000047871
 50
1.032035393573528
 51
58.96796460642561
  0
ARC
  5
310D
  8
0
 10
657.10000097751606
 20
231.49999880790719
 30
0.0
 40
5.7150000000047232
 50
121.03203539357391
 51
178.96796460642639
  0
ARC
  5
310E
  8
0
 10
657.10000097751606
 20
231.49999880790719
 30
0.0
 40
5.7150000000047436
 50
181.03203539357449
 51
238.96796460642781
  0
ARC
  5
310F
  8
0
 10
657.10000097751606
 20
231.49999880790719
 30
0.0
 40
5.7150000000048173
 50
301.03203539357582
 51
358.9679646064269
  0
ARC
  5
3110
  8
0
 10
657.10000097751606
 20
231.49999880790719
 30
0.0
 40
5.7150000000047472
 50
241.03203539357531
 51
298.9679646064269
  0
CIRCLE
  5
3111
  8
0
 10
657.10000097751606
 20
231.49999880790719
 30
0.0
 40
10.00000000000003
  0
CIRCLE
  5
3113
  8
0
 10
617.10000097751617
 20
194.9999988079071
 30
0.0
 40
4.99999999996919
  0
CIRCLE
  5
3114
  8
0
 10
617.09999972158948
 20
194.99999920278771
 30
0.0
 40
7.8000007197261993
  0
CIRCLE
  5
3115
  8
0
 10
617.10000097751617
 20
194.9999988079071
 30
0.0
 40
9.0000000000000213
  0
LINE
  5
3116
  8
0
 10
622.87372465482895
 20
194.99999826951921
 30
0.0
 11
619.98675048351276
 21
189.99999931454639
 31
0.0
  0
LINE
  5
3117
  8
0
 10
619.98675048351276
 20
189.99999931454639
 30
0.0
 11
614.21325087547302
 21
189.99999931454639
 31
0.0
  0
LINE
  5
3118
  8
0
 10
614.21329056246782
 20
189.99999931454639
 30
0.0
 11
611.32649734616268
 21
194.99999827146519
 31
0.0
  0
LINE
  5
3119
  8
0
 10
611.32649734616268
 20
194.99999827146519
 30
0.0
 11
614.21318608963861
 21
199.9999972283839
 31
0.0
  0
LINE
  5
311A
  8
0
 10
619.98675048351276
 20
199.9999972283839
 30
0.0
 11
622.87372465482895
 21
194.99999826951921
 31
0.0
  0
LINE
  5
311B
  8
0
 10
614.21325087547302
 20
199.9999972283839
 30
0.0
 11
619.98675048351276
 21
199.9999972283839
 31
0.0
  0
ARC
  5
311C
  8
0
 10
617.10000097751617
 20
194.9999988079071
 30
0.0
 40
5.7150000000047472
 50
61.03203539357321
 51
118.967964606425
  0
ARC
  5
311D
  8
0
 10
617.10000097751617
 20
194.9999988079071
 30
0.0
 40
5.7150000000047871
 50
1.0320353935735429
 51
58.967964606425873
  0
ARC
  5
311E
  8
0
 10
617.10000097751617
 20
194.9999988079071
 30
0.0
 40
5.7150000000047232
 50
121.03203539357381
 51
178.96796460642639
  0
ARC
  5
311F
  8
0
 10
617.10000097751617
 20
194.9999988079071
 30
0.0
 40
5.7150000000047436
 50
181.03203539357469
 51
238.9679646064277
  0
ARC
  5
3120
  8
0
 10
617.10000097751617
 20
194.9999988079071
 30
0.0
 40
5.7150000000048173
 50
301.03203539357548
 51
358.9679646064269
  0
ARC
  5
3121
  8
0
 10
617.10000097751617
 20
194.9999988079071
 30
0.0
 40
5.7150000000047472
 50
241.0320353935752
 51
298.96796460642707
  0
CIRCLE
  5
3122
  8
0
 10
617.10000097751617
 20
194.9999988079071
 30
0.0
 40
10.00000000000003
  0
ENDSEC
  0
EOF
