  0
SECTION
  2
HEADER
  9
$ACADVER
  1
AC1009
  9
$INSBASE
 10
0.0
 20
0.0
 30
0.0
  9
$EXTMIN
 10
8.3441034020440128
 20
7.0833125033172282
 30
0.0
  9
$EXTMAX
 10
85.213134779943061
 20
46.293749065390898
 30
0.0
  9
$LIMMIN
 10
0.0
 20
0.0
  9
$LIMMAX
 10
375.0
 20
270.0
  9
$ORTHOMODE
 70
     0
  9
$REGENMODE
 70
     1
  9
$FILLMODE
 70
     1
  9
$QTEXTMODE
 70
     0
  9
$MIRRTEXT
 70
     0
  9
$DRAGMODE
 70
     2
  9
$LTSCALE
 40
5.0
  9
$OSMODE
 70
    37
  9
$ATTMODE
 70
     1
  9
$TEXTSIZE
 40
0.2
  9
$TRACEWID
 40
0.05
  9
$TEXTSTYLE
  7
ST
  9
$CLAYER
  8
4
  9
$CELTYPE
  6
BYLAYER
  9
$CECOLOR
 62
   256
  9
$DIMSCALE
 40
1.0
  9
$DIMASZ
 40
3.0
  9
$DIMEXO
 40
2.0
  9
$DIMDLI
 40
0.3799999999999999
  9
$DIMRND
 40
0.0
  9
$DIMDLE
 40
0.0
  9
$DIMEXE
 40
2.0
  9
$DIMTP
 40
0.0
  9
$DIMTM
 40
0.0
  9
$DIMTXT
 40
3.0
  9
$DIMCEN
 40
0.09
  9
$DIMTSZ
 40
0.0
  9
$DIMTOL
 70
     0
  9
$DIMLIM
 70
     0
  9
$DIMTIH
 70
     0
  9
$DIMTOH
 70
     0
  9
$DIMSE1
 70
     0
  9
$DIMSE2
 70
     0
  9
$DIMTAD
 70
     1
  9
$DIMZIN
 70
     0
  9
$DIMBLK
  1

  9
$DIMASO
 70
     0
  9
$DIMSHO
 70
     0
  9
$DIMPOST
  1

  9
$DIMAPOST
  1

  9
$DIMALT
 70
     0
  9
$DIMALTD
 70
     2
  9
$DIMALTF
 40
25.399999999999999
  9
$DIMLFAC
 40
1.0
  9
$DIMTOFL
 70
     1
  9
$DIMTVP
 40
1.6000000000000001
  9
$DIMTIX
 70
     1
  9
$DIMSOXD
 70
     0
  9
$DIMSAH
 70
     0
  9
$DIMBLK1
  1

  9
$DIMBLK2
  1

  9
$DIMSTYLE
  2
STANDARD
  9
$DIMCLRD
 70
     0
  9
$DIMCLRE
 70
     0
  9
$DIMCLRT
 70
     0
  9
$DIMTFAC
 40
1.0
  9
$DIMGAP
 40
1.1999999999999991
  9
$LUNITS
 70
     2
  9
$LUPREC
 70
     4
  9
$SKETCHINC
 40
0.1
  9
$FILLETRAD
 40
1.5
  9
$AUNITS
 70
     0
  9
$AUPREC
 70
     4
  9
$MENU
  1
ACAD
  9
$ELEVATION
 40
0.0
  9
$PELEVATION
 40
0.0
  9
$THICKNESS
 40
0.0
  9
$LIMCHECK
 70
     0
  9
$BLIPMODE
 70
     0
  9
$CHAMFERA
 40
0.0
  9
$CHAMFERB
 40
0.0
  9
$SKPOLY
 70
     0
  9
$TDCREATE
 40
2448586.4078643522
  9
$TDUPDATE
 40
2456598.7279551039
  9
$TDINDWG
 40
0.2264890625
  9
$TDUSRTIMER
 40
2456598.2920499081
  9
$USRTIMER
 70
     1
  9
$ANGBASE
 50
0.0
  9
$ANGDIR
 70
     0
  9
$PDMODE
 70
     0
  9
$PDSIZE
 40
0.0
  9
$PLINEWID
 40
0.0
  9
$COORDS
 70
     1
  9
$SPLFRAME
 70
     0
  9
$SPLINETYPE
 70
     6
  9
$SPLINESEGS
 70
     8
  9
$ATTDIA
 70
     0
  9
$ATTREQ
 70
     1
  9
$HANDLING
 70
     1
  9
$HANDSEED
  5
2E69
  9
$SURFTAB1
 70
     6
  9
$SURFTAB2
 70
     6
  9
$SURFTYPE
 70
     6
  9
$SURFU
 70
     6
  9
$SURFV
 70
     6
  9
$UCSNAME
  2

  9
$UCSORG
 10
0.0
 20
0.0
 30
0.0
  9
$UCSXDIR
 10
1.0
 20
0.0
 30
0.0
  9
$UCSYDIR
 10
0.0
 20
1.0
 30
0.0
  9
$PUCSNAME
  2

  9
$PUCSORG
 10
0.0
 20
0.0
 30
0.0
  9
$PUCSXDIR
 10
1.0
 20
0.0
 30
0.0
  9
$PUCSYDIR
 10
0.0
 20
1.0
 30
0.0
  9
$USERI1
 70
     0
  9
$USERI2
 70
     1
  9
$USERI3
 70
     1
  9
$USERI4
 70
     0
  9
$USERI5
 70
     0
  9
$USERR1
 40
0.0
  9
$USERR2
 40
0.0
  9
$USERR3
 40
0.0
  9
$USERR4
 40
0.0
  9
$USERR5
 40
0.0
  9
$WORLDVIEW
 70
     1
  9
$SHADEDGE
 70
     3
  9
$SHADEDIF
 70
    70
  9
$TILEMODE
 70
     1
  9
$MAXACTVP
 70
    16
  9
$PLIMCHECK
 70
     0
  9
$PEXTMIN
 10
1.0000000000000000E+020
 20
1.0000000000000000E+020
 30
1.0000000000000000E+020
  9
$PEXTMAX
 10
-1.0000000000000000E+020
 20
-1.0000000000000000E+020
 30
-1.0000000000000000E+020
  9
$PLIMMIN
 10
0.0
 20
0.0
  9
$PLIMMAX
 10
12.0
 20
9.0
  9
$UNITMODE
 70
     0
  9
$VISRETAIN
 70
     0
  9
$PLINEGEN
 70
     1
  9
$PSLTSCALE
 70
     0
  0
ENDSEC
  0
SECTION
  2
TABLES
  0
TABLE
  2
VPORT
 70
     1
  0
VPORT
  2
*ACTIVE
 70
     0
 10
0.0
 20
0.0
 11
1.0
 21
1.0
 12
131.54658423774779
 22
-2.0063923632304319
 13
0.0
 23
0.0
 14
5.0
 24
5.0
 15
10.0
 25
10.0
 16
0.0
 26
0.0
 36
1.0
 17
0.0
 27
0.0
 37
0.0
 40
194.99096547596059
 41
1.755244755244755
 42
50.0
 43
0.0
 44
0.0
 50
0.0
 51
0.0
 71
    16
 72
   500
 73
     1
 74
     0
 75
     0
 76
     0
 77
     0
 78
     2
  0
ENDTAB
  0
TABLE
  2
LTYPE
 70
     3
  0
LTYPE
  2
CONTINUOUS
 70
     0
  3
実線
 72
    65
 73
     0
 40
0.0
  0
LTYPE
  2
CENTER
 70
     0
  3
____ _ ____ _ ____ _ ____ _ ____ _ ____ _ ____
 72
    65
 73
     4
 40
2.0
 49
1.25
 49
-0.25
 49
0.25
 49
-0.25
  0
LTYPE
  2
PHANTOM2
 70
     0
  3
___ _ _ ___ _ _ ___ _ _ ___ _ _
 72
    65
 73
     6
 40
1.25
 49
0.625
 49
-0.125
 49
0.125
 49
-0.125
 49
0.125
 49
-0.125
  0
ENDTAB
  0
TABLE
  2
LAYER
 70
     4
  0
LAYER
  2
0
 70
     0
 62
     7
  6
CONTINUOUS
  0
LAYER
  2
1
 70
     0
 62
     1
  6
CENTER
  0
LAYER
  2
4
 70
     0
 62
     4
  6
CONTINUOUS
  0
LAYER
  2
DEFPOINTS
 70
     0
 62
     7
  6
CONTINUOUS
  0
ENDTAB
  0
TABLE
  2
STYLE
 70
     4
  0
STYLE
  2
STANDARD
 70
     0
 40
0.0
 41
1.0
 50
0.0
 71
     0
 42
5.0
  3
simplex.shx
  4
BIGFONT.shx
  0
STYLE
  2
07500
 70
     0
 40
0.0
 41
0.75
 50
0.0
 71
     0
 42
0.2
  3
simplex.shx
  4
BIGFONT.shx
  0
STYLE
  2
ST
 70
     0
 40
0.0
 41
1.0
 50
0.0
 71
     0
 42
0.2
  3
simplex.shx
  4
BIGFONT.shx
  0
STYLE
  2
STANDARD1
 70
     0
 40
0.0
 41
1.0
 50
0.0
 71
     0
 42
3.0
  3
txt
  4

  0
ENDTAB
  0
TABLE
  2
VIEW
 70
     1
  0
VIEW
  2
ALL
 70
     0
 40
270.0
 10
220.99159663865549
 20
135.0
 41
0.0
 11
0.0
 21
0.0
 31
1.0
 12
0.0
 22
0.0
 32
0.0
 42
0.0
 43
0.0
 44
0.0
 50
0.0
 71
     0
  0
ENDTAB
  0
TABLE
  2
UCS
 70
     0
  0
ENDTAB
  0
TABLE
  2
APPID
 70
    38
  0
APPID
  2
ACAD
 70
     0
  0
APPID
  2
DCO15
 70
     0
  0
APPID
  2
GENIUS_GENOREF_13
 70
     0
  0
APPID
  2
GENIUS_GENOENT_13
 70
     0
  0
APPID
  2
GENIUS_GENBH_13
 70
     0
  0
APPID
  2
GENIUS_GENOBJ_13
 70
     0
  0
APPID
  2
GENIUS_GENODEF_13
 70
     0
  0
APPID
  2
GENIUS_GENOLIS_13
 70
     0
  0
APPID
  2
GENIUS_GENOBJ-NBEHI-BHF_13
 70
     0
  0
APPID
  2
GENIUS_GENOBJ-NBEHI-BHB_13
 70
     0
  0
APPID
  2
GENIUS_GENOBJ-F-PART_13
 70
     0
  0
APPID
  2
GENIUS_GEFSTDP_13
 70
     0
  0
APPID
  2
GENIUS_GENOBJ-N-RSSYM_13
 70
     0
  0
APPID
  2
GENIUS_GENSYMENT_13
 70
     0
  0
APPID
  2
GENIUS_GENOBJ-N-TIT_13
 70
     0
  0
APPID
  2
GENIUS_GENTITLE_13
 70
     0
  0
APPID
  2
GENIUS_GENZVEED_13
 70
     0
  0
APPID
  2
GENIUS_GENOBJ-N-LEADER_13
 70
     0
  0
APPID
  2
GENIUS_GENOBJ-N-FIL_13
 70
     0
  0
APPID
  2
GENIUS_GENOBJ-N-SEC_13
 70
     0
  0
APPID
  2
GENIUS_GENOBJ-N-CRS_13
 70
     0
  0
APPID
  2
GENIUS_GENOBJ-N-ZOO_13
 70
     0
  0
APPID
  2
GENIUS_GENZOO_13
 70
     0
  0
APPID
  2
GENIUS_GENOBJ-F-TOL_13
 70
     0
  0
APPID
  2
GENIUS_GENFIL_13
 70
     0
  0
APPID
  2
GENIUS_GENOBJ-N-CHA_13
 70
     0
  0
APPID
  2
_CALL_MAC$
 70
     0
  0
APPID
  2
ASM_BASE
 70
     0
  0
APPID
  2
ASM_EXPLO_VER_2_00
 70
     0
  0
APPID
  2
ASM_CADM_VER_12_00
 70
     0
  0
APPID
  2
ASM_BASEFORO
 70
     0
  0
APPID
  2
ASM_BASETRAVI
 70
     0
  0
APPID
  2
ASM_BASETRAVI1
 70
     0
  0
APPID
  2
ASM_GRUPPI
 70
     0
  0
APPID
  2
ASM_CADM_ALBERO
 70
     0
  0
APPID
  2
ASM_GOLE
 70
     0
  0
APPID
  2
ACAD_MLEADERVER
 70
     0
  0
APPID
  2
ACAD_NAV_VCDISPLAY
 70
     0
  0
ENDTAB
  0
TABLE
  2
DIMSTYLE
 70
     1
  0
DIMSTYLE
  2
STANDARD
 70
     0
  3

  4

  5

  6

  7

 40
1.0
 41
0.18
 42
0.0625
 43
0.38
 44
0.18
 45
0.0
 46
0.0
 47
0.0
 48
0.0
140
0.18
141
0.09
142
0.0
143
25.399999999999999
144
1.0
145
0.0
146
1.0
147
0.09
 71
     0
 72
     0
 73
     1
 74
     1
 75
     0
 76
     0
 77
     0
 78
     0
170
     0
171
     2
172
     0
173
     0
174
     0
175
     0
176
     0
177
     0
178
     0
  0
ENDTAB
  0
ENDSEC
  0
SECTION
  2
BLOCKS
  0
BLOCK
  8
0
  2
$MODEL_SPACE
 70
     0
 10
0.0
 20
0.0
 30
0.0
  3
$MODEL_SPACE
  1

  0
ENDBLK
  5
3C
  8
0
  0
BLOCK
 67
     1
  8
0
  2
$PAPER_SPACE
 70
     0
 10
0.0
 20
0.0
 30
0.0
  3
$PAPER_SPACE
  1

  0
ENDBLK
  5
3A
 67
     1
  8
0
  0
ENDSEC
  0
SECTION
  2
ENTITIES
  0
CIRCLE
  5
286E
  8
0
 10
28.34410340204402
 20
40.043749065390898
 30
0.0
 40
3.75
  0
CIRCLE
  5
286F
  8
0
 10
28.34410340204402
 20
40.043749065390898
 30
0.0
 40
3.2499999999999969
  0
LINE
  5
2870
  8
0
 10
61.015883341079991
 20
41.923749065390894
 30
0.0
 11
61.015883341079991
 21
38.163749065390903
 31
0.0
  0
LINE
  5
2871
  8
0
 10
60.41588334107999
 20
37.56374906539088
 30
0.0
 11
60.41588334107999
 21
42.523749065390881
 31
0.0
  0
LINE
  5
2872
  8
0
 10
59.015883341079991
 20
37.54374906539087
 30
0.0
 11
59.015883341079991
 21
40.043749065390898
 31
0.0
  0
LINE
  5
2873
  8
0
 10
59.015883341079991
 20
40.043749065390898
 30
0.0
 11
59.015883341079991
 21
42.543749065390898
 31
0.0
  0
LINE
  5
2874
  8
0
 10
53.015883341079991
 20
36.793749065390898
 30
0.0
 11
53.015883341079991
 21
40.043749065390898
 31
0.0
  0
LINE
  5
2875
  8
0
 10
53.015883341079991
 20
40.043749065390898
 30
0.0
 11
53.015883341079991
 21
43.293749065390891
 31
0.0
  0
LINE
  5
2876
  8
0
 10
56.015883341079991
 20
36.293749065390898
 30
0.0
 11
56.015883341079991
 21
40.043749065390898
 31
0.0
  0
LINE
  5
2877
  8
0
 10
56.015883341079991
 20
40.043749065390898
 30
0.0
 11
56.015883341079991
 21
43.793749065390898
 31
0.0
  0
LINE
  5
2878
  8
0
 10
53.515883341079991
 20
36.293749065390898
 30
0.0
 11
53.515883341079991
 21
40.043749065390898
 31
0.0
  0
LINE
  5
2879
  8
0
 10
53.515883341079991
 20
40.043749065390898
 30
0.0
 11
53.515883341079991
 21
43.793749065390898
 31
0.0
  0
POLYLINE
  8
0
  5
2BD5
  66
     1
 10
0.000000
 20
0.000000
 30
0.000000
  70
     8
  0
VERTEX
  8
0
  5
2BD6
 10
61.0159
 20
41.9237
 30
0.000000
  70
    32
  0
VERTEX
  8
0
  5
2BD7
 10
61.0064
 20
41.9333
 30
0.000000
  70
    32
  0
VERTEX
  8
0
  5
2BD8
 10
60.9968
 20
41.9428
 30
0.000000
  70
    32
  0
VERTEX
  8
0
  5
2BD9
 10
60.9873
 20
41.9523
 30
0.000000
  70
    32
  0
VERTEX
  8
0
  5
2BDA
 10
60.9778
 20
41.9618
 30
0.000000
  70
    32
  0
VERTEX
  8
0
  5
2BDB
 10
60.9683
 20
41.9714
 30
0.000000
  70
    32
  0
VERTEX
  8
0
  5
2BDC
 10
60.9587
 20
41.9809
 30
0.000000
  70
    32
  0
VERTEX
  8
0
  5
2BDD
 10
60.9492
 20
41.9904
 30
0.000000
  70
    32
  0
VERTEX
  8
0
  5
2BDE
 10
60.9397
 20
41.9999
 30
0.000000
  70
    32
  0
VERTEX
  8
0
  5
2BDF
 10
60.9302
 20
42.0095
 30
0.000000
  70
    32
  0
VERTEX
  8
0
  5
2BE0
 10
60.9206
 20
42.0190
 30
0.000000
  70
    32
  0
VERTEX
  8
0
  5
2BE1
 10
60.9111
 20
42.0285
 30
0.000000
  70
    32
  0
VERTEX
  8
0
  5
2BE2
 10
60.9016
 20
42.0380
 30
0.000000
  70
    32
  0
VERTEX
  8
0
  5
2BE3
 10
60.8921
 20
42.0476
 30
0.000000
  70
    32
  0
VERTEX
  8
0
  5
2BE4
 10
60.8826
 20
42.0571
 30
0.000000
  70
    32
  0
VERTEX
  8
0
  5
2BE5
 10
60.8730
 20
42.0666
 30
0.000000
  70
    32
  0
VERTEX
  8
0
  5
2BE6
 10
60.8635
 20
42.0761
 30
0.000000
  70
    32
  0
VERTEX
  8
0
  5
2BE7
 10
60.8540
 20
42.0857
 30
0.000000
  70
    32
  0
VERTEX
  8
0
  5
2BE8
 10
60.8445
 20
42.0952
 30
0.000000
  70
    32
  0
VERTEX
  8
0
  5
2BE9
 10
60.8349
 20
42.1047
 30
0.000000
  70
    32
  0
VERTEX
  8
0
  5
2BEA
 10
60.8254
 20
42.1142
 30
0.000000
  70
    32
  0
VERTEX
  8
0
  5
2BEB
 10
60.8159
 20
42.1237
 30
0.000000
  70
    32
  0
VERTEX
  8
0
  5
2BEC
 10
60.8064
 20
42.1333
 30
0.000000
  70
    32
  0
VERTEX
  8
0
  5
2BED
 10
60.7968
 20
42.1428
 30
0.000000
  70
    32
  0
VERTEX
  8
0
  5
2BEE
 10
60.7873
 20
42.1523
 30
0.000000
  70
    32
  0
VERTEX
  8
0
  5
2BEF
 10
60.7778
 20
42.1618
 30
0.000000
  70
    32
  0
VERTEX
  8
0
  5
2BF0
 10
60.7683
 20
42.1714
 30
0.000000
  70
    32
  0
VERTEX
  8
0
  5
2BF1
 10
60.7587
 20
42.1809
 30
0.000000
  70
    32
  0
VERTEX
  8
0
  5
2BF2
 10
60.7492
 20
42.1904
 30
0.000000
  70
    32
  0
VERTEX
  8
0
  5
2BF3
 10
60.7397
 20
42.1999
 30
0.000000
  70
    32
  0
VERTEX
  8
0
  5
2BF4
 10
60.7302
 20
42.2095
 30
0.000000
  70
    32
  0
VERTEX
  8
0
  5
2BF5
 10
60.7206
 20
42.2190
 30
0.000000
  70
    32
  0
VERTEX
  8
0
  5
2BF6
 10
60.7111
 20
42.2285
 30
0.000000
  70
    32
  0
VERTEX
  8
0
  5
2BF7
 10
60.7016
 20
42.2380
 30
0.000000
  70
    32
  0
VERTEX
  8
0
  5
2BF8
 10
60.6921
 20
42.2476
 30
0.000000
  70
    32
  0
VERTEX
  8
0
  5
2BF9
 10
60.6826
 20
42.2571
 30
0.000000
  70
    32
  0
VERTEX
  8
0
  5
2BFA
 10
60.6730
 20
42.2666
 30
0.000000
  70
    32
  0
VERTEX
  8
0
  5
2BFB
 10
60.6635
 20
42.2761
 30
0.000000
  70
    32
  0
VERTEX
  8
0
  5
2BFC
 10
60.6540
 20
42.2857
 30
0.000000
  70
    32
  0
VERTEX
  8
0
  5
2BFD
 10
60.6445
 20
42.2952
 30
0.000000
  70
    32
  0
VERTEX
  8
0
  5
2BFE
 10
60.6349
 20
42.3047
 30
0.000000
  70
    32
  0
VERTEX
  8
0
  5
2BFF
 10
60.6254
 20
42.3142
 30
0.000000
  70
    32
  0
VERTEX
  8
0
  5
2C00
 10
60.6159
 20
42.3237
 30
0.000000
  70
    32
  0
VERTEX
  8
0
  5
2C01
 10
60.6064
 20
42.3333
 30
0.000000
  70
    32
  0
VERTEX
  8
0
  5
2C02
 10
60.5968
 20
42.3428
 30
0.000000
  70
    32
  0
VERTEX
  8
0
  5
2C03
 10
60.5873
 20
42.3523
 30
0.000000
  70
    32
  0
VERTEX
  8
0
  5
2C04
 10
60.5778
 20
42.3618
 30
0.000000
  70
    32
  0
VERTEX
  8
0
  5
2C05
 10
60.5683
 20
42.3714
 30
0.000000
  70
    32
  0
VERTEX
  8
0
  5
2C06
 10
60.5587
 20
42.3809
 30
0.000000
  70
    32
  0
VERTEX
  8
0
  5
2C07
 10
60.5492
 20
42.3904
 30
0.000000
  70
    32
  0
VERTEX
  8
0
  5
2C08
 10
60.5397
 20
42.3999
 30
0.000000
  70
    32
  0
VERTEX
  8
0
  5
2C09
 10
60.5302
 20
42.4095
 30
0.000000
  70
    32
  0
VERTEX
  8
0
  5
2C0A
 10
60.5206
 20
42.4190
 30
0.000000
  70
    32
  0
VERTEX
  8
0
  5
2C0B
 10
60.5111
 20
42.4285
 30
0.000000
  70
    32
  0
VERTEX
  8
0
  5
2C0C
 10
60.5016
 20
42.4380
 30
0.000000
  70
    32
  0
VERTEX
  8
0
  5
2C0D
 10
60.4921
 20
42.4476
 30
0.000000
  70
    32
  0
VERTEX
  8
0
  5
2C0E
 10
60.4826
 20
42.4571
 30
0.000000
  70
    32
  0
VERTEX
  8
0
  5
2C0F
 10
60.4730
 20
42.4666
 30
0.000000
  70
    32
  0
VERTEX
  8
0
  5
2C10
 10
60.4635
 20
42.4761
 30
0.000000
  70
    32
  0
VERTEX
  8
0
  5
2C11
 10
60.4540
 20
42.4857
 30
0.000000
  70
    32
  0
VERTEX
  8
0
  5
2C12
 10
60.4445
 20
42.4952
 30
0.000000
  70
    32
  0
VERTEX
  8
0
  5
2C13
 10
60.4349
 20
42.5047
 30
0.000000
  70
    32
  0
VERTEX
  8
0
  5
2C14
 10
60.4254
 20
42.5142
 30
0.000000
  70
    32
  0
VERTEX
  8
0
  5
2C15
 10
60.4159
 20
42.5237
 30
0.000000
  70
    32
  0
SEQEND
  8
0
  5
2C16
  0
POLYLINE
  8
0
  5
2C17
  66
     1
 10
0.000000
 20
0.000000
 30
0.000000
  70
     8
  0
VERTEX
  8
0
  5
2C18
 10
60.4159
 20
37.5637
 30
0.000000
  70
    32
  0
VERTEX
  8
0
  5
2C19
 10
60.4254
 20
37.5733
 30
0.000000
  70
    32
  0
VERTEX
  8
0
  5
2C1A
 10
60.4349
 20
37.5828
 30
0.000000
  70
    32
  0
VERTEX
  8
0
  5
2C1B
 10
60.4445
 20
37.5923
 30
0.000000
  70
    32
  0
VERTEX
  8
0
  5
2C1C
 10
60.4540
 20
37.6018
 30
0.000000
  70
    32
  0
VERTEX
  8
0
  5
2C1D
 10
60.4635
 20
37.6114
 30
0.000000
  70
    32
  0
VERTEX
  8
0
  5
2C1E
 10
60.4730
 20
37.6209
 30
0.000000
  70
    32
  0
VERTEX
  8
0
  5
2C1F
 10
60.4826
 20
37.6304
 30
0.000000
  70
    32
  0
VERTEX
  8
0
  5
2C20
 10
60.4921
 20
37.6399
 30
0.000000
  70
    32
  0
VERTEX
  8
0
  5
2C21
 10
60.5016
 20
37.6495
 30
0.000000
  70
    32
  0
VERTEX
  8
0
  5
2C22
 10
60.5111
 20
37.6590
 30
0.000000
  70
    32
  0
VERTEX
  8
0
  5
2C23
 10
60.5206
 20
37.6685
 30
0.000000
  70
    32
  0
VERTEX
  8
0
  5
2C24
 10
60.5302
 20
37.6780
 30
0.000000
  70
    32
  0
VERTEX
  8
0
  5
2C25
 10
60.5397
 20
37.6876
 30
0.000000
  70
    32
  0
VERTEX
  8
0
  5
2C26
 10
60.5492
 20
37.6971
 30
0.000000
  70
    32
  0
VERTEX
  8
0
  5
2C27
 10
60.5587
 20
37.7066
 30
0.000000
  70
    32
  0
VERTEX
  8
0
  5
2C28
 10
60.5683
 20
37.7161
 30
0.000000
  70
    32
  0
VERTEX
  8
0
  5
2C29
 10
60.5778
 20
37.7257
 30
0.000000
  70
    32
  0
VERTEX
  8
0
  5
2C2A
 10
60.5873
 20
37.7352
 30
0.000000
  70
    32
  0
VERTEX
  8
0
  5
2C2B
 10
60.5968
 20
37.7447
 30
0.000000
  70
    32
  0
VERTEX
  8
0
  5
2C2C
 10
60.6064
 20
37.7542
 30
0.000000
  70
    32
  0
VERTEX
  8
0
  5
2C2D
 10
60.6159
 20
37.7637
 30
0.000000
  70
    32
  0
VERTEX
  8
0
  5
2C2E
 10
60.6254
 20
37.7733
 30
0.000000
  70
    32
  0
VERTEX
  8
0
  5
2C2F
 10
60.6349
 20
37.7828
 30
0.000000
  70
    32
  0
VERTEX
  8
0
  5
2C30
 10
60.6445
 20
37.7923
 30
0.000000
  70
    32
  0
VERTEX
  8
0
  5
2C31
 10
60.6540
 20
37.8018
 30
0.000000
  70
    32
  0
VERTEX
  8
0
  5
2C32
 10
60.6635
 20
37.8114
 30
0.000000
  70
    32
  0
VERTEX
  8
0
  5
2C33
 10
60.6730
 20
37.8209
 30
0.000000
  70
    32
  0
VERTEX
  8
0
  5
2C34
 10
60.6826
 20
37.8304
 30
0.000000
  70
    32
  0
VERTEX
  8
0
  5
2C35
 10
60.6921
 20
37.8399
 30
0.000000
  70
    32
  0
VERTEX
  8
0
  5
2C36
 10
60.7016
 20
37.8495
 30
0.000000
  70
    32
  0
VERTEX
  8
0
  5
2C37
 10
60.7111
 20
37.8590
 30
0.000000
  70
    32
  0
VERTEX
  8
0
  5
2C38
 10
60.7206
 20
37.8685
 30
0.000000
  70
    32
  0
VERTEX
  8
0
  5
2C39
 10
60.7302
 20
37.8780
 30
0.000000
  70
    32
  0
VERTEX
  8
0
  5
2C3A
 10
60.7397
 20
37.8876
 30
0.000000
  70
    32
  0
VERTEX
  8
0
  5
2C3B
 10
60.7492
 20
37.8971
 30
0.000000
  70
    32
  0
VERTEX
  8
0
  5
2C3C
 10
60.7587
 20
37.9066
 30
0.000000
  70
    32
  0
VERTEX
  8
0
  5
2C3D
 10
60.7683
 20
37.9161
 30
0.000000
  70
    32
  0
VERTEX
  8
0
  5
2C3E
 10
60.7778
 20
37.9257
 30
0.000000
  70
    32
  0
VERTEX
  8
0
  5
2C3F
 10
60.7873
 20
37.9352
 30
0.000000
  70
    32
  0
VERTEX
  8
0
  5
2C40
 10
60.7968
 20
37.9447
 30
0.000000
  70
    32
  0
VERTEX
  8
0
  5
2C41
 10
60.8064
 20
37.9542
 30
0.000000
  70
    32
  0
VERTEX
  8
0
  5
2C42
 10
60.8159
 20
37.9637
 30
0.000000
  70
    32
  0
VERTEX
  8
0
  5
2C43
 10
60.8254
 20
37.9733
 30
0.000000
  70
    32
  0
VERTEX
  8
0
  5
2C44
 10
60.8349
 20
37.9828
 30
0.000000
  70
    32
  0
VERTEX
  8
0
  5
2C45
 10
60.8445
 20
37.9923
 30
0.000000
  70
    32
  0
VERTEX
  8
0
  5
2C46
 10
60.8540
 20
38.0018
 30
0.000000
  70
    32
  0
VERTEX
  8
0
  5
2C47
 10
60.8635
 20
38.0114
 30
0.000000
  70
    32
  0
VERTEX
  8
0
  5
2C48
 10
60.8730
 20
38.0209
 30
0.000000
  70
    32
  0
VERTEX
  8
0
  5
2C49
 10
60.8826
 20
38.0304
 30
0.000000
  70
    32
  0
VERTEX
  8
0
  5
2C4A
 10
60.8921
 20
38.0399
 30
0.000000
  70
    32
  0
VERTEX
  8
0
  5
2C4B
 10
60.9016
 20
38.0495
 30
0.000000
  70
    32
  0
VERTEX
  8
0
  5
2C4C
 10
60.9111
 20
38.0590
 30
0.000000
  70
    32
  0
VERTEX
  8
0
  5
2C4D
 10
60.9206
 20
38.0685
 30
0.000000
  70
    32
  0
VERTEX
  8
0
  5
2C4E
 10
60.9302
 20
38.0780
 30
0.000000
  70
    32
  0
VERTEX
  8
0
  5
2C4F
 10
60.9397
 20
38.0876
 30
0.000000
  70
    32
  0
VERTEX
  8
0
  5
2C50
 10
60.9492
 20
38.0971
 30
0.000000
  70
    32
  0
VERTEX
  8
0
  5
2C51
 10
60.9587
 20
38.1066
 30
0.000000
  70
    32
  0
VERTEX
  8
0
  5
2C52
 10
60.9683
 20
38.1161
 30
0.000000
  70
    32
  0
VERTEX
  8
0
  5
2C53
 10
60.9778
 20
38.1257
 30
0.000000
  70
    32
  0
VERTEX
  8
0
  5
2C54
 10
60.9873
 20
38.1352
 30
0.000000
  70
    32
  0
VERTEX
  8
0
  5
2C55
 10
60.9968
 20
38.1447
 30
0.000000
  70
    32
  0
VERTEX
  8
0
  5
2C56
 10
61.0064
 20
38.1542
 30
0.000000
  70
    32
  0
VERTEX
  8
0
  5
2C57
 10
61.0159
 20
38.1637
 30
0.000000
  70
    32
  0
SEQEND
  8
0
  5
2C58
  0
POLYLINE
  8
0
  5
2C59
  66
     1
 10
0.000000
 20
0.000000
 30
0.000000
  70
     8
  0
VERTEX
  8
0
  5
2C5A
 10
60.4159
 20
42.5237
 30
0.000000
  70
    32
  0
VERTEX
  8
0
  5
2C5B
 10
60.3937
 20
42.5237
 30
0.000000
  70
    32
  0
VERTEX
  8
0
  5
2C5C
 10
60.3714
 20
42.5237
 30
0.000000
  70
    32
  0
VERTEX
  8
0
  5
2C5D
 10
60.3492
 20
42.5237
 30
0.000000
  70
    32
  0
VERTEX
  8
0
  5
2C5E
 10
60.3270
 20
42.5237
 30
0.000000
  70
    32
  0
VERTEX
  8
0
  5
2C5F
 10
60.3048
 20
42.5237
 30
0.000000
  70
    32
  0
VERTEX
  8
0
  5
2C60
 10
60.2826
 20
42.5237
 30
0.000000
  70
    32
  0
VERTEX
  8
0
  5
2C61
 10
60.2603
 20
42.5237
 30
0.000000
  70
    32
  0
VERTEX
  8
0
  5
2C62
 10
60.2381
 20
42.5237
 30
0.000000
  70
    32
  0
VERTEX
  8
0
  5
2C63
 10
60.2159
 20
42.5237
 30
0.000000
  70
    32
  0
VERTEX
  8
0
  5
2C64
 10
60.1937
 20
42.5237
 30
0.000000
  70
    32
  0
VERTEX
  8
0
  5
2C65
 10
60.1714
 20
42.5237
 30
0.000000
  70
    32
  0
VERTEX
  8
0
  5
2C66
 10
60.1492
 20
42.5237
 30
0.000000
  70
    32
  0
VERTEX
  8
0
  5
2C67
 10
60.1270
 20
42.5237
 30
0.000000
  70
    32
  0
VERTEX
  8
0
  5
2C68
 10
60.1048
 20
42.5237
 30
0.000000
  70
    32
  0
VERTEX
  8
0
  5
2C69
 10
60.0826
 20
42.5237
 30
0.000000
  70
    32
  0
VERTEX
  8
0
  5
2C6A
 10
60.0603
 20
42.5237
 30
0.000000
  70
    32
  0
VERTEX
  8
0
  5
2C6B
 10
60.0381
 20
42.5237
 30
0.000000
  70
    32
  0
VERTEX
  8
0
  5
2C6C
 10
60.0159
 20
42.5237
 30
0.000000
  70
    32
  0
VERTEX
  8
0
  5
2C6D
 10
59.9937
 20
42.5237
 30
0.000000
  70
    32
  0
VERTEX
  8
0
  5
2C6E
 10
59.9714
 20
42.5237
 30
0.000000
  70
    32
  0
VERTEX
  8
0
  5
2C6F
 10
59.9492
 20
42.5237
 30
0.000000
  70
    32
  0
VERTEX
  8
0
  5
2C70
 10
59.9270
 20
42.5237
 30
0.000000
  70
    32
  0
VERTEX
  8
0
  5
2C71
 10
59.9048
 20
42.5237
 30
0.000000
  70
    32
  0
VERTEX
  8
0
  5
2C72
 10
59.8826
 20
42.5237
 30
0.000000
  70
    32
  0
VERTEX
  8
0
  5
2C73
 10
59.8603
 20
42.5237
 30
0.000000
  70
    32
  0
VERTEX
  8
0
  5
2C74
 10
59.8381
 20
42.5237
 30
0.000000
  70
    32
  0
VERTEX
  8
0
  5
2C75
 10
59.8159
 20
42.5237
 30
0.000000
  70
    32
  0
VERTEX
  8
0
  5
2C76
 10
59.7937
 20
42.5237
 30
0.000000
  70
    32
  0
VERTEX
  8
0
  5
2C77
 10
59.7714
 20
42.5237
 30
0.000000
  70
    32
  0
VERTEX
  8
0
  5
2C78
 10
59.7492
 20
42.5237
 30
0.000000
  70
    32
  0
VERTEX
  8
0
  5
2C79
 10
59.7270
 20
42.5237
 30
0.000000
  70
    32
  0
VERTEX
  8
0
  5
2C7A
 10
59.7048
 20
42.5237
 30
0.000000
  70
    32
  0
VERTEX
  8
0
  5
2C7B
 10
59.6826
 20
42.5237
 30
0.000000
  70
    32
  0
VERTEX
  8
0
  5
2C7C
 10
59.6603
 20
42.5237
 30
0.000000
  70
    32
  0
VERTEX
  8
0
  5
2C7D
 10
59.6381
 20
42.5237
 30
0.000000
  70
    32
  0
VERTEX
  8
0
  5
2C7E
 10
59.6159
 20
42.5237
 30
0.000000
  70
    32
  0
VERTEX
  8
0
  5
2C7F
 10
59.5937
 20
42.5237
 30
0.000000
  70
    32
  0
VERTEX
  8
0
  5
2C80
 10
59.5714
 20
42.5237
 30
0.000000
  70
    32
  0
VERTEX
  8
0
  5
2C81
 10
59.5492
 20
42.5237
 30
0.000000
  70
    32
  0
VERTEX
  8
0
  5
2C82
 10
59.5270
 20
42.5237
 30
0.000000
  70
    32
  0
VERTEX
  8
0
  5
2C83
 10
59.5048
 20
42.5237
 30
0.000000
  70
    32
  0
VERTEX
  8
0
  5
2C84
 10
59.4826
 20
42.5237
 30
0.000000
  70
    32
  0
VERTEX
  8
0
  5
2C85
 10
59.4603
 20
42.5237
 30
0.000000
  70
    32
  0
VERTEX
  8
0
  5
2C86
 10
59.4381
 20
42.5237
 30
0.000000
  70
    32
  0
VERTEX
  8
0
  5
2C87
 10
59.4159
 20
42.5237
 30
0.000000
  70
    32
  0
VERTEX
  8
0
  5
2C88
 10
59.3937
 20
42.5237
 30
0.000000
  70
    32
  0
VERTEX
  8
0
  5
2C89
 10
59.3714
 20
42.5237
 30
0.000000
  70
    32
  0
VERTEX
  8
0
  5
2C8A
 10
59.3492
 20
42.5237
 30
0.000000
  70
    32
  0
VERTEX
  8
0
  5
2C8B
 10
59.3270
 20
42.5237
 30
0.000000
  70
    32
  0
VERTEX
  8
0
  5
2C8C
 10
59.3048
 20
42.5237
 30
0.000000
  70
    32
  0
VERTEX
  8
0
  5
2C8D
 10
59.2826
 20
42.5237
 30
0.000000
  70
    32
  0
VERTEX
  8
0
  5
2C8E
 10
59.2603
 20
42.5237
 30
0.000000
  70
    32
  0
VERTEX
  8
0
  5
2C8F
 10
59.2381
 20
42.5237
 30
0.000000
  70
    32
  0
VERTEX
  8
0
  5
2C90
 10
59.2159
 20
42.5237
 30
0.000000
  70
    32
  0
VERTEX
  8
0
  5
2C91
 10
59.1937
 20
42.5237
 30
0.000000
  70
    32
  0
VERTEX
  8
0
  5
2C92
 10
59.1714
 20
42.5237
 30
0.000000
  70
    32
  0
VERTEX
  8
0
  5
2C93
 10
59.1492
 20
42.5237
 30
0.000000
  70
    32
  0
VERTEX
  8
0
  5
2C94
 10
59.1270
 20
42.5237
 30
0.000000
  70
    32
  0
VERTEX
  8
0
  5
2C95
 10
59.1048
 20
42.5237
 30
0.000000
  70
    32
  0
VERTEX
  8
0
  5
2C96
 10
59.0826
 20
42.5237
 30
0.000000
  70
    32
  0
VERTEX
  8
0
  5
2C97
 10
59.0603
 20
42.5237
 30
0.000000
  70
    32
  0
VERTEX
  8
0
  5
2C98
 10
59.0381
 20
42.5237
 30
0.000000
  70
    32
  0
VERTEX
  8
0
  5
2C99
 10
59.0159
 20
42.5237
 30
0.000000
  70
    32
  0
SEQEND
  8
0
  5
2C9A
  0
POLYLINE
  8
0
  5
2C9B
  66
     1
 10
0.000000
 20
0.000000
 30
0.000000
  70
     8
  0
VERTEX
  8
0
  5
2C9C
 10
59.0159
 20
37.5637
 30
0.000000
  70
    32
  0
VERTEX
  8
0
  5
2C9D
 10
59.0381
 20
37.5637
 30
0.000000
  70
    32
  0
VERTEX
  8
0
  5
2C9E
 10
59.0603
 20
37.5637
 30
0.000000
  70
    32
  0
VERTEX
  8
0
  5
2C9F
 10
59.0826
 20
37.5637
 30
0.000000
  70
    32
  0
VERTEX
  8
0
  5
2CA0
 10
59.1048
 20
37.5637
 30
0.000000
  70
    32
  0
VERTEX
  8
0
  5
2CA1
 10
59.1270
 20
37.5637
 30
0.000000
  70
    32
  0
VERTEX
  8
0
  5
2CA2
 10
59.1492
 20
37.5637
 30
0.000000
  70
    32
  0
VERTEX
  8
0
  5
2CA3
 10
59.1714
 20
37.5637
 30
0.000000
  70
    32
  0
VERTEX
  8
0
  5
2CA4
 10
59.1937
 20
37.5637
 30
0.000000
  70
    32
  0
VERTEX
  8
0
  5
2CA5
 10
59.2159
 20
37.5637
 30
0.000000
  70
    32
  0
VERTEX
  8
0
  5
2CA6
 10
59.2381
 20
37.5637
 30
0.000000
  70
    32
  0
VERTEX
  8
0
  5
2CA7
 10
59.2603
 20
37.5637
 30
0.000000
  70
    32
  0
VERTEX
  8
0
  5
2CA8
 10
59.2826
 20
37.5637
 30
0.000000
  70
    32
  0
VERTEX
  8
0
  5
2CA9
 10
59.3048
 20
37.5637
 30
0.000000
  70
    32
  0
VERTEX
  8
0
  5
2CAA
 10
59.3270
 20
37.5637
 30
0.000000
  70
    32
  0
VERTEX
  8
0
  5
2CAB
 10
59.3492
 20
37.5637
 30
0.000000
  70
    32
  0
VERTEX
  8
0
  5
2CAC
 10
59.3714
 20
37.5637
 30
0.000000
  70
    32
  0
VERTEX
  8
0
  5
2CAD
 10
59.3937
 20
37.5637
 30
0.000000
  70
    32
  0
VERTEX
  8
0
  5
2CAE
 10
59.4159
 20
37.5637
 30
0.000000
  70
    32
  0
VERTEX
  8
0
  5
2CAF
 10
59.4381
 20
37.5637
 30
0.000000
  70
    32
  0
VERTEX
  8
0
  5
2CB0
 10
59.4603
 20
37.5637
 30
0.000000
  70
    32
  0
VERTEX
  8
0
  5
2CB1
 10
59.4826
 20
37.5637
 30
0.000000
  70
    32
  0
VERTEX
  8
0
  5
2CB2
 10
59.5048
 20
37.5637
 30
0.000000
  70
    32
  0
VERTEX
  8
0
  5
2CB3
 10
59.5270
 20
37.5637
 30
0.000000
  70
    32
  0
VERTEX
  8
0
  5
2CB4
 10
59.5492
 20
37.5637
 30
0.000000
  70
    32
  0
VERTEX
  8
0
  5
2CB5
 10
59.5714
 20
37.5637
 30
0.000000
  70
    32
  0
VERTEX
  8
0
  5
2CB6
 10
59.5937
 20
37.5637
 30
0.000000
  70
    32
  0
VERTEX
  8
0
  5
2CB7
 10
59.6159
 20
37.5637
 30
0.000000
  70
    32
  0
VERTEX
  8
0
  5
2CB8
 10
59.6381
 20
37.5637
 30
0.000000
  70
    32
  0
VERTEX
  8
0
  5
2CB9
 10
59.6603
 20
37.5637
 30
0.000000
  70
    32
  0
VERTEX
  8
0
  5
2CBA
 10
59.6826
 20
37.5637
 30
0.000000
  70
    32
  0
VERTEX
  8
0
  5
2CBB
 10
59.7048
 20
37.5637
 30
0.000000
  70
    32
  0
VERTEX
  8
0
  5
2CBC
 10
59.7270
 20
37.5637
 30
0.000000
  70
    32
  0
VERTEX
  8
0
  5
2CBD
 10
59.7492
 20
37.5637
 30
0.000000
  70
    32
  0
VERTEX
  8
0
  5
2CBE
 10
59.7714
 20
37.5637
 30
0.000000
  70
    32
  0
VERTEX
  8
0
  5
2CBF
 10
59.7937
 20
37.5637
 30
0.000000
  70
    32
  0
VERTEX
  8
0
  5
2CC0
 10
59.8159
 20
37.5637
 30
0.000000
  70
    32
  0
VERTEX
  8
0
  5
2CC1
 10
59.8381
 20
37.5637
 30
0.000000
  70
    32
  0
VERTEX
  8
0
  5
2CC2
 10
59.8603
 20
37.5637
 30
0.000000
  70
    32
  0
VERTEX
  8
0
  5
2CC3
 10
59.8826
 20
37.5637
 30
0.000000
  70
    32
  0
VERTEX
  8
0
  5
2CC4
 10
59.9048
 20
37.5637
 30
0.000000
  70
    32
  0
VERTEX
  8
0
  5
2CC5
 10
59.9270
 20
37.5637
 30
0.000000
  70
    32
  0
VERTEX
  8
0
  5
2CC6
 10
59.9492
 20
37.5637
 30
0.000000
  70
    32
  0
VERTEX
  8
0
  5
2CC7
 10
59.9714
 20
37.5637
 30
0.000000
  70
    32
  0
VERTEX
  8
0
  5
2CC8
 10
59.9937
 20
37.5637
 30
0.000000
  70
    32
  0
VERTEX
  8
0
  5
2CC9
 10
60.0159
 20
37.5637
 30
0.000000
  70
    32
  0
VERTEX
  8
0
  5
2CCA
 10
60.0381
 20
37.5637
 30
0.000000
  70
    32
  0
VERTEX
  8
0
  5
2CCB
 10
60.0603
 20
37.5637
 30
0.000000
  70
    32
  0
VERTEX
  8
0
  5
2CCC
 10
60.0826
 20
37.5637
 30
0.000000
  70
    32
  0
VERTEX
  8
0
  5
2CCD
 10
60.1048
 20
37.5637
 30
0.000000
  70
    32
  0
VERTEX
  8
0
  5
2CCE
 10
60.1270
 20
37.5637
 30
0.000000
  70
    32
  0
VERTEX
  8
0
  5
2CCF
 10
60.1492
 20
37.5637
 30
0.000000
  70
    32
  0
VERTEX
  8
0
  5
2CD0
 10
60.1714
 20
37.5637
 30
0.000000
  70
    32
  0
VERTEX
  8
0
  5
2CD1
 10
60.1937
 20
37.5637
 30
0.000000
  70
    32
  0
VERTEX
  8
0
  5
2CD2
 10
60.2159
 20
37.5637
 30
0.000000
  70
    32
  0
VERTEX
  8
0
  5
2CD3
 10
60.2381
 20
37.5637
 30
0.000000
  70
    32
  0
VERTEX
  8
0
  5
2CD4
 10
60.2603
 20
37.5637
 30
0.000000
  70
    32
  0
VERTEX
  8
0
  5
2CD5
 10
60.2826
 20
37.5637
 30
0.000000
  70
    32
  0
VERTEX
  8
0
  5
2CD6
 10
60.3048
 20
37.5637
 30
0.000000
  70
    32
  0
VERTEX
  8
0
  5
2CD7
 10
60.3270
 20
37.5637
 30
0.000000
  70
    32
  0
VERTEX
  8
0
  5
2CD8
 10
60.3492
 20
37.5637
 30
0.000000
  70
    32
  0
VERTEX
  8
0
  5
2CD9
 10
60.3714
 20
37.5637
 30
0.000000
  70
    32
  0
VERTEX
  8
0
  5
2CDA
 10
60.3937
 20
37.5637
 30
0.000000
  70
    32
  0
VERTEX
  8
0
  5
2CDB
 10
60.4159
 20
37.5637
 30
0.000000
  70
    32
  0
SEQEND
  8
0
  5
2CDC
  0
POLYLINE
  8
0
  5
2CDD
  66
     1
 10
0.000000
 20
0.000000
 30
0.000000
  70
     8
  0
VERTEX
  8
0
  5
2CDE
 10
59.0159
 20
42.5437
 30
0.000000
  70
    32
  0
VERTEX
  8
0
  5
2CDF
 10
58.9683
 20
42.5437
 30
0.000000
  70
    32
  0
VERTEX
  8
0
  5
2CE0
 10
58.9206
 20
42.5437
 30
0.000000
  70
    32
  0
VERTEX
  8
0
  5
2CE1
 10
58.8730
 20
42.5437
 30
0.000000
  70
    32
  0
VERTEX
  8
0
  5
2CE2
 10
58.8254
 20
42.5437
 30
0.000000
  70
    32
  0
VERTEX
  8
0
  5
2CE3
 10
58.7778
 20
42.5437
 30
0.000000
  70
    32
  0
VERTEX
  8
0
  5
2CE4
 10
58.7302
 20
42.5437
 30
0.000000
  70
    32
  0
VERTEX
  8
0
  5
2CE5
 10
58.6826
 20
42.5437
 30
0.000000
  70
    32
  0
VERTEX
  8
0
  5
2CE6
 10
58.6349
 20
42.5437
 30
0.000000
  70
    32
  0
VERTEX
  8
0
  5
2CE7
 10
58.5873
 20
42.5437
 30
0.000000
  70
    32
  0
VERTEX
  8
0
  5
2CE8
 10
58.5397
 20
42.5437
 30
0.000000
  70
    32
  0
VERTEX
  8
0
  5
2CE9
 10
58.4921
 20
42.5437
 30
0.000000
  70
    32
  0
VERTEX
  8
0
  5
2CEA
 10
58.4445
 20
42.5437
 30
0.000000
  70
    32
  0
VERTEX
  8
0
  5
2CEB
 10
58.3968
 20
42.5437
 30
0.000000
  70
    32
  0
VERTEX
  8
0
  5
2CEC
 10
58.3492
 20
42.5437
 30
0.000000
  70
    32
  0
VERTEX
  8
0
  5
2CED
 10
58.3016
 20
42.5437
 30
0.000000
  70
    32
  0
VERTEX
  8
0
  5
2CEE
 10
58.2540
 20
42.5437
 30
0.000000
  70
    32
  0
VERTEX
  8
0
  5
2CEF
 10
58.2064
 20
42.5437
 30
0.000000
  70
    32
  0
VERTEX
  8
0
  5
2CF0
 10
58.1587
 20
42.5437
 30
0.000000
  70
    32
  0
VERTEX
  8
0
  5
2CF1
 10
58.1111
 20
42.5437
 30
0.000000
  70
    32
  0
VERTEX
  8
0
  5
2CF2
 10
58.0635
 20
42.5437
 30
0.000000
  70
    32
  0
VERTEX
  8
0
  5
2CF3
 10
58.0159
 20
42.5437
 30
0.000000
  70
    32
  0
VERTEX
  8
0
  5
2CF4
 10
57.9683
 20
42.5437
 30
0.000000
  70
    32
  0
VERTEX
  8
0
  5
2CF5
 10
57.9206
 20
42.5437
 30
0.000000
  70
    32
  0
VERTEX
  8
0
  5
2CF6
 10
57.8730
 20
42.5437
 30
0.000000
  70
    32
  0
VERTEX
  8
0
  5
2CF7
 10
57.8254
 20
42.5437
 30
0.000000
  70
    32
  0
VERTEX
  8
0
  5
2CF8
 10
57.7778
 20
42.5437
 30
0.000000
  70
    32
  0
VERTEX
  8
0
  5
2CF9
 10
57.7302
 20
42.5437
 30
0.000000
  70
    32
  0
VERTEX
  8
0
  5
2CFA
 10
57.6826
 20
42.5437
 30
0.000000
  70
    32
  0
VERTEX
  8
0
  5
2CFB
 10
57.6349
 20
42.5437
 30
0.000000
  70
    32
  0
VERTEX
  8
0
  5
2CFC
 10
57.5873
 20
42.5437
 30
0.000000
  70
    32
  0
VERTEX
  8
0
  5
2CFD
 10
57.5397
 20
42.5437
 30
0.000000
  70
    32
  0
VERTEX
  8
0
  5
2CFE
 10
57.4921
 20
42.5437
 30
0.000000
  70
    32
  0
VERTEX
  8
0
  5
2CFF
 10
57.4445
 20
42.5437
 30
0.000000
  70
    32
  0
VERTEX
  8
0
  5
2D00
 10
57.3968
 20
42.5437
 30
0.000000
  70
    32
  0
VERTEX
  8
0
  5
2D01
 10
57.3492
 20
42.5437
 30
0.000000
  70
    32
  0
VERTEX
  8
0
  5
2D02
 10
57.3016
 20
42.5437
 30
0.000000
  70
    32
  0
VERTEX
  8
0
  5
2D03
 10
57.2540
 20
42.5437
 30
0.000000
  70
    32
  0
VERTEX
  8
0
  5
2D04
 10
57.2064
 20
42.5437
 30
0.000000
  70
    32
  0
VERTEX
  8
0
  5
2D05
 10
57.1587
 20
42.5437
 30
0.000000
  70
    32
  0
VERTEX
  8
0
  5
2D06
 10
57.1111
 20
42.5437
 30
0.000000
  70
    32
  0
VERTEX
  8
0
  5
2D07
 10
57.0635
 20
42.5437
 30
0.000000
  70
    32
  0
VERTEX
  8
0
  5
2D08
 10
57.0159
 20
42.5437
 30
0.000000
  70
    32
  0
VERTEX
  8
0
  5
2D09
 10
56.9683
 20
42.5437
 30
0.000000
  70
    32
  0
VERTEX
  8
0
  5
2D0A
 10
56.9206
 20
42.5437
 30
0.000000
  70
    32
  0
VERTEX
  8
0
  5
2D0B
 10
56.8730
 20
42.5437
 30
0.000000
  70
    32
  0
VERTEX
  8
0
  5
2D0C
 10
56.8254
 20
42.5437
 30
0.000000
  70
    32
  0
VERTEX
  8
0
  5
2D0D
 10
56.7778
 20
42.5437
 30
0.000000
  70
    32
  0
VERTEX
  8
0
  5
2D0E
 10
56.7302
 20
42.5437
 30
0.000000
  70
    32
  0
VERTEX
  8
0
  5
2D0F
 10
56.6826
 20
42.5437
 30
0.000000
  70
    32
  0
VERTEX
  8
0
  5
2D10
 10
56.6349
 20
42.5437
 30
0.000000
  70
    32
  0
VERTEX
  8
0
  5
2D11
 10
56.5873
 20
42.5437
 30
0.000000
  70
    32
  0
VERTEX
  8
0
  5
2D12
 10
56.5397
 20
42.5437
 30
0.000000
  70
    32
  0
VERTEX
  8
0
  5
2D13
 10
56.4921
 20
42.5437
 30
0.000000
  70
    32
  0
VERTEX
  8
0
  5
2D14
 10
56.4445
 20
42.5437
 30
0.000000
  70
    32
  0
VERTEX
  8
0
  5
2D15
 10
56.3968
 20
42.5437
 30
0.000000
  70
    32
  0
VERTEX
  8
0
  5
2D16
 10
56.3492
 20
42.5437
 30
0.000000
  70
    32
  0
VERTEX
  8
0
  5
2D17
 10
56.3016
 20
42.5437
 30
0.000000
  70
    32
  0
VERTEX
  8
0
  5
2D18
 10
56.2540
 20
42.5437
 30
0.000000
  70
    32
  0
VERTEX
  8
0
  5
2D19
 10
56.2064
 20
42.5437
 30
0.000000
  70
    32
  0
VERTEX
  8
0
  5
2D1A
 10
56.1587
 20
42.5437
 30
0.000000
  70
    32
  0
VERTEX
  8
0
  5
2D1B
 10
56.1111
 20
42.5437
 30
0.000000
  70
    32
  0
VERTEX
  8
0
  5
2D1C
 10
56.0635
 20
42.5437
 30
0.000000
  70
    32
  0
VERTEX
  8
0
  5
2D1D
 10
56.0159
 20
42.5437
 30
0.000000
  70
    32
  0
SEQEND
  8
0
  5
2D1E
  0
POLYLINE
  8
0
  5
2D1F
  66
     1
 10
0.000000
 20
0.000000
 30
0.000000
  70
     8
  0
VERTEX
  8
0
  5
2D20
 10
56.0159
 20
37.5437
 30
0.000000
  70
    32
  0
VERTEX
  8
0
  5
2D21
 10
56.0635
 20
37.5437
 30
0.000000
  70
    32
  0
VERTEX
  8
0
  5
2D22
 10
56.1111
 20
37.5437
 30
0.000000
  70
    32
  0
VERTEX
  8
0
  5
2D23
 10
56.1587
 20
37.5437
 30
0.000000
  70
    32
  0
VERTEX
  8
0
  5
2D24
 10
56.2064
 20
37.5437
 30
0.000000
  70
    32
  0
VERTEX
  8
0
  5
2D25
 10
56.2540
 20
37.5437
 30
0.000000
  70
    32
  0
VERTEX
  8
0
  5
2D26
 10
56.3016
 20
37.5437
 30
0.000000
  70
    32
  0
VERTEX
  8
0
  5
2D27
 10
56.3492
 20
37.5437
 30
0.000000
  70
    32
  0
VERTEX
  8
0
  5
2D28
 10
56.3968
 20
37.5437
 30
0.000000
  70
    32
  0
VERTEX
  8
0
  5
2D29
 10
56.4445
 20
37.5437
 30
0.000000
  70
    32
  0
VERTEX
  8
0
  5
2D2A
 10
56.4921
 20
37.5437
 30
0.000000
  70
    32
  0
VERTEX
  8
0
  5
2D2B
 10
56.5397
 20
37.5437
 30
0.000000
  70
    32
  0
VERTEX
  8
0
  5
2D2C
 10
56.5873
 20
37.5437
 30
0.000000
  70
    32
  0
VERTEX
  8
0
  5
2D2D
 10
56.6349
 20
37.5437
 30
0.000000
  70
    32
  0
VERTEX
  8
0
  5
2D2E
 10
56.6826
 20
37.5437
 30
0.000000
  70
    32
  0
VERTEX
  8
0
  5
2D2F
 10
56.7302
 20
37.5437
 30
0.000000
  70
    32
  0
VERTEX
  8
0
  5
2D30
 10
56.7778
 20
37.5437
 30
0.000000
  70
    32
  0
VERTEX
  8
0
  5
2D31
 10
56.8254
 20
37.5437
 30
0.000000
  70
    32
  0
VERTEX
  8
0
  5
2D32
 10
56.8730
 20
37.5437
 30
0.000000
  70
    32
  0
VERTEX
  8
0
  5
2D33
 10
56.9206
 20
37.5437
 30
0.000000
  70
    32
  0
VERTEX
  8
0
  5
2D34
 10
56.9683
 20
37.5437
 30
0.000000
  70
    32
  0
VERTEX
  8
0
  5
2D35
 10
57.0159
 20
37.5437
 30
0.000000
  70
    32
  0
VERTEX
  8
0
  5
2D36
 10
57.0635
 20
37.5437
 30
0.000000
  70
    32
  0
VERTEX
  8
0
  5
2D37
 10
57.1111
 20
37.5437
 30
0.000000
  70
    32
  0
VERTEX
  8
0
  5
2D38
 10
57.1587
 20
37.5437
 30
0.000000
  70
    32
  0
VERTEX
  8
0
  5
2D39
 10
57.2064
 20
37.5437
 30
0.000000
  70
    32
  0
VERTEX
  8
0
  5
2D3A
 10
57.2540
 20
37.5437
 30
0.000000
  70
    32
  0
VERTEX
  8
0
  5
2D3B
 10
57.3016
 20
37.5437
 30
0.000000
  70
    32
  0
VERTEX
  8
0
  5
2D3C
 10
57.3492
 20
37.5437
 30
0.000000
  70
    32
  0
VERTEX
  8
0
  5
2D3D
 10
57.3968
 20
37.5437
 30
0.000000
  70
    32
  0
VERTEX
  8
0
  5
2D3E
 10
57.4445
 20
37.5437
 30
0.000000
  70
    32
  0
VERTEX
  8
0
  5
2D3F
 10
57.4921
 20
37.5437
 30
0.000000
  70
    32
  0
VERTEX
  8
0
  5
2D40
 10
57.5397
 20
37.5437
 30
0.000000
  70
    32
  0
VERTEX
  8
0
  5
2D41
 10
57.5873
 20
37.5437
 30
0.000000
  70
    32
  0
VERTEX
  8
0
  5
2D42
 10
57.6349
 20
37.5437
 30
0.000000
  70
    32
  0
VERTEX
  8
0
  5
2D43
 10
57.6826
 20
37.5437
 30
0.000000
  70
    32
  0
VERTEX
  8
0
  5
2D44
 10
57.7302
 20
37.5437
 30
0.000000
  70
    32
  0
VERTEX
  8
0
  5
2D45
 10
57.7778
 20
37.5437
 30
0.000000
  70
    32
  0
VERTEX
  8
0
  5
2D46
 10
57.8254
 20
37.5437
 30
0.000000
  70
    32
  0
VERTEX
  8
0
  5
2D47
 10
57.8730
 20
37.5437
 30
0.000000
  70
    32
  0
VERTEX
  8
0
  5
2D48
 10
57.9206
 20
37.5437
 30
0.000000
  70
    32
  0
VERTEX
  8
0
  5
2D49
 10
57.9683
 20
37.5437
 30
0.000000
  70
    32
  0
VERTEX
  8
0
  5
2D4A
 10
58.0159
 20
37.5437
 30
0.000000
  70
    32
  0
VERTEX
  8
0
  5
2D4B
 10
58.0635
 20
37.5437
 30
0.000000
  70
    32
  0
VERTEX
  8
0
  5
2D4C
 10
58.1111
 20
37.5437
 30
0.000000
  70
    32
  0
VERTEX
  8
0
  5
2D4D
 10
58.1587
 20
37.5437
 30
0.000000
  70
    32
  0
VERTEX
  8
0
  5
2D4E
 10
58.2064
 20
37.5437
 30
0.000000
  70
    32
  0
VERTEX
  8
0
  5
2D4F
 10
58.2540
 20
37.5437
 30
0.000000
  70
    32
  0
VERTEX
  8
0
  5
2D50
 10
58.3016
 20
37.5437
 30
0.000000
  70
    32
  0
VERTEX
  8
0
  5
2D51
 10
58.3492
 20
37.5437
 30
0.000000
  70
    32
  0
VERTEX
  8
0
  5
2D52
 10
58.3968
 20
37.5437
 30
0.000000
  70
    32
  0
VERTEX
  8
0
  5
2D53
 10
58.4445
 20
37.5437
 30
0.000000
  70
    32
  0
VERTEX
  8
0
  5
2D54
 10
58.4921
 20
37.5437
 30
0.000000
  70
    32
  0
VERTEX
  8
0
  5
2D55
 10
58.5397
 20
37.5437
 30
0.000000
  70
    32
  0
VERTEX
  8
0
  5
2D56
 10
58.5873
 20
37.5437
 30
0.000000
  70
    32
  0
VERTEX
  8
0
  5
2D57
 10
58.6349
 20
37.5437
 30
0.000000
  70
    32
  0
VERTEX
  8
0
  5
2D58
 10
58.6826
 20
37.5437
 30
0.000000
  70
    32
  0
VERTEX
  8
0
  5
2D59
 10
58.7302
 20
37.5437
 30
0.000000
  70
    32
  0
VERTEX
  8
0
  5
2D5A
 10
58.7778
 20
37.5437
 30
0.000000
  70
    32
  0
VERTEX
  8
0
  5
2D5B
 10
58.8254
 20
37.5437
 30
0.000000
  70
    32
  0
VERTEX
  8
0
  5
2D5C
 10
58.8730
 20
37.5437
 30
0.000000
  70
    32
  0
VERTEX
  8
0
  5
2D5D
 10
58.9206
 20
37.5437
 30
0.000000
  70
    32
  0
VERTEX
  8
0
  5
2D5E
 10
58.9683
 20
37.5437
 30
0.000000
  70
    32
  0
VERTEX
  8
0
  5
2D5F
 10
59.0159
 20
37.5437
 30
0.000000
  70
    32
  0
SEQEND
  8
0
  5
2D60
  0
POLYLINE
  8
0
  5
2D61
  66
     1
 10
0.000000
 20
0.000000
 30
0.000000
  70
     8
  0
VERTEX
  8
0
  5
2D62
 10
53.0159
 20
36.7937
 30
0.000000
  70
    32
  0
VERTEX
  8
0
  5
2D63
 10
53.0238
 20
36.7858
 30
0.000000
  70
    32
  0
VERTEX
  8
0
  5
2D64
 10
53.0318
 20
36.7779
 30
0.000000
  70
    32
  0
VERTEX
  8
0
  5
2D65
 10
53.0397
 20
36.7699
 30
0.000000
  70
    32
  0
VERTEX
  8
0
  5
2D66
 10
53.0476
 20
36.7620
 30
0.000000
  70
    32
  0
VERTEX
  8
0
  5
2D67
 10
53.0556
 20
36.7541
 30
0.000000
  70
    32
  0
VERTEX
  8
0
  5
2D68
 10
53.0635
 20
36.7461
 30
0.000000
  70
    32
  0
VERTEX
  8
0
  5
2D69
 10
53.0714
 20
36.7382
 30
0.000000
  70
    32
  0
VERTEX
  8
0
  5
2D6A
 10
53.0794
 20
36.7303
 30
0.000000
  70
    32
  0
VERTEX
  8
0
  5
2D6B
 10
53.0873
 20
36.7223
 30
0.000000
  70
    32
  0
VERTEX
  8
0
  5
2D6C
 10
53.0952
 20
36.7144
 30
0.000000
  70
    32
  0
VERTEX
  8
0
  5
2D6D
 10
53.1032
 20
36.7064
 30
0.000000
  70
    32
  0
VERTEX
  8
0
  5
2D6E
 10
53.1111
 20
36.6985
 30
0.000000
  70
    32
  0
VERTEX
  8
0
  5
2D6F
 10
53.1191
 20
36.6906
 30
0.000000
  70
    32
  0
VERTEX
  8
0
  5
2D70
 10
53.1270
 20
36.6826
 30
0.000000
  70
    32
  0
VERTEX
  8
0
  5
2D71
 10
53.1349
 20
36.6747
 30
0.000000
  70
    32
  0
VERTEX
  8
0
  5
2D72
 10
53.1429
 20
36.6668
 30
0.000000
  70
    32
  0
VERTEX
  8
0
  5
2D73
 10
53.1508
 20
36.6588
 30
0.000000
  70
    32
  0
VERTEX
  8
0
  5
2D74
 10
53.1587
 20
36.6509
 30
0.000000
  70
    32
  0
VERTEX
  8
0
  5
2D75
 10
53.1667
 20
36.6430
 30
0.000000
  70
    32
  0
VERTEX
  8
0
  5
2D76
 10
53.1746
 20
36.6350
 30
0.000000
  70
    32
  0
VERTEX
  8
0
  5
2D77
 10
53.1826
 20
36.6271
 30
0.000000
  70
    32
  0
VERTEX
  8
0
  5
2D78
 10
53.1905
 20
36.6191
 30
0.000000
  70
    32
  0
VERTEX
  8
0
  5
2D79
 10
53.1984
 20
36.6112
 30
0.000000
  70
    32
  0
VERTEX
  8
0
  5
2D7A
 10
53.2064
 20
36.6033
 30
0.000000
  70
    32
  0
VERTEX
  8
0
  5
2D7B
 10
53.2143
 20
36.5953
 30
0.000000
  70
    32
  0
VERTEX
  8
0
  5
2D7C
 10
53.2222
 20
36.5874
 30
0.000000
  70
    32
  0
VERTEX
  8
0
  5
2D7D
 10
53.2302
 20
36.5795
 30
0.000000
  70
    32
  0
VERTEX
  8
0
  5
2D7E
 10
53.2381
 20
36.5715
 30
0.000000
  70
    32
  0
VERTEX
  8
0
  5
2D7F
 10
53.2460
 20
36.5636
 30
0.000000
  70
    32
  0
VERTEX
  8
0
  5
2D80
 10
53.2540
 20
36.5557
 30
0.000000
  70
    32
  0
VERTEX
  8
0
  5
2D81
 10
53.2619
 20
36.5477
 30
0.000000
  70
    32
  0
VERTEX
  8
0
  5
2D82
 10
53.2699
 20
36.5398
 30
0.000000
  70
    32
  0
VERTEX
  8
0
  5
2D83
 10
53.2778
 20
36.5318
 30
0.000000
  70
    32
  0
VERTEX
  8
0
  5
2D84
 10
53.2857
 20
36.5239
 30
0.000000
  70
    32
  0
VERTEX
  8
0
  5
2D85
 10
53.2937
 20
36.5160
 30
0.000000
  70
    32
  0
VERTEX
  8
0
  5
2D86
 10
53.3016
 20
36.5080
 30
0.000000
  70
    32
  0
VERTEX
  8
0
  5
2D87
 10
53.3095
 20
36.5001
 30
0.000000
  70
    32
  0
VERTEX
  8
0
  5
2D88
 10
53.3175
 20
36.4922
 30
0.000000
  70
    32
  0
VERTEX
  8
0
  5
2D89
 10
53.3254
 20
36.4842
 30
0.000000
  70
    32
  0
VERTEX
  8
0
  5
2D8A
 10
53.3333
 20
36.4763
 30
0.000000
  70
    32
  0
VERTEX
  8
0
  5
2D8B
 10
53.3413
 20
36.4684
 30
0.000000
  70
    32
  0
VERTEX
  8
0
  5
2D8C
 10
53.3492
 20
36.4604
 30
0.000000
  70
    32
  0
VERTEX
  8
0
  5
2D8D
 10
53.3572
 20
36.4525
 30
0.000000
  70
    32
  0
VERTEX
  8
0
  5
2D8E
 10
53.3651
 20
36.4445
 30
0.000000
  70
    32
  0
VERTEX
  8
0
  5
2D8F
 10
53.3730
 20
36.4366
 30
0.000000
  70
    32
  0
VERTEX
  8
0
  5
2D90
 10
53.3810
 20
36.4287
 30
0.000000
  70
    32
  0
VERTEX
  8
0
  5
2D91
 10
53.3889
 20
36.4207
 30
0.000000
  70
    32
  0
VERTEX
  8
0
  5
2D92
 10
53.3968
 20
36.4128
 30
0.000000
  70
    32
  0
VERTEX
  8
0
  5
2D93
 10
53.4048
 20
36.4049
 30
0.000000
  70
    32
  0
VERTEX
  8
0
  5
2D94
 10
53.4127
 20
36.3969
 30
0.000000
  70
    32
  0
VERTEX
  8
0
  5
2D95
 10
53.4206
 20
36.3890
 30
0.000000
  70
    32
  0
VERTEX
  8
0
  5
2D96
 10
53.4286
 20
36.3811
 30
0.000000
  70
    32
  0
VERTEX
  8
0
  5
2D97
 10
53.4365
 20
36.3731
 30
0.000000
  70
    32
  0
VERTEX
  8
0
  5
2D98
 10
53.4445
 20
36.3652
 30
0.000000
  70
    32
  0
VERTEX
  8
0
  5
2D99
 10
53.4524
 20
36.3572
 30
0.000000
  70
    32
  0
VERTEX
  8
0
  5
2D9A
 10
53.4603
 20
36.3493
 30
0.000000
  70
    32
  0
VERTEX
  8
0
  5
2D9B
 10
53.4683
 20
36.3414
 30
0.000000
  70
    32
  0
VERTEX
  8
0
  5
2D9C
 10
53.4762
 20
36.3334
 30
0.000000
  70
    32
  0
VERTEX
  8
0
  5
2D9D
 10
53.4841
 20
36.3255
 30
0.000000
  70
    32
  0
VERTEX
  8
0
  5
2D9E
 10
53.4921
 20
36.3176
 30
0.000000
  70
    32
  0
VERTEX
  8
0
  5
2D9F
 10
53.5000
 20
36.3096
 30
0.000000
  70
    32
  0
VERTEX
  8
0
  5
2DA0
 10
53.5079
 20
36.3017
 30
0.000000
  70
    32
  0
VERTEX
  8
0
  5
2DA1
 10
53.5159
 20
36.2937
 30
0.000000
  70
    32
  0
SEQEND
  8
0
  5
2DA2
  0
POLYLINE
  8
0
  5
2DA3
  66
     1
 10
0.000000
 20
0.000000
 30
0.000000
  70
     8
  0
VERTEX
  8
0
  5
2DA4
 10
53.5159
 20
43.7937
 30
0.000000
  70
    32
  0
VERTEX
  8
0
  5
2DA5
 10
53.5079
 20
43.7858
 30
0.000000
  70
    32
  0
VERTEX
  8
0
  5
2DA6
 10
53.5000
 20
43.7779
 30
0.000000
  70
    32
  0
VERTEX
  8
0
  5
2DA7
 10
53.4921
 20
43.7699
 30
0.000000
  70
    32
  0
VERTEX
  8
0
  5
2DA8
 10
53.4841
 20
43.7620
 30
0.000000
  70
    32
  0
VERTEX
  8
0
  5
2DA9
 10
53.4762
 20
43.7541
 30
0.000000
  70
    32
  0
VERTEX
  8
0
  5
2DAA
 10
53.4683
 20
43.7461
 30
0.000000
  70
    32
  0
VERTEX
  8
0
  5
2DAB
 10
53.4603
 20
43.7382
 30
0.000000
  70
    32
  0
VERTEX
  8
0
  5
2DAC
 10
53.4524
 20
43.7303
 30
0.000000
  70
    32
  0
VERTEX
  8
0
  5
2DAD
 10
53.4445
 20
43.7223
 30
0.000000
  70
    32
  0
VERTEX
  8
0
  5
2DAE
 10
53.4365
 20
43.7144
 30
0.000000
  70
    32
  0
VERTEX
  8
0
  5
2DAF
 10
53.4286
 20
43.7064
 30
0.000000
  70
    32
  0
VERTEX
  8
0
  5
2DB0
 10
53.4206
 20
43.6985
 30
0.000000
  70
    32
  0
VERTEX
  8
0
  5
2DB1
 10
53.4127
 20
43.6906
 30
0.000000
  70
    32
  0
VERTEX
  8
0
  5
2DB2
 10
53.4048
 20
43.6826
 30
0.000000
  70
    32
  0
VERTEX
  8
0
  5
2DB3
 10
53.3968
 20
43.6747
 30
0.000000
  70
    32
  0
VERTEX
  8
0
  5
2DB4
 10
53.3889
 20
43.6668
 30
0.000000
  70
    32
  0
VERTEX
  8
0
  5
2DB5
 10
53.3810
 20
43.6588
 30
0.000000
  70
    32
  0
VERTEX
  8
0
  5
2DB6
 10
53.3730
 20
43.6509
 30
0.000000
  70
    32
  0
VERTEX
  8
0
  5
2DB7
 10
53.3651
 20
43.6430
 30
0.000000
  70
    32
  0
VERTEX
  8
0
  5
2DB8
 10
53.3572
 20
43.6350
 30
0.000000
  70
    32
  0
VERTEX
  8
0
  5
2DB9
 10
53.3492
 20
43.6271
 30
0.000000
  70
    32
  0
VERTEX
  8
0
  5
2DBA
 10
53.3413
 20
43.6191
 30
0.000000
  70
    32
  0
VERTEX
  8
0
  5
2DBB
 10
53.3333
 20
43.6112
 30
0.000000
  70
    32
  0
VERTEX
  8
0
  5
2DBC
 10
53.3254
 20
43.6033
 30
0.000000
  70
    32
  0
VERTEX
  8
0
  5
2DBD
 10
53.3175
 20
43.5953
 30
0.000000
  70
    32
  0
VERTEX
  8
0
  5
2DBE
 10
53.3095
 20
43.5874
 30
0.000000
  70
    32
  0
VERTEX
  8
0
  5
2DBF
 10
53.3016
 20
43.5795
 30
0.000000
  70
    32
  0
VERTEX
  8
0
  5
2DC0
 10
53.2937
 20
43.5715
 30
0.000000
  70
    32
  0
VERTEX
  8
0
  5
2DC1
 10
53.2857
 20
43.5636
 30
0.000000
  70
    32
  0
VERTEX
  8
0
  5
2DC2
 10
53.2778
 20
43.5557
 30
0.000000
  70
    32
  0
VERTEX
  8
0
  5
2DC3
 10
53.2699
 20
43.5477
 30
0.000000
  70
    32
  0
VERTEX
  8
0
  5
2DC4
 10
53.2619
 20
43.5398
 30
0.000000
  70
    32
  0
VERTEX
  8
0
  5
2DC5
 10
53.2540
 20
43.5318
 30
0.000000
  70
    32
  0
VERTEX
  8
0
  5
2DC6
 10
53.2460
 20
43.5239
 30
0.000000
  70
    32
  0
VERTEX
  8
0
  5
2DC7
 10
53.2381
 20
43.5160
 30
0.000000
  70
    32
  0
VERTEX
  8
0
  5
2DC8
 10
53.2302
 20
43.5080
 30
0.000000
  70
    32
  0
VERTEX
  8
0
  5
2DC9
 10
53.2222
 20
43.5001
 30
0.000000
  70
    32
  0
VERTEX
  8
0
  5
2DCA
 10
53.2143
 20
43.4922
 30
0.000000
  70
    32
  0
VERTEX
  8
0
  5
2DCB
 10
53.2064
 20
43.4842
 30
0.000000
  70
    32
  0
VERTEX
  8
0
  5
2DCC
 10
53.1984
 20
43.4763
 30
0.000000
  70
    32
  0
VERTEX
  8
0
  5
2DCD
 10
53.1905
 20
43.4684
 30
0.000000
  70
    32
  0
VERTEX
  8
0
  5
2DCE
 10
53.1826
 20
43.4604
 30
0.000000
  70
    32
  0
VERTEX
  8
0
  5
2DCF
 10
53.1746
 20
43.4525
 30
0.000000
  70
    32
  0
VERTEX
  8
0
  5
2DD0
 10
53.1667
 20
43.4445
 30
0.000000
  70
    32
  0
VERTEX
  8
0
  5
2DD1
 10
53.1587
 20
43.4366
 30
0.000000
  70
    32
  0
VERTEX
  8
0
  5
2DD2
 10
53.1508
 20
43.4287
 30
0.000000
  70
    32
  0
VERTEX
  8
0
  5
2DD3
 10
53.1429
 20
43.4207
 30
0.000000
  70
    32
  0
VERTEX
  8
0
  5
2DD4
 10
53.1349
 20
43.4128
 30
0.000000
  70
    32
  0
VERTEX
  8
0
  5
2DD5
 10
53.1270
 20
43.4049
 30
0.000000
  70
    32
  0
VERTEX
  8
0
  5
2DD6
 10
53.1191
 20
43.3969
 30
0.000000
  70
    32
  0
VERTEX
  8
0
  5
2DD7
 10
53.1111
 20
43.3890
 30
0.000000
  70
    32
  0
VERTEX
  8
0
  5
2DD8
 10
53.1032
 20
43.3811
 30
0.000000
  70
    32
  0
VERTEX
  8
0
  5
2DD9
 10
53.0952
 20
43.3731
 30
0.000000
  70
    32
  0
VERTEX
  8
0
  5
2DDA
 10
53.0873
 20
43.3652
 30
0.000000
  70
    32
  0
VERTEX
  8
0
  5
2DDB
 10
53.0794
 20
43.3572
 30
0.000000
  70
    32
  0
VERTEX
  8
0
  5
2DDC
 10
53.0714
 20
43.3493
 30
0.000000
  70
    32
  0
VERTEX
  8
0
  5
2DDD
 10
53.0635
 20
43.3414
 30
0.000000
  70
    32
  0
VERTEX
  8
0
  5
2DDE
 10
53.0556
 20
43.3334
 30
0.000000
  70
    32
  0
VERTEX
  8
0
  5
2DDF
 10
53.0476
 20
43.3255
 30
0.000000
  70
    32
  0
VERTEX
  8
0
  5
2DE0
 10
53.0397
 20
43.3176
 30
0.000000
  70
    32
  0
VERTEX
  8
0
  5
2DE1
 10
53.0318
 20
43.3096
 30
0.000000
  70
    32
  0
VERTEX
  8
0
  5
2DE2
 10
53.0238
 20
43.3017
 30
0.000000
  70
    32
  0
VERTEX
  8
0
  5
2DE3
 10
53.0159
 20
43.2937
 30
0.000000
  70
    32
  0
SEQEND
  8
0
  5
2DE4
  0
POLYLINE
  8
0
  5
2DE5
  66
     1
 10
0.000000
 20
0.000000
 30
0.000000
  70
     8
  0
VERTEX
  8
0
  5
2DE6
 10
56.0159
 20
43.7937
 30
0.000000
  70
    32
  0
VERTEX
  8
0
  5
2DE7
 10
55.9762
 20
43.7937
 30
0.000000
  70
    32
  0
VERTEX
  8
0
  5
2DE8
 10
55.9365
 20
43.7937
 30
0.000000
  70
    32
  0
VERTEX
  8
0
  5
2DE9
 10
55.8968
 20
43.7937
 30
0.000000
  70
    32
  0
VERTEX
  8
0
  5
2DEA
 10
55.8572
 20
43.7937
 30
0.000000
  70
    32
  0
VERTEX
  8
0
  5
2DEB
 10
55.8175
 20
43.7937
 30
0.000000
  70
    32
  0
VERTEX
  8
0
  5
2DEC
 10
55.7778
 20
43.7937
 30
0.000000
  70
    32
  0
VERTEX
  8
0
  5
2DED
 10
55.7381
 20
43.7937
 30
0.000000
  70
    32
  0
VERTEX
  8
0
  5
2DEE
 10
55.6984
 20
43.7937
 30
0.000000
  70
    32
  0
VERTEX
  8
0
  5
2DEF
 10
55.6587
 20
43.7937
 30
0.000000
  70
    32
  0
VERTEX
  8
0
  5
2DF0
 10
55.6191
 20
43.7937
 30
0.000000
  70
    32
  0
VERTEX
  8
0
  5
2DF1
 10
55.5794
 20
43.7937
 30
0.000000
  70
    32
  0
VERTEX
  8
0
  5
2DF2
 10
55.5397
 20
43.7937
 30
0.000000
  70
    32
  0
VERTEX
  8
0
  5
2DF3
 10
55.5000
 20
43.7937
 30
0.000000
  70
    32
  0
VERTEX
  8
0
  5
2DF4
 10
55.4603
 20
43.7937
 30
0.000000
  70
    32
  0
VERTEX
  8
0
  5
2DF5
 10
55.4206
 20
43.7937
 30
0.000000
  70
    32
  0
VERTEX
  8
0
  5
2DF6
 10
55.3810
 20
43.7937
 30
0.000000
  70
    32
  0
VERTEX
  8
0
  5
2DF7
 10
55.3413
 20
43.7937
 30
0.000000
  70
    32
  0
VERTEX
  8
0
  5
2DF8
 10
55.3016
 20
43.7937
 30
0.000000
  70
    32
  0
VERTEX
  8
0
  5
2DF9
 10
55.2619
 20
43.7937
 30
0.000000
  70
    32
  0
VERTEX
  8
0
  5
2DFA
 10
55.2222
 20
43.7937
 30
0.000000
  70
    32
  0
VERTEX
  8
0
  5
2DFB
 10
55.1826
 20
43.7937
 30
0.000000
  70
    32
  0
VERTEX
  8
0
  5
2DFC
 10
55.1429
 20
43.7937
 30
0.000000
  70
    32
  0
VERTEX
  8
0
  5
2DFD
 10
55.1032
 20
43.7937
 30
0.000000
  70
    32
  0
VERTEX
  8
0
  5
2DFE
 10
55.0635
 20
43.7937
 30
0.000000
  70
    32
  0
VERTEX
  8
0
  5
2DFF
 10
55.0238
 20
43.7937
 30
0.000000
  70
    32
  0
VERTEX
  8
0
  5
2E00
 10
54.9841
 20
43.7937
 30
0.000000
  70
    32
  0
VERTEX
  8
0
  5
2E01
 10
54.9445
 20
43.7937
 30
0.000000
  70
    32
  0
VERTEX
  8
0
  5
2E02
 10
54.9048
 20
43.7937
 30
0.000000
  70
    32
  0
VERTEX
  8
0
  5
2E03
 10
54.8651
 20
43.7937
 30
0.000000
  70
    32
  0
VERTEX
  8
0
  5
2E04
 10
54.8254
 20
43.7937
 30
0.000000
  70
    32
  0
VERTEX
  8
0
  5
2E05
 10
54.7857
 20
43.7937
 30
0.000000
  70
    32
  0
VERTEX
  8
0
  5
2E06
 10
54.7460
 20
43.7937
 30
0.000000
  70
    32
  0
VERTEX
  8
0
  5
2E07
 10
54.7064
 20
43.7937
 30
0.000000
  70
    32
  0
VERTEX
  8
0
  5
2E08
 10
54.6667
 20
43.7937
 30
0.000000
  70
    32
  0
VERTEX
  8
0
  5
2E09
 10
54.6270
 20
43.7937
 30
0.000000
  70
    32
  0
VERTEX
  8
0
  5
2E0A
 10
54.5873
 20
43.7937
 30
0.000000
  70
    32
  0
VERTEX
  8
0
  5
2E0B
 10
54.5476
 20
43.7937
 30
0.000000
  70
    32
  0
VERTEX
  8
0
  5
2E0C
 10
54.5079
 20
43.7937
 30
0.000000
  70
    32
  0
VERTEX
  8
0
  5
2E0D
 10
54.4683
 20
43.7937
 30
0.000000
  70
    32
  0
VERTEX
  8
0
  5
2E0E
 10
54.4286
 20
43.7937
 30
0.000000
  70
    32
  0
VERTEX
  8
0
  5
2E0F
 10
54.3889
 20
43.7937
 30
0.000000
  70
    32
  0
VERTEX
  8
0
  5
2E10
 10
54.3492
 20
43.7937
 30
0.000000
  70
    32
  0
VERTEX
  8
0
  5
2E11
 10
54.3095
 20
43.7937
 30
0.000000
  70
    32
  0
VERTEX
  8
0
  5
2E12
 10
54.2699
 20
43.7937
 30
0.000000
  70
    32
  0
VERTEX
  8
0
  5
2E13
 10
54.2302
 20
43.7937
 30
0.000000
  70
    32
  0
VERTEX
  8
0
  5
2E14
 10
54.1905
 20
43.7937
 30
0.000000
  70
    32
  0
VERTEX
  8
0
  5
2E15
 10
54.1508
 20
43.7937
 30
0.000000
  70
    32
  0
VERTEX
  8
0
  5
2E16
 10
54.1111
 20
43.7937
 30
0.000000
  70
    32
  0
VERTEX
  8
0
  5
2E17
 10
54.0714
 20
43.7937
 30
0.000000
  70
    32
  0
VERTEX
  8
0
  5
2E18
 10
54.0318
 20
43.7937
 30
0.000000
  70
    32
  0
VERTEX
  8
0
  5
2E19
 10
53.9921
 20
43.7937
 30
0.000000
  70
    32
  0
VERTEX
  8
0
  5
2E1A
 10
53.9524
 20
43.7937
 30
0.000000
  70
    32
  0
VERTEX
  8
0
  5
2E1B
 10
53.9127
 20
43.7937
 30
0.000000
  70
    32
  0
VERTEX
  8
0
  5
2E1C
 10
53.8730
 20
43.7937
 30
0.000000
  70
    32
  0
VERTEX
  8
0
  5
2E1D
 10
53.8333
 20
43.7937
 30
0.000000
  70
    32
  0
VERTEX
  8
0
  5
2E1E
 10
53.7937
 20
43.7937
 30
0.000000
  70
    32
  0
VERTEX
  8
0
  5
2E1F
 10
53.7540
 20
43.7937
 30
0.000000
  70
    32
  0
VERTEX
  8
0
  5
2E20
 10
53.7143
 20
43.7937
 30
0.000000
  70
    32
  0
VERTEX
  8
0
  5
2E21
 10
53.6746
 20
43.7937
 30
0.000000
  70
    32
  0
VERTEX
  8
0
  5
2E22
 10
53.6349
 20
43.7937
 30
0.000000
  70
    32
  0
VERTEX
  8
0
  5
2E23
 10
53.5952
 20
43.7937
 30
0.000000
  70
    32
  0
VERTEX
  8
0
  5
2E24
 10
53.5556
 20
43.7937
 30
0.000000
  70
    32
  0
VERTEX
  8
0
  5
2E25
 10
53.5159
 20
43.7937
 30
0.000000
  70
    32
  0
SEQEND
  8
0
  5
2E26
  0
POLYLINE
  8
0
  5
2E27
  66
     1
 10
0.000000
 20
0.000000
 30
0.000000
  70
     8
  0
VERTEX
  8
0
  5
2E28
 10
53.5159
 20
36.2937
 30
0.000000
  70
    32
  0
VERTEX
  8
0
  5
2E29
 10
53.5556
 20
36.2937
 30
0.000000
  70
    32
  0
VERTEX
  8
0
  5
2E2A
 10
53.5952
 20
36.2937
 30
0.000000
  70
    32
  0
VERTEX
  8
0
  5
2E2B
 10
53.6349
 20
36.2937
 30
0.000000
  70
    32
  0
VERTEX
  8
0
  5
2E2C
 10
53.6746
 20
36.2937
 30
0.000000
  70
    32
  0
VERTEX
  8
0
  5
2E2D
 10
53.7143
 20
36.2937
 30
0.000000
  70
    32
  0
VERTEX
  8
0
  5
2E2E
 10
53.7540
 20
36.2937
 30
0.000000
  70
    32
  0
VERTEX
  8
0
  5
2E2F
 10
53.7937
 20
36.2937
 30
0.000000
  70
    32
  0
VERTEX
  8
0
  5
2E30
 10
53.8333
 20
36.2937
 30
0.000000
  70
    32
  0
VERTEX
  8
0
  5
2E31
 10
53.8730
 20
36.2937
 30
0.000000
  70
    32
  0
VERTEX
  8
0
  5
2E32
 10
53.9127
 20
36.2937
 30
0.000000
  70
    32
  0
VERTEX
  8
0
  5
2E33
 10
53.9524
 20
36.2937
 30
0.000000
  70
    32
  0
VERTEX
  8
0
  5
2E34
 10
53.9921
 20
36.2937
 30
0.000000
  70
    32
  0
VERTEX
  8
0
  5
2E35
 10
54.0318
 20
36.2937
 30
0.000000
  70
    32
  0
VERTEX
  8
0
  5
2E36
 10
54.0714
 20
36.2937
 30
0.000000
  70
    32
  0
VERTEX
  8
0
  5
2E37
 10
54.1111
 20
36.2937
 30
0.000000
  70
    32
  0
VERTEX
  8
0
  5
2E38
 10
54.1508
 20
36.2937
 30
0.000000
  70
    32
  0
VERTEX
  8
0
  5
2E39
 10
54.1905
 20
36.2937
 30
0.000000
  70
    32
  0
VERTEX
  8
0
  5
2E3A
 10
54.2302
 20
36.2937
 30
0.000000
  70
    32
  0
VERTEX
  8
0
  5
2E3B
 10
54.2699
 20
36.2937
 30
0.000000
  70
    32
  0
VERTEX
  8
0
  5
2E3C
 10
54.3095
 20
36.2937
 30
0.000000
  70
    32
  0
VERTEX
  8
0
  5
2E3D
 10
54.3492
 20
36.2937
 30
0.000000
  70
    32
  0
VERTEX
  8
0
  5
2E3E
 10
54.3889
 20
36.2937
 30
0.000000
  70
    32
  0
VERTEX
  8
0
  5
2E3F
 10
54.4286
 20
36.2937
 30
0.000000
  70
    32
  0
VERTEX
  8
0
  5
2E40
 10
54.4683
 20
36.2937
 30
0.000000
  70
    32
  0
VERTEX
  8
0
  5
2E41
 10
54.5079
 20
36.2937
 30
0.000000
  70
    32
  0
VERTEX
  8
0
  5
2E42
 10
54.5476
 20
36.2937
 30
0.000000
  70
    32
  0
VERTEX
  8
0
  5
2E43
 10
54.5873
 20
36.2937
 30
0.000000
  70
    32
  0
VERTEX
  8
0
  5
2E44
 10
54.6270
 20
36.2937
 30
0.000000
  70
    32
  0
VERTEX
  8
0
  5
2E45
 10
54.6667
 20
36.2937
 30
0.000000
  70
    32
  0
VERTEX
  8
0
  5
2E46
 10
54.7064
 20
36.2937
 30
0.000000
  70
    32
  0
VERTEX
  8
0
  5
2E47
 10
54.7460
 20
36.2937
 30
0.000000
  70
    32
  0
VERTEX
  8
0
  5
2E48
 10
54.7857
 20
36.2937
 30
0.000000
  70
    32
  0
VERTEX
  8
0
  5
2E49
 10
54.8254
 20
36.2937
 30
0.000000
  70
    32
  0
VERTEX
  8
0
  5
2E4A
 10
54.8651
 20
36.2937
 30
0.000000
  70
    32
  0
VERTEX
  8
0
  5
2E4B
 10
54.9048
 20
36.2937
 30
0.000000
  70
    32
  0
VERTEX
  8
0
  5
2E4C
 10
54.9445
 20
36.2937
 30
0.000000
  70
    32
  0
VERTEX
  8
0
  5
2E4D
 10
54.9841
 20
36.2937
 30
0.000000
  70
    32
  0
VERTEX
  8
0
  5
2E4E
 10
55.0238
 20
36.2937
 30
0.000000
  70
    32
  0
VERTEX
  8
0
  5
2E4F
 10
55.0635
 20
36.2937
 30
0.000000
  70
    32
  0
VERTEX
  8
0
  5
2E50
 10
55.1032
 20
36.2937
 30
0.000000
  70
    32
  0
VERTEX
  8
0
  5
2E51
 10
55.1429
 20
36.2937
 30
0.000000
  70
    32
  0
VERTEX
  8
0
  5
2E52
 10
55.1826
 20
36.2937
 30
0.000000
  70
    32
  0
VERTEX
  8
0
  5
2E53
 10
55.2222
 20
36.2937
 30
0.000000
  70
    32
  0
VERTEX
  8
0
  5
2E54
 10
55.2619
 20
36.2937
 30
0.000000
  70
    32
  0
VERTEX
  8
0
  5
2E55
 10
55.3016
 20
36.2937
 30
0.000000
  70
    32
  0
VERTEX
  8
0
  5
2E56
 10
55.3413
 20
36.2937
 30
0.000000
  70
    32
  0
VERTEX
  8
0
  5
2E57
 10
55.3810
 20
36.2937
 30
0.000000
  70
    32
  0
VERTEX
  8
0
  5
2E58
 10
55.4206
 20
36.2937
 30
0.000000
  70
    32
  0
VERTEX
  8
0
  5
2E59
 10
55.4603
 20
36.2937
 30
0.000000
  70
    32
  0
VERTEX
  8
0
  5
2E5A
 10
55.5000
 20
36.2937
 30
0.000000
  70
    32
  0
VERTEX
  8
0
  5
2E5B
 10
55.5397
 20
36.2937
 30
0.000000
  70
    32
  0
VERTEX
  8
0
  5
2E5C
 10
55.5794
 20
36.2937
 30
0.000000
  70
    32
  0
VERTEX
  8
0
  5
2E5D
 10
55.6191
 20
36.2937
 30
0.000000
  70
    32
  0
VERTEX
  8
0
  5
2E5E
 10
55.6587
 20
36.2937
 30
0.000000
  70
    32
  0
VERTEX
  8
0
  5
2E5F
 10
55.6984
 20
36.2937
 30
0.000000
  70
    32
  0
VERTEX
  8
0
  5
2E60
 10
55.7381
 20
36.2937
 30
0.000000
  70
    32
  0
VERTEX
  8
0
  5
2E61
 10
55.7778
 20
36.2937
 30
0.000000
  70
    32
  0
VERTEX
  8
0
  5
2E62
 10
55.8175
 20
36.2937
 30
0.000000
  70
    32
  0
VERTEX
  8
0
  5
2E63
 10
55.8572
 20
36.2937
 30
0.000000
  70
    32
  0
VERTEX
  8
0
  5
2E64
 10
55.8968
 20
36.2937
 30
0.000000
  70
    32
  0
VERTEX
  8
0
  5
2E65
 10
55.9365
 20
36.2937
 30
0.000000
  70
    32
  0
VERTEX
  8
0
  5
2E66
 10
55.9762
 20
36.2937
 30
0.000000
  70
    32
  0
VERTEX
  8
0
  5
2E67
 10
56.0159
 20
36.2937
 30
0.000000
  70
    32
  0
SEQEND
  8
0
  5
2E68
  0
LINE
  5
2884
  8
1
 10
22.09410340204402
 20
40.043749065390898
 30
0.0
 11
34.59410340204402
 21
40.043749065390898
 31
0.0
  0
LINE
  5
2885
  8
1
 10
28.34410340204402
 20
46.293749065390898
 30
0.0
 11
28.34410340204402
 21
33.793749065390898
 31
0.0
  0
LINE
  5
2889
  8
1
 10
50.515883341079991
 20
40.043749065390898
 30
0.0
 11
63.515883341079991
 21
40.043749065390898
 31
0.0
  0
TEXT
  5
2AE8
  8
0
 62
     3
 10
8.3441034020440128
 20
10.0437490653909
 30
0.0
 40
10.0
  1
SCS-PG000
  7
STANDARD1
  0
ENDSEC
  0
EOF
