  0
SECTION
  2
HEADER
  9
$ACADVER
  1
AC1009
  9
$INSBASE
 10
0.0
 20
0.0
 30
0.0
  9
$EXTMIN
 10
-0.0114374560519082
 20
-2.9687166769149371
 30
-0.0000000000112498
  9
$EXTMAX
 10
543.0438594838688
 20
208.76530376645559
 30
0.0000000000002956
  9
$LIMMIN
 10
0.0
 20
0.0
  9
$LIMMAX
 10
750.0
 20
540.0
  9
$ORTHOMODE
 70
     1
  9
$REGENMODE
 70
     1
  9
$FILLMODE
 70
     1
  9
$QTEXTMODE
 70
     0
  9
$MIRRTEXT
 70
     0
  9
$DRAGMODE
 70
     2
  9
$LTSCALE
 40
5.0
  9
$OSMODE
 70
    37
  9
$ATTMODE
 70
     1
  9
$TEXTSIZE
 40
0.2
  9
$TRACEWID
 40
0.05
  9
$TEXTSTYLE
  7
STANDARD
  9
$CLAYER
  8
0
  9
$CELTYPE
  6
BYLAYER
  9
$CECOLOR
 62
   256
  9
$DIMSCALE
 40
1.0
  9
$DIMASZ
 40
3.0
  9
$DIMEXO
 40
2.0
  9
$DIMDLI
 40
0.38
  9
$DIMRND
 40
0.0
  9
$DIMDLE
 40
0.0
  9
$DIMEXE
 40
2.0
  9
$DIMTP
 40
0.0
  9
$DIMTM
 40
0.0
  9
$DIMTXT
 40
3.2000000000000002
  9
$DIMCEN
 40
0.0
  9
$DIMTSZ
 40
0.0
  9
$DIMTOL
 70
     0
  9
$DIMLIM
 70
     0
  9
$DIMTIH
 70
     0
  9
$DIMTOH
 70
     0
  9
$DIMSE1
 70
     0
  9
$DIMSE2
 70
     0
  9
$DIMTAD
 70
     1
  9
$DIMZIN
 70
     0
  9
$DIMBLK
  1

  9
$DIMASO
 70
     0
  9
$DIMSHO
 70
     0
  9
$DIMPOST
  1

  9
$DIMAPOST
  1

  9
$DIMALT
 70
     0
  9
$DIMALTD
 70
     2
  9
$DIMALTF
 40
25.399999999999999
  9
$DIMLFAC
 40
1.0
  9
$DIMTOFL
 70
     0
  9
$DIMTVP
 40
1.6000000000000001
  9
$DIMTIX
 70
     1
  9
$DIMSOXD
 70
     0
  9
$DIMSAH
 70
     0
  9
$DIMBLK1
  1

  9
$DIMBLK2
  1

  9
$DIMSTYLE
  2
STANDARD
  9
$DIMCLRD
 70
     0
  9
$DIMCLRE
 70
     0
  9
$DIMCLRT
 70
     0
  9
$DIMTFAC
 40
1.0
  9
$DIMGAP
 40
0.09
  9
$LUNITS
 70
     2
  9
$LUPREC
 70
     1
  9
$SKETCHINC
 40
0.1
  9
$FILLETRAD
 40
0.0
  9
$AUNITS
 70
     0
  9
$AUPREC
 70
     1
  9
$MENU
  1
E:\r13\win\SUPPORT\ACAD
  9
$ELEVATION
 40
0.0
  9
$PELEVATION
 40
0.0
  9
$THICKNESS
 40
0.0
  9
$LIMCHECK
 70
     0
  9
$BLIPMODE
 70
     0
  9
$CHAMFERA
 40
0.0
  9
$CHAMFERB
 40
0.0
  9
$SKPOLY
 70
     0
  9
$TDCREATE
 40
2449840.6227546302
  9
$TDUPDATE
 40
2457361.6466930211
  9
$TDINDWG
 40
0.2458799421
  9
$TDUSRTIMER
 40
2456422.5628842129
  9
$USRTIMER
 70
     1
  9
$ANGBASE
 50
0.0
  9
$ANGDIR
 70
     0
  9
$PDMODE
 70
     0
  9
$PDSIZE
 40
0.0
  9
$PLINEWID
 40
0.0
  9
$COORDS
 70
     1
  9
$SPLFRAME
 70
     0
  9
$SPLINETYPE
 70
     6
  9
$SPLINESEGS
 70
     8
  9
$ATTDIA
 70
     0
  9
$ATTREQ
 70
     1
  9
$HANDLING
 70
     1
  9
$HANDSEED
  5
3D7F
  9
$SURFTAB1
 70
     6
  9
$SURFTAB2
 70
     6
  9
$SURFTYPE
 70
     6
  9
$SURFU
 70
     6
  9
$SURFV
 70
     6
  9
$UCSNAME
  2

  9
$UCSORG
 10
0.0
 20
0.0
 30
0.0
  9
$UCSXDIR
 10
1.0
 20
0.0
 30
0.0
  9
$UCSYDIR
 10
0.0
 20
1.0
 30
0.0
  9
$PUCSNAME
  2

  9
$PUCSORG
 10
0.0
 20
0.0
 30
0.0
  9
$PUCSXDIR
 10
1.0
 20
0.0
 30
0.0
  9
$PUCSYDIR
 10
0.0
 20
1.0
 30
0.0
  9
$USERI1
 70
     0
  9
$USERI2
 70
     1
  9
$USERI3
 70
     0
  9
$USERI4
 70
     0
  9
$USERI5
 70
     0
  9
$USERR1
 40
0.0
  9
$USERR2
 40
0.0
  9
$USERR3
 40
0.0
  9
$USERR4
 40
0.0
  9
$USERR5
 40
0.0
  9
$WORLDVIEW
 70
     1
  9
$SHADEDGE
 70
     3
  9
$SHADEDIF
 70
    70
  9
$TILEMODE
 70
     1
  9
$MAXACTVP
 70
    16
  9
$PLIMCHECK
 70
     0
  9
$PEXTMIN
 10
1.0000000000000000E+020
 20
1.0000000000000000E+020
 30
1.0000000000000000E+020
  9
$PEXTMAX
 10
-1.0000000000000000E+020
 20
-1.0000000000000000E+020
 30
-1.0000000000000000E+020
  9
$PLIMMIN
 10
0.0
 20
0.0
  9
$PLIMMAX
 10
12.0
 20
9.0
  9
$UNITMODE
 70
     0
  9
$VISRETAIN
 70
     0
  9
$PLINEGEN
 70
     0
  9
$PSLTSCALE
 70
     0
  0
ENDSEC
  0
SECTION
  2
TABLES
  0
TABLE
  2
VPORT
 70
     1
  0
VPORT
  2
*ACTIVE
 70
     0
 10
0.0
 20
0.0
 11
1.0
 21
1.0
 12
271.5162110139085
 22
102.8982935447703
 13
0.0
 23
0.0
 14
20.0
 24
20.0
 15
20.0
 25
20.0
 16
0.0
 26
0.0
 36
1.0
 17
0.0
 27
0.0
 37
0.0
 40
399.18862195446872
 41
1.368715083798882
 42
50.0
 43
0.0
 44
0.0
 50
0.0
 51
0.0
 71
    16
 72
   100
 73
     1
 74
     0
 75
     0
 76
     0
 77
     0
 78
     2
  0
ENDTAB
  0
TABLE
  2
LTYPE
 70
     4
  0
LTYPE
  2
CONTINUOUS
 70
     0
  3
Solid Line
 72
    65
 73
     0
 40
0.0
  0
LTYPE
  2
PHANTOM2
 70
     0
  3
___ _ _ ___ _ _ ___ _ _ ___ _ _
 72
    65
 73
     6
 40
1.25
 49
0.625
 49
-0.125
 49
0.125
 49
-0.125
 49
0.125
 49
-0.125
  0
LTYPE
  2
CENTER
 70
     0
  3
____ _ ____ _ ____ _ ____ _ ____ _ ____ _ ____
 72
    65
 73
     4
 40
2.0
 49
1.25
 49
-0.25
 49
0.25
 49
-0.25
  0
LTYPE
  2
HIDDEN
 70
     0
  3
_ _ _ _ _ _ _ _ _ _ _ _ _ _ _ _ _ _ _ _ _ _ _
 72
    65
 73
     2
 40
0.375
 49
0.25
 49
-0.125
  0
ENDTAB
  0
TABLE
  2
LAYER
 70
     5
  0
LAYER
  2
0
 70
     0
 62
     7
  6
CONTINUOUS
  0
LAYER
  2
1
 70
     0
 62
     1
  6
CENTER
  0
LAYER
  2
2
 70
     0
 62
     2
  6
HIDDEN
  0
LAYER
  2
DEFPOINTS
 70
     0
 62
     7
  6
CONTINUOUS
  0
LAYER
  2
3
 70
     0
 62
     3
  6
CONTINUOUS
  0
ENDTAB
  0
TABLE
  2
STYLE
 70
     2
  0
STYLE
  2
STANDARD
 70
     0
 40
0.0
 41
1.0
 50
0.0
 71
     0
 42
0.2
  3
TXT
  4
BIGFONT
  0
STYLE
  2
STANDARD1
 70
     0
 40
0.0
 41
1.0
 50
0.0
 71
     0
 42
3.0
  3
txt
  4

  0
ENDTAB
  0
TABLE
  2
VIEW
 70
     1
  0
VIEW
  2
ALL
 70
     0
 40
540.0
 10
441.98319299999991
 20
270.0
 41
0.0
 11
0.0
 21
0.0
 31
1.0
 12
0.0
 22
0.0
 32
0.0
 42
0.0
 43
0.0
 44
0.0
 50
0.0
 71
     0
  0
ENDTAB
  0
TABLE
  2
UCS
 70
     0
  0
ENDTAB
  0
TABLE
  2
APPID
 70
     7
  0
APPID
  2
ACAD
 70
     0
  0
APPID
  2
ACADANNOTATIVE
 70
     0
  0
APPID
  2
ACAD_NAV_VCDISPLAY
 70
     0
  0
APPID
  2
ACAD_EXEMPT_FROM_CAD_STANDARDS
 70
     0
  0
APPID
  2
ACAD_DSTYLE_DIMJAG
 70
     0
  0
APPID
  2
ACAD_DSTYLE_DIMTALN
 70
     0
  0
APPID
  2
ACAD_MLEADERVER
 70
     0
  0
ENDTAB
  0
TABLE
  2
DIMSTYLE
 70
     1
  0
DIMSTYLE
  2
STANDARD
 70
     0
  3

  4

  5

  6

  7

 40
1.0
 41
0.18
 42
0.0625
 43
0.38
 44
0.18
 45
0.0
 46
0.0
 47
0.0
 48
0.0
140
0.18
141
0.09
142
0.0
143
25.399999999999999
144
1.0
145
0.0
146
1.0
147
0.09
 71
     0
 72
     0
 73
     1
 74
     1
 75
     0
 76
     0
 77
     0
 78
     0
170
     0
171
     2
172
     0
173
     0
174
     0
175
     0
176
     0
177
     0
178
     0
  0
ENDTAB
  0
ENDSEC
  0
SECTION
  2
BLOCKS
  0
BLOCK
  8
0
  2
$MODEL_SPACE
 70
     0
 10
0.0
 20
0.0
 30
0.0
  3
$MODEL_SPACE
  1

  0
ENDBLK
  5
507
  8
0
  0
BLOCK
 67
     1
  8
0
  2
$PAPER_SPACE
 70
     0
 10
0.0
 20
0.0
 30
0.0
  3
$PAPER_SPACE
  1

  0
ENDBLK
  5
503
 67
     1
  8
0
  0
ENDSEC
  0
SECTION
  2
ENTITIES
  0
TEXT
  5
2375
  8
0
 62
     3
 10
0.0
 20
0.0
 30
0.0
 40
10.0
  1
SCLR-NO
  7
STANDARD1
  0
LINE
  5
295E
  8
1
 10
106.0
 20
192.25
 30
0.0
 11
209.5
 21
192.25
 31
0.0
  0
LINE
  5
2984
  8
0
 10
117.8363189024309
 20
200.0
 30
0.0
 11
117.815915904222
 21
200.11571115280771
 31
0.0
  0
ARC
  5
2985
  8
0
 10
117.32351202771591
 20
200.0288870639742
 30
0.0
 40
0.499999999999999
 50
10.00000000000019
 51
85.783397564233596
  0
ARC
  5
2986
  8
0
 10
116.75
 20
192.2499999999996
 30
0.0
 40
8.3000000000003347
 50
85.783397564233596
 51
94.216602435766418
  0
ARC
  5
2987
  8
0
 10
116.17648797228399
 20
200.0288870639742
 30
0.0
 40
0.5000000000000044
 50
94.216602435766418
 51
169.9999999999998
  0
LINE
  5
2988
  8
0
 10
115.68408409577791
 20
200.11571115280771
 30
0.0
 11
115.6636810975691
 21
200.0
 31
0.0
  0
LINE
  5
2989
  8
0
 10
115.6636810975691
 20
184.5
 30
0.0
 11
115.68408409577791
 21
184.38428884719229
 31
0.0
  0
ARC
  5
298A
  8
0
 10
116.17648797228399
 20
184.4711129360258
 30
0.0
 40
0.4999999999999995
 50
190.0000000000002
 51
265.78339756423361
  0
ARC
  5
298B
  8
0
 10
116.75
 20
192.24999999999989
 30
0.0
 40
8.2999999999999456
 50
265.78339756423361
 51
274.21660243576639
  0
ARC
  5
298C
  8
0
 10
117.32351202771591
 20
184.4711129360258
 30
0.0
 40
0.4999999999999993
 50
274.21660243576639
 51
349.99999999999977
  0
LINE
  5
298D
  8
0
 10
117.815915904222
 20
184.38428884719229
 30
0.0
 11
117.8363189024309
 21
184.5
 31
0.0
  0
POLYLINE
  5
298E
  8
0
 66
     1
 10
0.0
 20
0.0
 30
0.0
  0
VERTEX
  5
3D67
  8
0
 10
108.90000000000001
 20
189.6102799808736
 30
0.0
  0
VERTEX
  5
3D68
  8
0
 10
108.7160841600255
 20
190.3563119308192
 30
0.0
  0
VERTEX
  5
3D69
  8
0
 10
108.5897040254346
 20
191.11890360771881
 30
0.0
  0
VERTEX
  5
3D6A
  8
0
 10
108.5353525864451
 20
191.68226472635959
 30
0.0
  0
VERTEX
  5
3D6B
  8
0
 10
108.515757796548
 20
192.25
 30
0.0
  0
VERTEX
  5
3D6C
  8
0
 10
108.52825886698641
 20
192.70037240063161
 30
0.0
  0
VERTEX
  5
3D6D
  8
0
 10
108.5633544040334
 20
193.14999676708979
 30
0.0
  0
VERTEX
  5
3D6E
  8
0
 10
108.6193755357955
 20
193.5975080651703
 30
0.0
  0
VERTEX
  5
3D6F
  8
0
 10
108.6964383110551
 20
194.04581716273219
 30
0.0
  0
VERTEX
  5
3D70
  8
0
 10
108.79390912671271
 20
194.4901369281724
 30
0.0
  0
VERTEX
  5
3D71
  8
0
 10
108.90000000000001
 20
194.8897200191264
 30
0.0
  0
SEQEND
  5
3D72
  8
0
  0
LINE
  5
298F
  8
0
 10
108.90000000000001
 20
194.8897200191264
 30
0.0
 11
108.90000000000001
 21
194.92780166916381
 31
0.0
  0
ARC
  5
2990
  8
0
 10
118.4992203430581
 20
192.1251299428221
 30
0.0
 40
10.000000000010809
 50
161.7908269044851
 51
163.7238489522536
  0
ARC
  5
2991
  8
0
 10
118.49922034304549
 20
192.37487005717389
 30
0.0
 40
9.9999999999976161
 50
196.27615104774469
 51
198.20917309551481
  0
LINE
  5
2992
  8
0
 10
108.90000000000001
 20
189.5721983308361
 30
0.0
 11
108.90000000000001
 21
189.6102799808736
 31
0.0
  0
LINE
  5
2993
  8
0
 10
109.0
 20
200.0
 30
0.0
 11
109.0
 21
184.5
 31
0.0
  0
LINE
  5
2994
  8
0
 10
130.5
 20
184.5
 30
0.0
 11
109.0
 21
184.5
 31
0.0
  0
LINE
  5
2995
  8
0
 10
130.5
 20
200.0
 30
0.0
 11
109.0
 21
200.0
 31
0.0
  0
LINE
  5
2996
  8
0
 10
140.5
 20
184.44999999999999
 30
0.0
 11
135.5
 21
184.44999999999999
 31
0.0
  0
LINE
  5
2997
  8
0
 10
140.5
 20
200.05000000000001
 30
0.0
 11
135.5
 21
200.05000000000001
 31
0.0
  0
LINE
  5
2998
  8
0
 10
135.5
 20
184.25
 30
0.0
 11
130.5
 21
184.25
 31
0.0
  0
LINE
  5
299A
  8
0
 10
130.5
 20
200.25
 30
0.0
 11
130.5
 21
184.25
 31
0.0
  0
LINE
  5
299C
  8
0
 10
135.5
 20
200.25
 30
0.0
 11
135.5
 21
184.25
 31
0.0
  0
LINE
  5
299D
  8
0
 10
135.5
 20
200.25
 30
0.0
 11
130.5
 21
200.25
 31
0.0
  0
LINE
  5
299E
  8
0
 10
206.5
 20
201.25
 30
0.0
 11
140.5
 21
201.25
 31
0.0
  0
LINE
  5
299F
  8
0
 10
170.09999999999999
 20
200.05000000000001
 30
0.0
 11
170.09999999999999
 21
183.25
 31
0.0
  0
LINE
  5
29A0
  8
0
 10
140.5
 20
201.25
 30
0.0
 11
140.5
 21
183.25
 31
0.0
  0
LINE
  5
29A1
  8
0
 10
170.09999999999999
 20
183.25
 30
0.0
 11
140.5
 21
183.25
 31
0.0
  0
LINE
  5
29A2
  8
0
 10
200.09999999999999
 20
183.25
 30
0.0
 11
200.09999999999999
 21
200.05000000000001
 31
0.0
  0
LINE
  5
29A6
  8
0
 10
206.5
 20
183.25
 30
0.0
 11
200.09999999999999
 21
183.24999999999989
 31
0.0
  0
LINE
  5
29A7
  8
0
 10
206.5
 20
201.25
 30
0.0
 11
206.5
 21
183.25
 31
0.0
  0
LINE
  5
2AD1
  8
0
 10
255.0566243270259
 20
129.75
 30
0.0
 11
253.61324865405189
 21
132.25
 31
0.0
  0
LINE
  5
2AD2
  8
0
 10
253.61324865405189
 20
132.25
 30
0.0
 11
255.0566243270259
 21
134.75
 31
0.0
  0
LINE
  5
2AD3
  8
0
 10
255.0566243270259
 20
134.75
 30
0.0
 11
257.94337567297413
 21
134.75
 31
0.0
  0
LINE
  5
2AD4
  8
0
 10
257.94337567297413
 20
134.75
 30
0.0
 11
259.38675134594808
 21
132.25
 31
0.0
  0
LINE
  5
2AD5
  8
0
 10
259.38675134594808
 20
132.25
 30
0.0
 11
257.94337567297413
 21
129.75
 31
0.0
  0
LINE
  5
2AD6
  8
0
 10
257.94337567297413
 20
129.75
 30
0.0
 11
255.0566243270259
 21
129.75
 31
0.0
  0
LINE
  5
2AD8
  8
1
 10
246.0
 20
132.25
 30
0.0
 11
267.0
 21
132.25
 31
0.0
  0
LINE
  5
2AD9
  8
1
 10
256.5
 20
106.0
 30
0.0
 11
256.5
 21
145.25
 31
0.0
  0
LINE
  5
2AE1
  8
0
 10
264.80000000000001
 20
109.0
 30
0.0
 11
264.80000000000001
 21
111.5
 31
0.0
  0
LINE
  5
2AE6
  8
0
 10
248.19999999999999
 20
111.5
 30
0.0
 11
264.80000000000001
 21
111.5
 31
0.0
  0
LINE
  5
2AE7
  8
3
 10
264.04414631531949
 20
109.0
 30
0.0
 11
264.04414631531949
 21
111.5
 31
0.0
  0
LINE
  5
2AEB
  8
3
 10
251.61388048263501
 20
111.5
 30
0.0
 11
251.61388048263501
 21
109.0
 31
0.0
  0
LINE
  5
2AED
  8
3
 10
254.23808888863439
 20
109.0
 30
0.0
 11
254.23808888863439
 21
111.5
 31
0.0
  0
LINE
  5
2AF2
  8
0
 10
248.19999999999999
 20
109.0
 30
0.0
 11
264.80000000000001
 21
109.0
 31
0.0
  0
LINE
  5
2AF5
  8
3
 10
253.49025467495031
 20
109.0
 30
0.0
 11
253.49025467495031
 21
111.5
 31
0.0
  0
LINE
  5
2AF8
  8
0
 10
248.75
 20
122.25
 30
0.0
 11
248.75
 21
111.5
 31
0.0
  0
LINE
  5
2AF9
  8
0
 10
264.25
 20
122.2499999999999
 30
0.0
 11
264.25
 21
111.5
 31
0.0
  0
ARC
  5
2AFA
  8
0
 10
247.75
 20
142.0
 30
0.0
 40
0.2500000000000071
 50
90.0
 51
180.0
  0
ARC
  5
2AFB
  8
0
 10
247.75
 20
122.5
 30
0.0
 40
0.2500000000000036
 50
180.0
 51
270.0
  0
LINE
  5
2AFC
  8
0
 10
247.5
 20
142.0
 30
0.0
 11
247.5
 21
122.5
 31
0.0
  0
LINE
  5
2AFD
  8
0
 10
247.75
 20
122.25
 30
0.0
 11
265.25
 21
122.25
 31
0.0
  0
LINE
  5
2AFE
  8
0
 10
265.25
 20
142.25
 30
0.0
 11
247.75
 21
142.25
 31
0.0
  0
LINE
  5
2B37
  8
1
 10
53.0
 20
132.25
 30
0.0
 11
65.0
 21
132.25
 31
0.0
  0
LINE
  5
2B38
  8
1
 10
59.0
 20
106.0
 30
0.0
 11
59.0
 21
145.25
 31
0.0
  0
LINE
  5
2B3D
  8
0
 10
50.25
 20
142.25
 30
0.0
 11
67.75
 21
142.25
 31
0.0
  0
ARC
  5
2B3E
  8
0
 10
67.75
 20
122.5
 30
0.0
 40
0.2500000000000036
 50
270.0
 51
0.0
  0
ARC
  5
2B3F
  8
0
 10
67.75
 20
142.0
 30
0.0
 40
0.2500000000000053
 50
0.0
 51
90.0
  0
LINE
  5
2B40
  8
0
 10
51.25
 20
122.25
 30
0.0
 11
50.25
 21
122.25
 31
0.0
  0
LINE
  5
2B41
  8
0
 10
67.75
 20
122.25
 30
0.0
 11
66.75
 21
122.25
 31
0.0
  0
ARC
  5
2B42
  8
0
 10
50.25
 20
142.0
 30
0.0
 40
0.2500000000000036
 50
90.0
 51
180.0
  0
LINE
  5
2B43
  8
0
 10
50.0
 20
122.5
 30
0.0
 11
50.0
 21
142.0
 31
0.0
  0
ARC
  5
2B44
  8
0
 10
50.25
 20
122.5
 30
0.0
 40
0.2500000000000036
 50
180.0
 51
270.0
  0
LINE
  5
2B45
  8
0
 10
68.0
 20
142.0
 30
0.0
 11
68.0
 21
122.5
 31
0.0
  0
LINE
  5
2B46
  8
0
 10
51.25
 20
141.15000000000001
 30
0.0
 11
66.75
 21
141.15000000000001
 31
0.0
  0
ARC
  5
2B47
  8
0
 10
66.75
 20
140.89999999999989
 30
0.0
 40
0.2500000000000036
 50
0.0
 51
90.0
  0
ARC
  5
2B48
  8
0
 10
51.25
 20
140.89999999999989
 30
0.0
 40
0.2500000000000036
 50
90.0
 51
180.0
  0
LINE
  5
2B49
  8
0
 10
51.0
 20
123.59999999999999
 30
0.0
 11
51.0
 21
140.89999999999989
 31
0.0
  0
ARC
  5
2B4A
  8
0
 10
51.25
 20
123.59999999999999
 30
0.0
 40
0.2499999999999973
 50
180.0
 51
270.0
  0
ARC
  5
2B4B
  8
0
 10
66.75
 20
123.59999999999999
 30
0.0
 40
0.2500000000000071
 50
270.0
 51
0.0
  0
LINE
  5
2B4C
  8
0
 10
67.0
 20
140.89999999999989
 30
0.0
 11
67.0
 21
123.59999999999999
 31
0.0
  0
LINE
  5
2B65
  8
0
 10
66.75
 20
140.0
 30
0.0
 11
66.75
 21
111.5
 31
0.0
  0
LINE
  5
2B66
  8
0
 10
51.25
 20
140.0
 30
0.0
 11
66.75
 21
140.0
 31
0.0
  0
LINE
  5
2B67
  8
0
 10
51.25
 20
111.5
 30
0.0
 11
51.25
 21
140.0
 31
0.0
  0
LINE
  5
2B68
  8
0
 10
56.360279980873599
 20
131.80000000000001
 30
0.0
 11
58.550000000000011
 21
131.80000000000001
 31
0.0
  0
LINE
  5
2B69
  8
0
 10
61.639720019126401
 20
132.69999999999999
 30
0.0
 11
59.449999999999989
 21
132.69999999999999
 31
0.0
  0
ARC
  5
2B6A
  8
0
 10
59.0
 20
132.25
 30
0.0
 40
2.6778016691638311
 50
350.32563795598708
 51
9.6743620440129252
  0
ARC
  5
2B6B
  8
0
 10
59.0
 20
132.25
 30
0.0
 40
2.6778016691638311
 50
170.3256379559871
 51
189.6743620440129
  0
CIRCLE
  5
2B6C
  8
0
 10
59.0
 20
132.25
 30
0.0
 40
2.999999999999996
  0
LINE
  5
2C0B
  8
1
 10
526.49999999999989
 20
208.75
 30
0.0
 11
526.49999999999989
 21
175.75
 31
0.0
  0
LINE
  5
2C0C
  8
1
 10
510.0
 20
192.25
 30
0.0
 11
543.0
 21
192.25
 31
0.0
  0
LINE
  5
2C0D
  8
1
 10
365.5
 20
79.512701041517118
 30
0.0
 11
365.5
 21
125.5127010415171
 31
0.0
  0
LINE
  5
2C0E
  8
1
 10
106.0
 20
132.25
 30
0.0
 11
209.5
 21
132.25
 31
0.0
  0
CIRCLE
  5
2C10
  8
0
 10
526.49999999999989
 20
192.25
 30
0.0
 40
6.0
  0
CIRCLE
  5
2C11
  8
0
 10
526.49999999999989
 20
192.25
 30
0.0
 40
13.5
  0
LINE
  5
2C14
  8
0
 10
372.0
 20
119.5127010415172
 30
0.0
 11
372.0
 21
122.5127010415171
 31
0.0
  0
LINE
  5
2C15
  8
0
 10
359.0
 20
122.5127010415171
 30
0.0
 11
359.0
 21
119.5127010415172
 31
0.0
  0
LINE
  5
2C16
  8
0
 10
359.0
 20
122.5127010415171
 30
0.0
 11
372.0
 21
122.5127010415171
 31
0.0
  0
LINE
  5
2C17
  8
0
 10
372.5
 20
82.512701041517175
 30
0.0
 11
372.5
 21
83.512701041517175
 31
0.0
  0
LINE
  5
2C18
  8
0
 10
358.5
 20
83.512701041517175
 30
0.0
 11
358.5
 21
82.512701041517175
 31
0.0
  0
LINE
  5
2C19
  8
0
 10
358.5
 20
82.512701041517175
 30
0.0
 11
372.5
 21
82.512701041517175
 31
0.0
  0
LINE
  5
2C1A
  8
0
 10
365.0
 20
85.512701041517175
 30
0.0
 11
366.0
 21
85.512701041517175
 31
0.0
  0
LINE
  5
2C1B
  8
0
 10
365.0
 20
115.5127010415172
 30
0.0
 11
366.0
 21
115.5127010415172
 31
0.0
  0
LINE
  5
2C1C
  8
0
 10
358.01668522645213
 20
115.5127010415172
 30
0.0
 11
358.01668522645213
 21
85.512701041517175
 31
0.0
  0
LINE
  5
2C1D
  8
0
 10
359.85494398727752
 20
85.512701041517175
 30
0.0
 11
359.85494398727752
 21
115.5127010415172
 31
0.0
  0
LINE
  5
2C1E
  8
0
 10
359.85494398727752
 20
115.5127010415172
 30
0.0
 11
360.56205076846408
 21
115.5127010415172
 31
0.0
  0
LINE
  5
2C1F
  8
0
 10
360.56205076846408
 20
115.5127010415172
 30
0.0
 11
360.56205076846408
 21
85.512701041517175
 31
0.0
  0
LINE
  5
2C20
  8
0
 10
359.85494398727752
 20
85.512701041517175
 30
0.0
 11
360.56205076846408
 21
85.512701041517175
 31
0.0
  0
LINE
  5
2C21
  8
0
 10
365.0
 20
85.512701041517175
 30
0.0
 11
365.0
 21
115.5127010415172
 31
0.0
  0
LINE
  5
2C22
  8
0
 10
366.0
 20
115.5127010415172
 30
0.0
 11
366.0
 21
85.512701041517175
 31
0.0
  0
LINE
  5
2C23
  8
0
 10
370.43794923153592
 20
85.512701041517175
 30
0.0
 11
370.43794923153592
 21
115.5127010415172
 31
0.0
  0
LINE
  5
2C24
  8
0
 10
370.43794923153592
 20
115.5127010415172
 30
0.0
 11
371.14505601272248
 21
115.5127010415172
 31
0.0
  0
LINE
  5
2C25
  8
0
 10
371.14505601272248
 20
115.5127010415172
 30
0.0
 11
371.14505601272248
 21
85.512701041517175
 31
0.0
  0
LINE
  5
2C26
  8
0
 10
370.43794923153592
 20
85.512701041517175
 30
0.0
 11
371.14505601272248
 21
85.512701041517175
 31
0.0
  0
LINE
  5
2C27
  8
0
 10
372.98331477354787
 20
85.512701041517175
 30
0.0
 11
372.98331477354787
 21
115.5127010415172
 31
0.0
  0
LINE
  5
2C28
  8
0
 10
372.98331477354787
 20
115.5127010415172
 30
0.0
 11
373.0
 21
115.5127010415172
 31
0.0
  0
LINE
  5
2C29
  8
0
 10
372.98331477354787
 20
85.512701041517175
 30
0.0
 11
373.0
 21
85.512701041517175
 31
0.0
  0
LINE
  5
2C2A
  8
0
 10
373.0
 20
83.512701041517175
 30
0.0
 11
373.0
 21
85.512701041517175
 31
0.0
  0
LINE
  5
2C2B
  8
0
 10
373.0
 20
115.5127010415172
 30
0.0
 11
373.0
 21
119.5127010415172
 31
0.0
  0
LINE
  5
2C2C
  8
0
 10
358.0
 20
119.5127010415172
 30
0.0
 11
358.0
 21
115.5127010415172
 31
0.0
  0
LINE
  5
2C2D
  8
0
 10
358.0
 20
85.512701041517175
 30
0.0
 11
358.0
 21
83.512701041517175
 31
0.0
  0
LINE
  5
2C2E
  8
0
 10
358.0
 20
119.5127010415172
 30
0.0
 11
373.0
 21
119.5127010415172
 31
0.0
  0
LINE
  5
2C2F
  8
0
 10
358.0
 20
85.512701041517175
 30
0.0
 11
358.01668522645213
 21
85.512701041517175
 31
0.0
  0
LINE
  5
2C30
  8
0
 10
358.0
 20
115.5127010415172
 30
0.0
 11
358.01668522645213
 21
115.5127010415172
 31
0.0
  0
LINE
  5
2C31
  8
0
 10
358.0
 20
83.512701041517175
 30
0.0
 11
373.0
 21
83.512701041517175
 31
0.0
  0
LINE
  5
2C32
  8
0
 10
108.90000000000001
 20
132.69999999999999
 30
0.0
 11
108.51575780120061
 21
132.69999999999999
 31
0.0
  0
LINE
  5
2C33
  8
0
 10
108.90000000000001
 20
131.80000000000001
 30
0.0
 11
108.90000000000001
 21
132.69999999999999
 31
0.0
  0
ARC
  5
2C34
  8
0
 10
118.4992203430475
 20
132.1251299428254
 30
0.0
 40
9.9999999999996714
 50
161.7908269044851
 51
176.70434092191209
  0
ARC
  5
2C35
  8
0
 10
118.4992203430478
 20
132.3748700571746
 30
0.0
 40
10.00000000000006
 50
183.29533523926619
 51
198.20917309551481
  0
LINE
  5
2C37
  8
0
 10
109.2265301755702
 20
111.5
 30
0.0
 11
109.2265301755702
 21
109.0
 31
0.0
  0
LINE
  5
2C38
  8
0
 10
124.2734698244297
 20
109.0
 30
0.0
 11
124.2734698244297
 21
111.5
 31
0.0
  0
LINE
  5
2C3F
  8
3
 10
122.7221141283743
 20
109.0
 30
0.0
 11
122.7221141283743
 21
111.5
 31
0.0
  0
LINE
  5
2C40
  8
3
 10
123.61341662983649
 20
109.0
 30
0.0
 11
123.61341662983649
 21
111.5
 31
0.0
  0
LINE
  5
2C45
  8
0
 10
124.5
 20
124.5
 30
0.0
 11
124.5
 21
111.5
 31
0.0
  0
LINE
  5
2C46
  8
0
 10
130.5
 20
140.0
 30
0.0
 11
109.0
 21
140.0
 31
0.0
  0
LINE
  5
2C47
  8
0
 10
130.5
 20
124.5
 30
0.0
 11
109.0
 21
124.5
 31
0.0
  0
LINE
  5
2C48
  8
0
 10
109.0
 20
140.0
 30
0.0
 11
109.0
 21
111.5
 31
0.0
  0
LINE
  5
2C49
  8
0
 10
140.5
 20
140.05000000000001
 30
0.0
 11
135.5
 21
140.05000000000001
 31
0.0
  0
LINE
  5
2C4A
  8
0
 10
140.5
 20
124.45
 30
0.0
 11
135.5
 21
124.45
 31
0.0
  0
LINE
  5
2C4D
  8
0
 10
135.5
 20
141.15000000000001
 30
0.0
 11
130.5
 21
141.15000000000001
 31
0.0
  0
LINE
  5
2C4F
  8
0
 10
130.5
 20
141.15000000000001
 30
0.0
 11
130.5
 21
123.34999999999999
 31
0.0
  0
LINE
  5
2C50
  8
0
 10
135.5
 20
123.34999999999999
 30
0.0
 11
130.5
 21
123.34999999999999
 31
0.0
  0
LINE
  5
2C51
  8
0
 10
135.5
 20
141.15000000000001
 30
0.0
 11
135.5
 21
123.34999999999999
 31
0.0
  0
LINE
  5
2C53
  8
3
 10
115.68408409577791
 20
109.0
 30
0.0
 11
115.68408409577791
 21
111.5
 31
0.0
  0
LINE
  5
2C54
  8
0
 10
109.2265301755702
 20
109.0
 30
0.0
 11
124.2734698244297
 21
109.0
 31
0.0
  0
LINE
  5
2C55
  8
0
 10
109.0
 20
111.5
 30
0.0
 11
124.5
 21
111.5
 31
0.0
  0
LINE
  5
2C56
  8
3
 10
117.815915904222
 20
109.0
 30
0.0
 11
117.815915904222
 21
111.5
 31
0.0
  0
LINE
  5
2C59
  8
0
 10
206.5
 20
122.25
 30
0.0
 11
140.5
 21
122.25
 31
0.0
  0
LINE
  5
2C5C
  8
0
 10
200.09999999999999
 20
122.25
 30
0.0
 11
200.09999999999999
 21
142.25
 31
0.0
  0
LINE
  5
2C5E
  8
0
 10
206.5
 20
142.25
 30
0.0
 11
206.5
 21
122.25
 31
0.0
  0
LINE
  5
2C5F
  8
0
 10
170.09999999999999
 20
142.25
 30
0.0
 11
170.09999999999999
 21
122.25
 31
0.0
  0
LINE
  5
2C60
  8
0
 10
206.5
 20
142.25
 30
0.0
 11
140.5
 21
142.25
 31
0.0
  0
LINE
  5
2C61
  8
0
 10
140.5
 20
142.25
 30
0.0
 11
140.5
 21
122.25
 31
0.0
  0
LINE
  5
2D6F
  8
2
 10
481.0
 20
198.25
 30
0.0
 11
473.0
 21
198.25
 31
0.0
  0
LINE
  5
2D70
  8
2
 10
473.0
 20
186.25
 30
0.0
 11
481.0
 21
186.25
 31
0.0
  0
LINE
  5
2D8C
  8
1
 10
486.0
 20
192.25
 30
0.0
 11
470.0
 21
192.25
 31
0.0
  0
LINE
  5
2D8E
  8
1
 10
106.0
 20
58.999999999999993
 30
0.0
 11
209.5
 21
58.999999999999993
 31
0.0
  0
LINE
  5
2D90
  8
0
 10
483.0
 20
178.75
 30
0.0
 11
483.0
 21
205.75
 31
0.0
  0
LINE
  5
2D91
  8
0
 10
473.0
 20
178.75
 30
0.0
 11
473.0
 21
205.75
 31
0.0
  0
LINE
  5
2D92
  8
0
 10
483.0
 20
205.75
 30
0.0
 11
473.0
 21
205.75
 31
0.0
  0
LINE
  5
2D93
  8
0
 10
473.0
 20
178.75
 30
0.0
 11
483.0
 21
178.75
 31
0.0
  0
LINE
  5
2DB4
  8
0
 10
108.90000000000001
 20
61.639720019126401
 30
0.0
 11
108.90000000000001
 21
61.677801669163827
 31
0.0
  0
POLYLINE
  5
2DB5
  8
0
 66
     1
 10
0.0
 20
0.0
 30
0.0
  0
VERTEX
  5
3D73
  8
0
 10
108.90000000000001
 20
56.360279980873592
 30
0.0
  0
VERTEX
  5
3D74
  8
0
 10
108.7160841600255
 20
57.106311930819231
 30
0.0
  0
VERTEX
  5
3D75
  8
0
 10
108.5897040254346
 20
57.868903607718828
 30
0.0
  0
VERTEX
  5
3D76
  8
0
 10
108.5353525864451
 20
58.432264726359612
 30
0.0
  0
VERTEX
  5
3D77
  8
0
 10
108.515757796548
 20
58.999999999999993
 30
0.0
  0
VERTEX
  5
3D78
  8
0
 10
108.52825886698641
 20
59.450372400631629
 30
0.0
  0
VERTEX
  5
3D79
  8
0
 10
108.5633544040334
 20
59.89999676708986
 30
0.0
  0
VERTEX
  5
3D7A
  8
0
 10
108.6193755357955
 20
60.347508065170288
 30
0.0
  0
VERTEX
  5
3D7B
  8
0
 10
108.6964383110551
 20
60.795817162732178
 30
0.0
  0
VERTEX
  5
3D7C
  8
0
 10
108.79390912671261
 20
61.240136928172433
 30
0.0
  0
VERTEX
  5
3D7D
  8
0
 10
108.90000000000001
 20
61.639720019126401
 30
0.0
  0
SEQEND
  5
3D7E
  8
0
  0
ARC
  5
2DB6
  8
0
 10
118.4992203430581
 20
58.87512994282212
 30
0.0
 40
10.000000000010809
 50
161.7908269044851
 51
163.72384895225531
  0
ARC
  5
2DB7
  8
0
 10
118.49922034304549
 20
59.12487005717395
 30
0.0
 40
9.9999999999976161
 50
196.27615104774469
 51
198.20917309551481
  0
LINE
  5
2DB8
  8
0
 10
108.90000000000001
 20
56.322198330836152
 30
0.0
 11
108.90000000000001
 21
56.360279980873592
 31
0.0
  0
LINE
  5
2DB9
  8
0
 10
130.5
 20
66.75
 30
0.0
 11
117.8363189024309
 21
66.75
 31
0.0
  0
LINE
  5
2DBA
  8
0
 10
130.5
 20
51.25
 30
0.0
 11
117.8363189024309
 21
51.25
 31
0.0
  0
LINE
  5
2DBB
  8
0
 10
140.5
 20
51.199999999999982
 30
0.0
 11
135.5
 21
51.199999999999982
 31
0.0
  0
LINE
  5
2DBC
  8
0
 10
140.5
 20
66.800000000000011
 30
0.0
 11
135.5
 21
66.800000000000011
 31
0.0
  0
LINE
  5
2DBD
  8
0
 10
130.5
 20
67.0
 30
0.0
 11
130.5
 21
50.999999999999993
 31
0.0
  0
LINE
  5
2DBE
  8
0
 10
135.5
 20
50.999999999999993
 30
0.0
 11
130.5
 21
50.999999999999993
 31
0.0
  0
LINE
  5
2DBF
  8
0
 10
135.5
 20
67.0
 30
0.0
 11
135.5
 21
50.999999999999993
 31
0.0
  0
LINE
  5
2DC0
  8
0
 10
135.5
 20
67.0
 30
0.0
 11
130.5
 21
67.0
 31
0.0
  0
LINE
  5
2DC3
  8
0
 10
206.5
 20
50.0
 30
0.0
 11
140.5
 21
50.0
 31
0.0
  0
LINE
  5
2DC5
  8
0
 10
140.5
 20
68.0
 30
0.0
 11
140.5
 21
50.0
 31
0.0
  0
LINE
  5
2DC6
  8
0
 10
170.09999999999999
 20
67.999999999999986
 30
0.0
 11
140.5
 21
68.0
 31
0.0
  0
LINE
  5
2DCB
  8
0
 10
206.5
 20
68.0
 30
0.0
 11
206.5
 21
50.0
 31
0.0
  0
LINE
  5
2DCD
  8
0
 10
206.5
 20
68.0
 30
0.0
 11
200.09999999999999
 21
67.999999999999986
 31
0.0
  0
LINE
  5
2DCE
  8
0
 10
109.0
 20
66.75
 30
0.0
 11
115.6636810975691
 21
66.75
 31
0.0
  0
LINE
  5
2DCF
  8
0
 10
115.6636810975691
 20
51.25
 30
0.0
 11
109.0
 21
51.25
 31
0.0
  0
LINE
  5
2DD0
  8
0
 10
109.0
 20
51.25
 30
0.0
 11
109.0
 21
66.75
 31
0.0
  0
LINE
  5
2DD1
  8
0
 10
124.5
 20
66.75
 30
0.0
 11
124.5
 21
51.25
 31
0.0
  0
ARC
  5
2DD2
  8
0
 10
123.7734698244297
 20
62.392767546609143
 30
0.0
 40
0.5000000000000006
 50
310.0
 51
25.783397564233681
  0
LINE
  5
2DD3
  8
0
 10
124.09486362927299
 20
62.00974532504965
 30
0.0
 11
123.8447305894927
 21
61.799858783624693
 31
0.0
  0
ARC
  5
2DD4
  8
0
 10
124.1661243943359
 20
61.4168365620652
 30
0.0
 40
0.5000000000000006
 50
130.0
 51
198.05024534960791
  0
ARC
  5
2DD5
  8
0
 10
116.75
 20
58.999999999999993
 30
0.0
 40
7.3000000000000016
 50
341.94975827264722
 51
18.050241479252751
  0
ARC
  5
2DD6
  8
0
 10
124.1661243943359
 20
56.583163437934779
 30
0.0
 40
0.5000000000000013
 50
161.9497582726471
 51
229.99999999999929
  0
LINE
  5
2DD7
  8
0
 10
123.8447305894927
 20
56.200141216375293
 30
0.0
 11
124.09486362927299
 21
55.990254674950329
 31
0.0
  0
ARC
  5
2DD8
  8
0
 10
123.7734698244298
 20
55.607232453390843
 30
0.0
 40
0.4999999999999968
 50
334.21660243576628
 51
49.999999999999972
  0
ARC
  5
2DD9
  8
0
 10
116.7499999999995
 20
59.00000000000027
 30
0.0
 40
8.3000000000005656
 50
325.78339756423441
 51
334.21660243576628
  0
ARC
  5
2DDA
  8
0
 10
123.1999577967138
 20
54.61388048263494
 30
0.0
 40
0.4999999999999995
 50
249.99999999999989
 51
325.78339756423441
  0
LINE
  5
2DDB
  8
0
 10
123.028947725051
 20
54.144034172242009
 30
0.0
 11
122.7221141283743
 21
54.255712468305141
 31
0.0
  0
ARC
  5
2DDC
  8
0
 10
122.55110405671149
 20
53.785866157912203
 30
0.0
 40
0.4999999999999992
 50
69.999999999999844
 51
138.05024534960631
  0
ARC
  5
2DDD
  8
0
 10
116.75
 20
59.00000000000005
 30
0.0
 40
7.3000000000000371
 50
281.94975827264818
 51
318.05024147925309
  0
ARC
  5
2DDE
  8
0
 10
118.3650203376244
 20
51.369029595846982
 30
0.0
 40
0.5000000000000036
 50
101.9497582726482
 51
169.9999999999981
  0
LINE
  5
2DDF
  8
0
 10
117.8726164611183
 20
51.455853684680442
 30
0.0
 11
117.815915904222
 21
51.134288847192337
 31
0.0
  0
ARC
  5
2DE0
  8
0
 10
117.32351202771591
 20
51.22111293602579
 30
0.0
 40
0.4999999999999995
 50
274.21660243576639
 51
350.00000000000142
  0
ARC
  5
2DE1
  8
0
 10
116.75
 20
58.999999999999993
 30
0.0
 40
8.3000000000000043
 50
265.78339756423361
 51
274.21660243576639
  0
ARC
  5
2DE2
  8
0
 10
116.17648797228399
 20
51.22111293602579
 30
0.0
 40
0.4999999999999981
 50
189.99999999999849
 51
265.78339756423361
  0
LINE
  5
2DE3
  8
0
 10
115.68408409577791
 20
51.134288847192337
 30
0.0
 11
115.6273835388816
 21
51.455853684680442
 31
0.0
  0
ARC
  5
2DE4
  8
0
 10
115.1349796623756
 20
51.369029595846982
 30
0.0
 40
0.5000000000000023
 50
10.00000000000184
 51
78.050245349606286
  0
ARC
  5
2DE5
  8
0
 10
116.75
 20
58.999999999999993
 30
0.0
 40
7.300000000000022
 50
221.9497582726479
 51
258.05024147925241
  0
LINE
  5
2DE6
  8
0
 10
109.6552694105073
 20
61.799858783624693
 30
0.0
 11
109.40513637072689
 21
62.00974532504965
 31
0.0
  0
ARC
  5
2DE7
  8
0
 10
109.7265301755702
 20
62.392767546609143
 30
0.0
 40
0.4999999999999993
 50
154.2166024357663
 51
229.99999999999929
  0
ARC
  5
2DE8
  8
0
 10
116.7499999999993
 20
59.000000000000391
 30
0.0
 40
8.2999999999992582
 50
145.7833975642346
 51
154.2166024357663
  0
ARC
  5
2DE9
  8
0
 10
110.3000422032861
 20
63.386119517365039
 30
0.0
 40
0.4999999999999993
 50
69.999999999999844
 51
145.7833975642348
  0
LINE
  5
2DEA
  8
0
 10
110.471052274949
 20
63.85596582775797
 30
0.0
 11
110.7778858716256
 21
63.744287531694837
 31
0.0
  0
ARC
  5
2DEB
  8
0
 10
110.94889594328841
 20
64.21413384208779
 30
0.0
 40
0.5000000000000079
 50
249.99999999999989
 51
318.05024534960569
  0
ARC
  5
2DEC
  8
0
 10
116.75
 20
58.999999999999993
 30
0.0
 40
7.2999999999999714
 50
101.9497582726482
 51
138.05024147925309
  0
ARC
  5
2DED
  8
0
 10
115.1349796623756
 20
66.630970404153004
 30
0.0
 40
0.5000000000000002
 50
281.94975827264659
 51
349.99999999999818
  0
LINE
  5
2DEE
  8
0
 10
115.6273835388816
 20
66.544146315319551
 30
0.0
 11
115.68408409577791
 21
66.865711152807648
 31
0.0
  0
ARC
  5
2DEF
  8
0
 10
116.17648797228399
 20
66.778887063974196
 30
0.0
 40
0.5000000000000044
 50
94.216602435766418
 51
169.9999999999981
  0
ARC
  5
2DF0
  8
0
 10
116.75
 20
58.999999999999368
 30
0.0
 40
8.3000000000006011
 50
85.783397564235202
 51
94.21660243576477
  0
ARC
  5
2DF1
  8
0
 10
117.32351202771591
 20
66.778887063974196
 30
0.0
 40
0.5000000000000041
 50
10.00000000000184
 51
85.783397564233596
  0
LINE
  5
2DF2
  8
0
 10
117.815915904222
 20
66.865711152807648
 30
0.0
 11
117.8726164611183
 21
66.544146315319551
 31
0.0
  0
ARC
  5
2DF3
  8
0
 10
118.3650203376244
 20
66.630970404153004
 30
0.0
 40
0.5000000000000004
 50
190.00000000000179
 51
258.05024320613148
  0
ARC
  5
2DF4
  8
0
 10
116.75
 20
58.999999999999943
 30
0.0
 40
7.3000000000000371
 50
41.949758272647912
 51
78.050241626065826
  0
ARC
  5
2DF5
  8
0
 10
122.55110405671149
 20
64.21413384208779
 30
0.0
 40
0.5000000000000001
 50
221.9497582726479
 51
289.99999999999932
  0
LINE
  5
2DF6
  8
0
 10
122.7221141283743
 20
63.744287531694837
 30
0.0
 11
123.028947725051
 21
63.85596582775797
 31
0.0
  0
ARC
  5
2DF7
  8
0
 10
123.1999577967138
 20
63.386119517365039
 30
0.0
 40
0.4999999999999976
 50
34.216602435765203
 51
110.0000000000008
  0
ARC
  5
2DF8
  8
0
 10
116.7500000000004
 20
59.00000000000022
 30
0.0
 40
8.2999999999995264
 50
25.783397564233681
 51
34.216602435765338
  0
ARC
  5
2DF9
  8
0
 10
109.33387560566401
 20
61.4168365620652
 30
0.0
 40
0.4999999999999992
 50
341.94975827264722
 51
49.999999999999972
  0
ARC
  5
2DFA
  8
0
 10
110.94889594328851
 20
53.785866157912203
 30
0.0
 40
0.5000000000000036
 50
41.949758272647912
 51
109.9999999999993
  0
LINE
  5
2DFB
  8
0
 10
110.7778858716256
 20
54.255712468305141
 30
0.0
 11
110.471052274949
 21
54.144034172242009
 31
0.0
  0
ARC
  5
2DFC
  8
0
 10
110.3000422032861
 20
54.61388048263494
 30
0.0
 40
0.4999999999999973
 50
214.21660243576531
 51
289.99999999999932
  0
ARC
  5
2DFD
  8
0
 10
116.7500000000005
 20
59.000000000000341
 30
0.0
 40
8.3000000000006491
 50
205.7833975642337
 51
214.21660243576491
  0
ARC
  5
2DFE
  8
0
 10
109.7265301755702
 20
55.607232453390843
 30
0.0
 40
0.5000000000000023
 50
130.0
 51
205.7833975642337
  0
LINE
  5
2DFF
  8
0
 10
109.40513637072689
 20
55.990254674950329
 30
0.0
 11
109.6552694105073
 21
56.200141216375293
 31
0.0
  0
ARC
  5
2E00
  8
0
 10
109.33387560566401
 20
56.583163437934779
 30
0.0
 40
0.5000000000000019
 50
310.0
 51
18.05024534960793
  0
ARC
  5
2E01
  8
0
 10
116.75
 20
58.999999999999993
 30
0.0
 40
7.3000000000000087
 50
161.9497582726471
 51
198.05024147925269
  0
LINE
  5
2F9E
  8
1
 10
365.5
 20
142.01270104151709
 30
0.0
 11
365.5
 21
163.01270104151709
 31
0.0
  0
LINE
  5
2F9F
  8
1
 10
376.0
 20
152.5127010415172
 30
0.0
 11
355.0
 21
152.5127010415172
 31
0.0
  0
CIRCLE
  5
30D1
  8
0
 10
365.5
 20
152.5127010415172
 30
0.0
 40
6.5
  0
CIRCLE
  5
30D2
  8
0
 10
365.5
 20
152.5127010415172
 30
0.0
 40
7.5
  0
CIRCLE
  5
311C
  8
0
 10
526.49999999999989
 20
192.25
 30
0.0
 40
9.0
  0
LINE
  5
311D
  8
2
 10
481.0
 20
183.25
 30
0.0
 11
481.0
 21
201.25
 31
0.0
  0
LINE
  5
311E
  8
2
 10
483.0
 20
183.25
 30
0.0
 11
481.0
 21
183.25
 31
0.0
  0
LINE
  5
311F
  8
2
 10
483.0
 20
201.25
 30
0.0
 11
481.0
 21
201.25
 31
0.0
  0
LINE
  5
3164
  8
0
 10
108.90000000000001
 20
131.80000000000001
 30
0.0
 11
108.51575534399279
 21
131.8000425938049
 31
0.0
  0
LINE
  5
31B4
  8
1
 10
116.75
 20
127.5
 30
0.0
 11
116.75
 21
106.0
 31
0.0
  0
LINE
  5
31FF
  8
3
 10
110.7778858716256
 20
109.0
 30
0.0
 11
110.7778858716256
 21
111.5
 31
0.0
  0
LINE
  5
3200
  8
3
 10
109.88658337016351
 20
109.0
 30
0.0
 11
109.88658337016351
 21
111.5
 31
0.0
  0
CIRCLE
  5
328A
  8
0
 10
116.75
 20
58.999999999999993
 30
0.0
 40
3.75
  0
CIRCLE
  5
328B
  8
0
 10
256.5
 20
132.25
 30
0.0
 40
7.5
  0
ARC
  5
328C
  8
0
 10
265.25
 20
142.0
 30
0.0
 40
0.2500000000000071
 50
0.0
 51
90.0
  0
ARC
  5
328D
  8
0
 10
265.25
 20
122.5
 30
0.0
 40
0.2500000000000036
 50
270.0
 51
0.0
  0
LINE
  5
328E
  8
0
 10
265.5
 20
142.0
 30
0.0
 11
265.5
 21
122.5
 31
0.0
  0
LINE
  5
3353
  8
0
 10
248.19999999999999
 20
109.0
 30
0.0
 11
248.19999999999999
 21
111.5
 31
0.0
  0
LINE
  5
3354
  8
3
 10
248.95585368468039
 20
109.0
 30
0.0
 11
248.95585368468039
 21
111.5
 31
0.0
  0
LINE
  5
3359
  8
3
 10
261.3861195173651
 20
111.5
 30
0.0
 11
261.3861195173651
 21
109.0
 31
0.0
  0
LINE
  5
335A
  8
3
 10
258.76191111136558
 20
109.0
 30
0.0
 11
258.76191111136558
 21
111.5
 31
0.0
  0
LINE
  5
335B
  8
3
 10
259.50974532504972
 20
109.0
 30
0.0
 11
259.50974532504972
 21
111.5
 31
0.0
  0
LINE
  5
3444
  8
0
 10
67.300000000000011
 20
109.0
 30
0.0
 11
67.300000000000011
 21
111.5
 31
0.0
  0
LINE
  5
3445
  8
0
 10
50.699999999999989
 20
111.5
 30
0.0
 11
67.300000000000011
 21
111.5
 31
0.0
  0
LINE
  5
3446
  8
3
 10
66.544146315319551
 20
109.0
 30
0.0
 11
66.544146315319551
 21
111.5
 31
0.0
  0
LINE
  5
3447
  8
3
 10
54.113880482634947
 20
111.5
 30
0.0
 11
54.113880482634947
 21
109.0
 31
0.0
  0
LINE
  5
3448
  8
3
 10
56.738088888634422
 20
109.0
 30
0.0
 11
56.738088888634422
 21
111.5
 31
0.0
  0
LINE
  5
3449
  8
0
 10
50.699999999999989
 20
109.0
 30
0.0
 11
67.300000000000011
 21
109.0
 31
0.0
  0
LINE
  5
344A
  8
3
 10
55.990254674950307
 20
109.0
 30
0.0
 11
55.990254674950307
 21
111.5
 31
0.0
  0
LINE
  5
344B
  8
0
 10
50.699999999999989
 20
109.0
 30
0.0
 11
50.699999999999989
 21
111.5
 31
0.0
  0
LINE
  5
344C
  8
3
 10
51.455853684680449
 20
109.0
 30
0.0
 11
51.455853684680449
 21
111.5
 31
0.0
  0
LINE
  5
344D
  8
3
 10
63.886119517365039
 20
111.5
 30
0.0
 11
63.886119517365039
 21
109.0
 31
0.0
  0
LINE
  5
344E
  8
3
 10
61.261911111365578
 20
109.0
 30
0.0
 11
61.261911111365578
 21
111.5
 31
0.0
  0
LINE
  5
344F
  8
3
 10
62.009745325049693
 20
109.0
 30
0.0
 11
62.009745325049693
 21
111.5
 31
0.0
  0
LINE
  5
34DC
  8
0
 10
59.449999999999989
 20
129.6102799808736
 30
0.0
 11
59.449999999999989
 21
131.80000000000001
 31
0.0
  0
LINE
  5
34DD
  8
0
 10
58.550000000000011
 20
134.8897200191264
 30
0.0
 11
58.550000000000011
 21
132.69999999999999
 31
0.0
  0
ARC
  5
34DE
  8
0
 10
59.0
 20
132.25
 30
0.0
 40
2.6778016691638311
 50
80.325637955987133
 51
99.674362044012867
  0
ARC
  5
34DF
  8
0
 10
59.0
 20
132.25
 30
0.0
 40
2.6778016691638311
 50
260.32563795598719
 51
279.67436204401292
  0
LINE
  5
34E0
  8
0
 10
59.449999999999989
 20
132.69999999999999
 30
0.0
 11
59.449999999999989
 21
134.8897200191264
 31
0.0
  0
LINE
  5
34E1
  8
0
 10
58.550000000000011
 20
131.80000000000001
 30
0.0
 11
58.550000000000011
 21
129.6102799808736
 31
0.0
  0
LINE
  5
34E3
  8
0
 10
59.449999999999989
 20
131.80000000000001
 30
0.0
 11
61.639720019126401
 21
131.80000000000001
 31
0.0
  0
LINE
  5
34E4
  8
0
 10
58.550000000000011
 20
132.69999999999999
 30
0.0
 11
56.360279980873599
 21
132.69999999999999
 31
0.0
  0
LINE
  5
371D
  8
0
 10
66.75
 20
124.5
 30
0.0
 11
51.25
 21
124.5
 31
0.0
  0
LINE
  5
3763
  8
1
 10
116.75
 20
70.299999999999983
 30
0.0
 11
116.75
 21
47.699999999999982
 31
0.0
  0
LINE
  5
3AC4
  8
1
 10
526.49999999999989
 20
75.5
 30
0.0
 11
526.49999999999989
 21
42.499999999999993
 31
0.0
  0
LINE
  5
3AC5
  8
1
 10
510.0
 20
58.999999999999993
 30
0.0
 11
543.0
 21
58.999999999999993
 31
0.0
  0
CIRCLE
  5
3AC6
  8
0
 10
526.49999999999989
 20
58.999999999999993
 30
0.0
 40
6.0
  0
CIRCLE
  5
3AC7
  8
0
 10
526.49999999999989
 20
58.999999999999993
 30
0.0
 40
13.5
  0
LINE
  5
3AC8
  8
2
 10
481.0
 20
65.0
 30
0.0
 11
473.0
 21
65.0
 31
0.0
  0
LINE
  5
3AC9
  8
2
 10
473.0
 20
52.999999999999993
 30
0.0
 11
481.0
 21
52.999999999999993
 31
0.0
  0
LINE
  5
3ACA
  8
1
 10
486.0
 20
58.999999999999993
 30
0.0
 11
470.0
 21
58.999999999999993
 31
0.0
  0
LINE
  5
3ACB
  8
0
 10
483.0
 20
45.499999999999993
 30
0.0
 11
483.0
 21
72.5
 31
0.0
  0
LINE
  5
3ACC
  8
2
 10
481.0
 20
50.0
 30
0.0
 11
481.0
 21
68.0
 31
0.0
  0
LINE
  5
3ACD
  8
0
 10
473.0
 20
45.499999999999993
 30
0.0
 11
473.0
 21
72.5
 31
0.0
  0
LINE
  5
3ACE
  8
0
 10
483.0
 20
72.5
 30
0.0
 11
473.0
 21
72.5
 31
0.0
  0
LINE
  5
3ACF
  8
0
 10
473.0
 20
45.499999999999993
 30
0.0
 11
483.0
 21
45.499999999999993
 31
0.0
  0
CIRCLE
  5
3AD0
  8
0
 10
526.49999999999989
 20
58.999999999999993
 30
0.0
 40
9.0
  0
LINE
  5
3AD1
  8
2
 10
483.0
 20
50.0
 30
0.0
 11
481.0
 21
50.0
 31
0.0
  0
LINE
  5
3AD2
  8
2
 10
483.0
 20
68.0
 30
0.0
 11
481.0
 21
68.0
 31
0.0
  0
LINE
  5
3BF7
  8
0
 10
200.09999999999999
 20
200.05000000000001
 30
0.0
 11
170.09999999999999
 21
200.0500000000001
 31
0.0
  0
LINE
  5
3BFA
  8
0
 10
200.09999999999999
 20
51.199999999999989
 30
0.0
 11
170.09999999999999
 21
51.19999999999996
 31
0.0
  0
LINE
  5
3BFB
  8
0
 10
170.09999999999999
 20
51.199999999999989
 30
0.0
 11
170.09999999999999
 21
68.0
 31
0.0
  0
LINE
  5
3BFC
  8
0
 10
200.09999999999999
 20
68.0
 30
0.0
 11
200.09999999999999
 21
51.199999999999989
 31
0.0
  0
ENDSEC
  0
EOF
