  0
SECTION
  2
HEADER
  9
$ACADVER
  1
AC1009
  9
$INSBASE
 10
0.0
 20
0.0
 30
0.0
  9
$EXTMIN
 10
0.0
 20
-2.960436562073669
 30
0.0
  9
$EXTMAX
 10
555.79999999006372
 20
346.49999999980008
 30
0.0
  9
$LIMMIN
 10
0.0
 20
0.0
  9
$LIMMAX
 10
375.0
 20
270.0
  9
$ORTHOMODE
 70
     1
  9
$REGENMODE
 70
     1
  9
$FILLMODE
 70
     1
  9
$QTEXTMODE
 70
     0
  9
$MIRRTEXT
 70
     0
  9
$DRAGMODE
 70
     2
  9
$LTSCALE
 40
10.0
  9
$OSMODE
 70
    37
  9
$ATTMODE
 70
     1
  9
$TEXTSIZE
 40
0.2
  9
$TRACEWID
 40
0.05
  9
$TEXTSTYLE
  7
STANDARD
  9
$CLAYER
  8
0
  9
$CELTYPE
  6
BYLAYER
  9
$CECOLOR
 62
   256
  9
$DIMSCALE
 40
1.0
  9
$DIMASZ
 40
3.0
  9
$DIMEXO
 40
2.0
  9
$DIMDLI
 40
0.38
  9
$DIMRND
 40
0.0
  9
$DIMDLE
 40
0.0
  9
$DIMEXE
 40
2.0
  9
$DIMTP
 40
0.0
  9
$DIMTM
 40
0.0
  9
$DIMTXT
 40
3.2000000000000002
  9
$DIMCEN
 40
0.0
  9
$DIMTSZ
 40
0.0
  9
$DIMTOL
 70
     0
  9
$DIMLIM
 70
     0
  9
$DIMTIH
 70
     0
  9
$DIMTOH
 70
     0
  9
$DIMSE1
 70
     0
  9
$DIMSE2
 70
     0
  9
$DIMTAD
 70
     1
  9
$DIMZIN
 70
     0
  9
$DIMBLK
  1

  9
$DIMASO
 70
     0
  9
$DIMSHO
 70
     0
  9
$DIMPOST
  1

  9
$DIMAPOST
  1

  9
$DIMALT
 70
     0
  9
$DIMALTD
 70
     2
  9
$DIMALTF
 40
25.399999999999999
  9
$DIMLFAC
 40
1.0
  9
$DIMTOFL
 70
     0
  9
$DIMTVP
 40
1.6000000000000001
  9
$DIMTIX
 70
     1
  9
$DIMSOXD
 70
     0
  9
$DIMSAH
 70
     0
  9
$DIMBLK1
  1

  9
$DIMBLK2
  1

  9
$DIMSTYLE
  2
STANDARD
  9
$DIMCLRD
 70
     4
  9
$DIMCLRE
 70
     4
  9
$DIMCLRT
 70
     4
  9
$DIMTFAC
 40
1.0
  9
$DIMGAP
 40
0.09
  9
$LUNITS
 70
     2
  9
$LUPREC
 70
     1
  9
$SKETCHINC
 40
0.1
  9
$FILLETRAD
 40
0.0
  9
$AUNITS
 70
     0
  9
$AUPREC
 70
     1
  9
$MENU
  1
E:\r13\win\SUPPORT\ACAD
  9
$ELEVATION
 40
0.0
  9
$PELEVATION
 40
0.0
  9
$THICKNESS
 40
0.0
  9
$LIMCHECK
 70
     0
  9
$BLIPMODE
 70
     0
  9
$CHAMFERA
 40
0.0
  9
$CHAMFERB
 40
0.0
  9
$SKPOLY
 70
     0
  9
$TDCREATE
 40
2449840.6508564819
  9
$TDUPDATE
 40
2457968.4255272229
  9
$TDINDWG
 40
0.5677669444
  9
$TDUSRTIMER
 40
0.5677669444
  9
$USRTIMER
 70
     1
  9
$ANGBASE
 50
0.0
  9
$ANGDIR
 70
     0
  9
$PDMODE
 70
     0
  9
$PDSIZE
 40
0.0
  9
$PLINEWID
 40
0.0
  9
$COORDS
 70
     1
  9
$SPLFRAME
 70
     0
  9
$SPLINETYPE
 70
     6
  9
$SPLINESEGS
 70
     8
  9
$ATTDIA
 70
     0
  9
$ATTREQ
 70
     1
  9
$HANDLING
 70
     1
  9
$HANDSEED
  5
41CA
  9
$SURFTAB1
 70
     6
  9
$SURFTAB2
 70
     6
  9
$SURFTYPE
 70
     6
  9
$SURFU
 70
     6
  9
$SURFV
 70
     6
  9
$UCSNAME
  2

  9
$UCSORG
 10
0.0
 20
0.0
 30
0.0
  9
$UCSXDIR
 10
1.0
 20
0.0
 30
0.0
  9
$UCSYDIR
 10
0.0
 20
1.0
 30
0.0
  9
$PUCSNAME
  2

  9
$PUCSORG
 10
0.0
 20
0.0
 30
0.0
  9
$PUCSXDIR
 10
1.0
 20
0.0
 30
0.0
  9
$PUCSYDIR
 10
0.0
 20
1.0
 30
0.0
  9
$USERI1
 70
     0
  9
$USERI2
 70
     1
  9
$USERI3
 70
     1
  9
$USERI4
 70
     0
  9
$USERI5
 70
     0
  9
$USERR1
 40
0.0
  9
$USERR2
 40
0.0
  9
$USERR3
 40
0.0
  9
$USERR4
 40
0.0
  9
$USERR5
 40
0.0
  9
$WORLDVIEW
 70
     1
  9
$SHADEDGE
 70
     3
  9
$SHADEDIF
 70
    70
  9
$TILEMODE
 70
     1
  9
$MAXACTVP
 70
    16
  9
$PLIMCHECK
 70
     0
  9
$PEXTMIN
 10
1.0000000000000000E+020
 20
1.0000000000000000E+020
 30
1.0000000000000000E+020
  9
$PEXTMAX
 10
-1.0000000000000000E+020
 20
-1.0000000000000000E+020
 30
-1.0000000000000000E+020
  9
$PLIMMIN
 10
0.0
 20
0.0
  9
$PLIMMAX
 10
12.0
 20
9.0
  9
$UNITMODE
 70
     0
  9
$VISRETAIN
 70
     0
  9
$PLINEGEN
 70
     0
  9
$PSLTSCALE
 70
     0
  0
ENDSEC
  0
SECTION
  2
TABLES
  0
TABLE
  2
VPORT
 70
     1
  0
VPORT
  2
*ACTIVE
 70
     0
 10
0.0
 20
0.0
 11
1.0
 21
1.0
 12
454.05982905982899
 22
250.0
 13
0.0
 23
0.0
 14
10.0
 24
10.0
 15
10.0
 25
10.0
 16
0.0
 26
0.0
 36
1.0
 17
0.0
 27
0.0
 37
0.0
 40
500.0
 41
1.816239316239316
 42
50.0
 43
0.0
 44
0.0
 50
0.0
 51
0.0
 71
     0
 72
   500
 73
     1
 74
     0
 75
     0
 76
     0
 77
     0
 78
     2
  0
ENDTAB
  0
TABLE
  2
LTYPE
 70
     3
  0
LTYPE
  2
CONTINUOUS
 70
     0
  3
Solid Line
 72
    65
 73
     0
 40
0.0
  0
LTYPE
  2
CENTER
 70
     0
  3
____ _ ____ _ ____ _ ____ _ ____ _ ____ _ ____
 72
    65
 73
     4
 40
2.0
 49
1.25
 49
-0.25
 49
0.25
 49
-0.25
  0
LTYPE
  2
PHANTOM2
 70
     0
  3
___ _ _ ___ _ _ ___ _ _ ___ _ _
 72
    65
 73
     6
 40
1.25
 49
0.625
 49
-0.125
 49
0.125
 49
-0.125
 49
0.125
 49
-0.125
  0
ENDTAB
  0
TABLE
  2
LAYER
 70
     3
  0
LAYER
  2
0
 70
     0
 62
     7
  6
CONTINUOUS
  0
LAYER
  2
1
 70
     0
 62
     1
  6
CENTER
  0
LAYER
  2
3
 70
     0
 62
     3
  6
CONTINUOUS
  0
ENDTAB
  0
TABLE
  2
STYLE
 70
     2
  0
STYLE
  2
STANDARD
 70
     0
 40
0.0
 41
1.0
 50
0.0
 71
     0
 42
0.2
  3
TXT
  4
BIGFONT
  0
STYLE
  2
STANDARD1
 70
     0
 40
0.0
 41
1.0
 50
0.0
 71
     0
 42
3.0
  3
txt
  4

  0
ENDTAB
  0
TABLE
  2
VIEW
 70
     1
  0
VIEW
  2
ALL
 70
     0
 40
270.0
 10
220.99159663865549
 20
135.0
 41
0.0
 11
0.0
 21
0.0
 31
1.0
 12
0.0
 22
0.0
 32
0.0
 42
0.0
 43
0.0
 44
0.0
 50
0.0
 71
     0
  0
ENDTAB
  0
TABLE
  2
UCS
 70
     0
  0
ENDTAB
  0
TABLE
  2
APPID
 70
    16
  0
APPID
  2
ACAD
 70
     0
  0
APPID
  2
GENIUS_GENODEF_13
 70
     0
  0
APPID
  2
GENIUS_GENOENT_13
 70
     0
  0
APPID
  2
GENIUS_GENOBJ_13
 70
     0
  0
APPID
  2
GENIUS_GENOLIS_13
 70
     0
  0
APPID
  2
GENIUS_GENOREF_13
 70
     0
  0
APPID
  2
GENIUS_GENOBJ-N-FIL_13
 70
     0
  0
APPID
  2
ACAD_MLEADERVER
 70
     0
  0
APPID
  2
ACAD_DSTYLE_DIMJAG
 70
     0
  0
APPID
  2
ACAD_DSTYLE_DIMTALN
 70
     0
  0
APPID
  2
ACAD_NAV_VCDISPLAY
 70
     0
  0
APPID
  2
ACAD_EXEMPT_FROM_CAD_STANDARDS
 70
     0
  0
APPID
  2
ACADANNOTATIVE
 70
     0
  0
APPID
  2
ACAECLAYERSTANDARD
 70
     0
  0
APPID
  2
ACCMTRANSPARENCY
 70
     0
  0
APPID
  2
ACAD_DSTYLE_DIMRADIAL_EXTENSION
 70
     0
  0
ENDTAB
  0
TABLE
  2
DIMSTYLE
 70
     1
  0
DIMSTYLE
  2
STANDARD
 70
     0
  3

  4

  5

  6

  7

 40
1.0
 41
0.18
 42
0.0625
 43
0.38
 44
0.18
 45
0.0
 46
0.0
 47
0.0
 48
0.0
140
0.18
141
0.09
142
0.0
143
25.399999999999999
144
1.0
145
0.0
146
1.0
147
0.09
 71
     0
 72
     0
 73
     1
 74
     1
 75
     0
 76
     0
 77
     0
 78
     0
170
     0
171
     2
172
     0
173
     0
174
     0
175
     0
176
     0
177
     0
178
     0
  0
ENDTAB
  0
ENDSEC
  0
SECTION
  2
BLOCKS
  0
BLOCK
  8
0
  2
$MODEL_SPACE
 70
     0
 10
0.0
 20
0.0
 30
0.0
  3
$MODEL_SPACE
  1

  0
ENDBLK
  5
DC
  8
0
  0
BLOCK
 67
     1
  8
0
  2
$PAPER_SPACE
 70
     0
 10
0.0
 20
0.0
 30
0.0
  3
$PAPER_SPACE
  1

  0
ENDBLK
  5
DA
 67
     1
  8
0
  0
ENDSEC
  0
SECTION
  2
ENTITIES
  0
TEXT
  5
452
  8
0
 62
     3
 10
0.0
 20
0.0
 30
0.0
 40
10.0
  1
SCA100TFR
  7
STANDARD1
  0
ARC
  5
354D
  8
0
 10
307.0
 20
100.0000000000001
 30
0.0
 40
50.0
 50
150.06497246884541
 51
47.731415570430933
  0
ARC
  5
354F
  8
0
 10
237.99999999719989
 20
174.89279363989999
 30
0.0
 40
0.4999999971000207
 50
119.999999828285
 51
225.00000021878131
  0
ARC
  5
3550
  8
0
 10
296.00000000279988
 20
174.89279363989999
 30
0.0
 40
0.4999999971000207
 50
314.99999978122747
 51
60.000000171714937
  0
LINE
  5
3551
  8
0
 10
237.64644660999261
 20
174.53924025000731
 30
0.0
 11
238.68568686
 21
173.50000000000011
 31
0.0
  0
LINE
  5
3552
  8
0
 10
295.31431314000002
 20
173.50000000000011
 30
0.0
 11
296.35355339000739
 21
174.53924025000731
 31
0.0
  0
LINE
  5
3553
  8
0
 10
296.25000000001978
 20
175.3258063400188
 30
0.0
 11
294.440380800105
 21
176.37059046996961
 31
0.0
  0
LINE
  5
3554
  8
0
 10
239.559619199895
 20
176.37059046996961
 30
0.0
 11
237.74999999998019
 21
175.3258063400188
 31
0.0
  0
ARC
  5
3555
  8
0
 10
239.0766563343002
 20
177.20710672569999
 30
0.0
 40
0.9659257609999059
 50
299.99999898750599
 51
330.00000101220269
  0
ARC
  5
3556
  8
0
 10
294.9233436656998
 20
177.20710672569999
 30
0.0
 40
0.9659257609998775
 50
209.9999989877999
 51
240.0000010125014
  0
LINE
  5
3557
  8
0
 10
294.08682740998978
 20
176.7241438599826
 30
0.0
 11
292.48418611998483
 21
179.4999999899913
 31
0.0
  0
LINE
  5
3558
  8
0
 10
241.5158138800152
 20
179.4999999899913
 30
0.0
 11
239.91317259001011
 21
176.7241438599826
 31
0.0
  0
LINE
  5
3559
  8
0
 10
243.0
 20
173.50000000000011
 30
0.0
 11
243.0
 21
172.00000000000011
 31
0.0
  0
LINE
  5
355A
  8
0
 10
291.0
 20
172.00000000000011
 30
0.0
 11
291.0
 21
173.50000000000011
 31
0.0
  0
LINE
  5
355B
  8
0
 10
238.5
 20
172.00000000000011
 30
0.0
 11
238.5
 21
153.99999999845909
 31
0.0
  0
LINE
  5
355C
  8
0
 10
396.99999999000028
 20
117.5000000000001
 30
0.0
 11
396.99999999000028
 21
124.5
 31
0.0
  0
LINE
  5
355E
  8
0
 10
311.09243970999643
 20
105.9116864954191
 30
0.0
 11
314.16589053925418
 21
100.58831350448671
 31
0.0
  0
ARC
  5
355F
  8
0
 10
307.0
 20
100.0000000000001
 30
0.0
 40
7.1900000000093156
 50
355.30659140571152
 51
4.6934085942884654
  0
LINE
  5
3560
  8
0
 10
314.16589053925418
 20
99.411686495513379
 30
0.0
 11
311.09243970999182
 21
94.088313504572938
 31
0.0
  0
ARC
  5
3567
  8
0
 10
307.0
 20
100.0000000000001
 30
0.0
 40
7.1900000000052264
 50
55.306591404661269
 51
64.693408594806556
  0
ARC
  5
356A
  8
0
 10
307.0
 20
100.0000000000001
 30
0.0
 40
7.1900000000093334
 50
295.30659140526541
 51
304.6934085951803
  0
ARC
  5
356C
  8
0
 10
307.0
 20
100.0000000000001
 30
0.0
 40
7.1900000000052753
 50
235.3065914046613
 51
244.69340859480661
  0
LINE
  5
356D
  8
0
 10
302.90756028999499
 20
94.088313504593344
 30
0.0
 11
299.83410946075043
 21
99.411686495508121
 31
0.0
  0
LINE
  5
356E
  8
0
 10
310.07345082930442
 20
93.500000000001393
 30
0.0
 11
303.92654917070809
 21
93.500000000000085
 31
0.0
  0
LINE
  5
356F
  8
0
 10
299.83410946075043
 20
100.58831350449179
 30
0.0
 11
302.90756029000107
 21
105.9116864954174
 31
0.0
  0
ARC
  5
3570
  8
0
 10
307.0
 20
100.0000000000001
 30
0.0
 40
7.190000000005198
 50
115.3065914051069
 51
124.6934085952515
  0
LINE
  5
3571
  8
0
 10
303.92654917072042
 20
106.5000000000001
 30
0.0
 11
310.07345082929459
 21
106.49999999999871
 31
0.0
  0
ARC
  5
3573
  8
0
 10
307.0
 20
100.0000000000001
 30
0.0
 40
7.1900000000052406
 50
175.30659140555341
 51
184.69340859435999
  0
ARC
  5
3577
  8
0
 10
306.59666803632581
 20
98.927717988702923
 30
0.0
 40
15.1330938088722
 50
220.9975677093081
 51
271.52724593866742
  0
ARC
  5
3578
  8
0
 10
307.00045535886278
 20
99.999460066847163
 30
0.0
 40
16.19946007356041
 50
269.99838944378928
 51
33.162416688557443
  0
ARC
  5
357A
  8
0
 10
307.0
 20
100.0000000000001
 30
0.0
 40
39.199999999672833
 50
155.65215253972809
 51
65.346222689872434
  0
LINE
  5
357C
  8
0
 10
238.68568686
 20
173.50000000000011
 30
0.0
 11
295.31431314000002
 21
173.50000000000011
 31
0.0
  0
LINE
  5
357D
  8
0
 10
286.21742459993089
 20
179.5
 30
0.0
 11
286.21742459993612
 21
182.5
 31
0.0
  0
LINE
  5
357E
  8
0
 10
247.78257540005799
 20
182.5
 30
0.0
 11
247.78257540005799
 21
179.5
 31
0.0
  0
LINE
  5
3587
  8
0
 10
327.0
 20
182.5
 30
0.0
 11
327.0
 21
179.5
 31
0.0
  0
LINE
  5
3589
  8
0
 10
206.99999999999989
 20
182.5
 30
0.0
 11
327.0
 21
182.5
 31
0.0
  0
LINE
  5
358A
  8
0
 10
206.99999999999989
 20
179.5
 30
0.0
 11
327.0
 21
179.5
 31
0.0
  0
LINE
  5
3590
  8
0
 10
207.0
 20
182.5
 30
0.0
 11
207.0
 21
179.5
 31
0.0
  0
LINE
  5
3593
  8
0
 10
286.21742459948359
 20
98.929413096845764
 30
0.0
 11
286.21742459948632
 21
172.00000000000011
 31
0.0
  0
LINE
  5
3594
  8
0
 10
238.49999999999201
 20
172.00000000000011
 30
0.0
 11
295.5
 21
172.00000000000011
 31
0.0
  0
LINE
  5
3595
  8
0
 10
238.5
 20
153.99999999845909
 30
0.0
 11
285.97087876000018
 21
99.213951169999817
 31
0.0
  0
LINE
  5
3596
  8
0
 10
285.97087876000001
 20
99.213951170000058
 30
0.0
 11
286.21742459947541
 21
98.9294130968552
 31
0.0
  0
LINE
  5
3597
  8
0
 10
288.91460700575789
 20
172.00000000000011
 30
0.0
 11
288.91460700575789
 21
95.816600135028395
 31
0.0
  0
LINE
  5
3599
  8
0
 10
288.91460700575789
 20
95.816600135028395
 30
0.0
 11
286.21742459948632
 21
98.929413096842595
 31
0.0
  0
LINE
  5
359A
  8
0
 10
349.82336961999999
 20
158.42132425
 30
0.0
 11
372.0
 21
142.8930804950231
 31
0.0
  0
ARC
  5
359B
  8
0
 10
366.10691946500009
 20
142.89308052829989
 30
0.0
 40
5.8930805349999096
 50
270.00000034319783
 51
359.99999967646482
  0
LINE
  5
359C
  8
0
 10
366.106919500299
 20
137.0
 30
0.0
 11
328.40928494085011
 21
137.0
 31
0.0
  0
ARC
  5
359D
  8
0
 10
328.40928494169998
 20
126.9999999958
 30
0.0
 40
10.00000000419999
 50
90.000000004872305
 51
186.99999997594159
  0
LINE
  5
359E
  8
0
 10
321.6225176503097
 20
100.2186934373306
 30
0.0
 11
318.48382342060631
 21
125.78130656540451
 31
0.0
  0
ARC
  5
359F
  8
0
 10
311.697056143
 20
99.000000001200092
 30
0.0
 40
9.999999991217825
 50
269.99999996274772
 51
7.0000000181789357
  0
LINE
  5
35A0
  8
0
 10
294.82103766
 20
89.000000010000093
 30
0.0
 11
311.69705613649847
 21
89.000000010000093
 31
0.0
  0
LINE
  5
35A1
  8
0
 10
295.5
 20
172.00000000000011
 30
0.0
 11
295.5
 21
168.00000000000011
 31
0.0
  0
LINE
  5
35A2
  8
0
 10
295.5
 20
168.00000000000011
 30
0.0
 11
349.82336961999999
 21
158.42132425000011
 31
0.0
  0
LINE
  5
35A4
  8
0
 10
289.29910310999998
 20
95.372853930000076
 30
0.0
 11
288.91460700575789
 21
95.816600135028395
 31
0.0
  0
LINE
  5
35A5
  8
0
 10
289.29910310999998
 20
95.372853930000076
 30
0.0
 11
294.82103766
 21
89.000000010000093
 31
0.0
  0
LINE
  5
35A6
  8
0
 10
380.33419716999992
 20
124.5
 30
0.0
 11
368.70461335197768
 21
137.6034317118866
 31
0.0
  0
LINE
  5
35A7
  8
0
 10
386.89578808750008
 20
117.5000000000001
 30
0.0
 11
386.89578808750008
 21
124.5
 31
0.0
  0
LINE
  5
35A8
  8
0
 10
378.10382443999993
 20
117.5000000000001
 30
0.0
 11
396.99999999000028
 21
117.5000000000001
 31
0.0
  0
LINE
  5
35A9
  8
0
 10
378.10382443999993
 20
117.5000000000001
 30
0.0
 11
358.16882483999979
 21
137.0
 31
0.0
  0
LINE
  5
35AA
  8
0
 10
396.99999999000028
 20
124.5
 30
0.0
 11
380.33419716999992
 21
124.5
 31
0.0
  0
LINE
  5
35B5
  8
0
 10
237.7499999999543
 20
175.3258063400188
 30
0.0
 11
296.25000000007162
 21
175.3258063400188
 31
0.0
  0
LINE
  5
35B7
  8
0
 10
237.64644661000739
 20
174.53924025000731
 30
0.0
 11
296.35355338999261
 21
174.53924025000731
 31
0.0
  0
LINE
  5
35B8
  8
0
 10
294.44038080010517
 20
176.37059046996961
 30
0.0
 11
239.559619199895
 21
176.37059046996961
 31
0.0
  0
LINE
  5
35BC
  8
0
 10
300.50000000000142
 20
291.99999999996629
 30
0.0
 11
299.80999999995652
 21
291.60162831420013
 31
0.0
  0
LINE
  5
35BD
  8
0
 10
314.19000000004331
 20
291.60162831420013
 30
0.0
 11
313.49999999999858
 21
291.99999999996629
 31
0.0
  0
LINE
  5
35BE
  8
0
 10
313.49999999999858
 20
285.4999999998534
 30
0.0
 11
314.19000000004507
 21
285.8983716856207
 31
0.0
  0
LINE
  5
35BF
  8
0
 10
299.80999999981742
 20
285.89837168570011
 30
0.0
 11
300.50000000000142
 21
285.4999999998534
 31
0.0
  0
LINE
  5
35C0
  8
0
 10
314.18999999999983
 20
285.8983716856207
 30
0.0
 11
314.18999999999983
 21
291.60162831420013
 31
0.0
  0
LINE
  5
35C1
  8
0
 10
299.80999999999989
 20
291.60162831420013
 30
0.0
 11
299.80999999999989
 21
285.89837168570011
 31
0.0
  0
LINE
  5
35C2
  8
0
 10
311.0
 20
284.76679999990012
 30
0.0
 11
311.0
 21
285.4999999998534
 31
0.0
  0
LINE
  5
35C3
  8
0
 10
303.0
 20
285.4999999998534
 30
0.0
 11
303.0
 21
284.76679999990012
 31
0.0
  0
LINE
  5
35C4
  8
0
 10
302.9999999999871
 20
284.76679999990012
 30
0.0
 11
303.76680000000709
 21
283.99999999988012
 31
0.0
  0
LINE
  5
35C5
  8
0
 10
310.23319999999291
 20
283.99999999988012
 30
0.0
 11
311.00000000001268
 21
284.76679999990012
 31
0.0
  0
LINE
  5
35C6
  8
0
 10
300.50000000000142
 20
337.29999999996369
 30
0.0
 11
299.81000000005338
 21
336.9016283142534
 31
0.0
  0
LINE
  5
35C7
  8
0
 10
314.18999999994662
 20
336.9016283142534
 30
0.0
 11
313.49999999999858
 21
337.29999999996369
 31
0.0
  0
LINE
  5
35C8
  8
0
 10
314.18999999999983
 20
331.99999999990013
 30
0.0
 11
314.18999999999983
 21
336.9016283142534
 31
0.0
  0
LINE
  5
35C9
  8
0
 10
299.80999999999989
 20
336.9016283142534
 30
0.0
 11
299.80999999999989
 21
331.99999999990013
 31
0.0
  0
ARC
  5
35CB
  8
0
 10
267.0
 20
311.99999999990013
 30
0.0
 40
29.499999999900002
 50
42.703289050859787
 51
137.2967109211902
  0
ARC
  5
35CC
  8
0
 10
267.0
 20
311.99999999990013
 30
0.0
 40
29.499999999900041
 50
222.7032890788181
 51
317.29671092118889
  0
LINE
  5
35CD
  8
0
 10
303.92654917072042
 20
291.60162831421258
 30
0.0
 11
302.90756028999499
 21
291.60162831421258
 31
0.0
  0
LINE
  5
35CE
  8
0
 10
301.37083487537598
 20
291.99999999996561
 30
0.0
 11
302.90756028999431
 21
291.60162831422548
 31
0.0
  0
ARC
  5
35CF
  8
0
 10
307.08830689407392
 20
279.26363574949949
 30
0.0
 40
12.736670382329169
 50
90.397250829104294
 51
104.3734198258332
  0
LINE
  5
35D0
  8
0
 10
307.0
 20
291.99999999996561
 30
0.0
 11
310.07345082927827
 21
291.60162831422548
 31
0.0
  0
LINE
  5
35D1
  8
0
 10
310.07345082929191
 20
285.89837168565037
 30
0.0
 11
310.07345082927958
 21
291.60162831421258
 31
0.0
  0
ARC
  5
35D2
  8
0
 10
306.91291081402937
 20
298.2269695904896
 30
0.0
 40
12.727267557778569
 50
270.39206229580071
 51
284.37860836066233
  0
ARC
  5
35D3
  8
0
 10
307.08830689380738
 20
298.23636424701971
 30
0.0
 40
12.736670379026799
 50
255.62658017159811
 51
269.60274917199001
  0
LINE
  5
35D4
  8
0
 10
303.92654917072042
 20
291.60162831421258
 30
0.0
 11
303.92654917072042
 21
285.89837168564742
 31
0.0
  0
LINE
  5
35D5
  8
0
 10
310.07345082929191
 20
285.89837168565037
 30
0.0
 11
311.09243971000501
 21
285.89837168564742
 31
0.0
  0
LINE
  5
35D6
  8
0
 10
311.09243971000501
 20
291.60162831421258
 30
0.0
 11
310.07345082927958
 21
291.60162831421258
 31
0.0
  0
LINE
  5
35D7
  8
0
 10
311.09243971000501
 20
291.60162831421258
 30
0.0
 11
311.09243971000501
 21
285.89837168564742
 31
0.0
  0
LINE
  5
35D8
  8
0
 10
302.90756029000107
 20
285.89837168565037
 30
0.0
 11
303.92654917072042
 21
285.89837168564742
 31
0.0
  0
LINE
  5
35D9
  8
0
 10
302.90756029000107
 20
285.89837168565037
 30
0.0
 11
302.90756028999499
 21
291.60162831421258
 31
0.0
  0
ARC
  5
35DA
  8
0
 10
312.70643365696719
 20
288.53877756201172
 30
0.0
 40
3.4620848041446339
 50
91.278861918412431
 51
117.78735067620271
  0
ARC
  5
35DC
  8
0
 10
301.29463183752728
 20
288.9571122747372
 30
0.0
 40
3.4579520216635329
 50
271.26273178214109
 51
297.80348081538608
  0
ARC
  5
35DE
  8
0
 10
312.70643365683333
 20
288.96122243698193
 30
0.0
 40
3.4620848033156748
 50
242.21264931907029
 51
268.72113808350309
  0
ARC
  5
35DF
  8
0
 10
301.44810340758482
 20
288.9612224369809
 30
0.0
 40
3.4620848033145339
 50
242.21264931907029
 51
268.72113808352259
  0
LINE
  5
35E0
  8
0
 10
299.83410946075668
 20
291.60162831421258
 30
0.0
 11
299.83410946075668
 21
285.89837168564742
 31
0.0
  0
ARC
  5
35E1
  8
0
 10
301.44810340771892
 20
288.53877756201268
 30
0.0
 40
3.4620848041435819
 50
91.278861918386383
 51
117.78735067621
  0
LINE
  5
35E2
  8
0
 10
312.62916512462402
 20
291.99999999996561
 30
0.0
 11
314.16589053924258
 21
291.60162831422548
 31
0.0
  0
LINE
  5
35E3
  8
0
 10
314.16589053925418
 20
285.8983716856207
 30
0.0
 11
314.16589053924332
 21
291.60162831421258
 31
0.0
  0
ARC
  5
35E4
  8
0
 10
312.55296208667028
 20
288.95711227539113
 30
0.0
 40
3.4579520223195361
 50
271.26273178362658
 51
297.80348081171149
  0
LINE
  5
35E5
  8
0
 10
299.83410946075668
 20
291.60162831421258
 30
0.0
 11
299.80999999999989
 21
291.60162831421252
 31
0.0
  0
LINE
  5
35E6
  8
0
 10
314.18999999999983
 20
291.60162831421252
 30
0.0
 11
314.16589053924332
 21
291.60162831421258
 31
0.0
  0
LINE
  5
35E7
  8
0
 10
314.19000000000938
 20
285.89837168560757
 30
0.0
 11
314.16589053925418
 21
285.8983716856207
 31
0.0
  0
LINE
  5
35E8
  8
0
 10
300.49999999999949
 20
285.49999999985459
 30
0.0
 11
313.49999999999932
 21
285.4999999998538
 31
0.0
  0
LINE
  5
35E9
  8
0
 10
299.80999999999472
 20
285.89837168565049
 30
0.0
 11
299.83410946075668
 21
285.89837168564742
 31
0.0
  0
LINE
  5
35EB
  8
0
 10
302.90756028997231
 20
336.90162831423811
 30
0.0
 11
303.92654917076487
 21
336.90162831423788
 31
0.0
  0
ARC
  5
35EC
  8
0
 10
301.29356634297761
 20
333.83877756167328
 30
0.0
 40
3.4620848044815542
 50
62.212649326131313
 51
88.721138080799193
  0
ARC
  5
35EE
  8
0
 10
307.08708918633693
 20
324.57303040475199
 30
0.0
 40
12.72726756235658
 50
90.392062297305401
 51
104.3786083568159
  0
LINE
  5
35EF
  8
0
 10
302.90756028999499
 20
331.99999999990013
 30
0.0
 11
302.90756028997231
 21
336.90162831423811
 31
0.0
  0
LINE
  5
35F0
  8
0
 10
303.92654917076487
 20
336.90162831423788
 30
0.0
 11
303.92654917072042
 21
331.99999999990013
 31
0.0
  0
LINE
  5
35F1
  8
0
 10
310.07345082927958
 20
331.99999999990013
 30
0.0
 11
310.07345082923422
 21
336.90162831423811
 31
0.0
  0
ARC
  5
35F2
  8
0
 10
306.91169310581682
 20
324.56363574814219
 30
0.0
 40
12.73667038368459
 50
75.626580175437709
 51
89.602749170439751
  0
LINE
  5
35F3
  8
0
 10
310.07345082923422
 20
336.90162831423811
 30
0.0
 11
311.09243971002729
 21
336.90162831423788
 31
0.0
  0
LINE
  5
35F4
  8
0
 10
311.09243971002729
 20
336.90162831423788
 30
0.0
 11
311.09243971000501
 21
331.99999999990013
 31
0.0
  0
ARC
  5
35F6
  8
0
 10
312.7053681626569
 20
333.84288772393859
 30
0.0
 40
3.4579520228087861
 50
91.262731784773351
 51
117.80348080829469
  0
LINE
  5
35F7
  8
0
 10
299.83410946077902
 20
336.90162831423788
 30
0.0
 11
299.83410946075668
 21
331.99999999990013
 31
0.0
  0
ARC
  5
35F8
  8
0
 10
301.44703791340862
 20
333.84288772393899
 30
0.0
 40
3.457952022808306
 50
91.262731784753811
 51
117.80348080829469
  0
LINE
  5
35F9
  8
0
 10
314.16589053924332
 20
331.99999999990013
 30
0.0
 11
314.16589053922053
 21
336.90162831423811
 31
0.0
  0
ARC
  5
35FA
  8
0
 10
312.55189659222611
 20
333.83877756167379
 30
0.0
 40
3.4620848044810688
 50
62.212649326131313
 51
88.721138080825256
  0
LINE
  5
35FB
  8
0
 10
303.0
 20
284.76679999990012
 30
0.0
 11
311.0
 21
284.76679999990012
 31
0.0
  0
LINE
  5
35FC
  8
0
 10
303.76680000000709
 20
283.99999999988012
 30
0.0
 11
310.23319999999291
 21
283.99999999988012
 31
0.0
  0
LINE
  5
35FD
  8
0
 10
299.8100000000195
 20
336.90162831423822
 30
0.0
 11
299.83410946077902
 21
336.90162831423788
 31
0.0
  0
LINE
  5
35FF
  8
0
 10
314.16589053922053
 20
336.90162831423811
 30
0.0
 11
314.1899999999805
 21
336.90162831423822
 31
0.0
  0
LINE
  5
3600
  8
0
 10
313.49999999999932
 20
337.29999999996352
 30
0.0
 11
300.49999999999932
 21
337.29999999996261
 31
0.0
  0
CIRCLE
  5
3601
  8
0
 10
267.0
 20
311.99999999990013
 30
0.0
 40
6.5
  0
CIRCLE
  5
3602
  8
0
 10
307.0
 20
311.99999999990013
 30
0.0
 40
4.25
  0
CIRCLE
  5
3603
  8
0
 10
227.0
 20
311.99999999990013
 30
0.0
 40
4.25
  0
ARC
  5
3604
  8
0
 10
322.9999999837998
 20
327.99999998370009
 30
0.0
 40
4.0000000161999756
 50
0.0000001160233779
 51
89.999999883950565
  0
LINE
  5
3605
  8
0
 10
327.0
 20
296.00000000799832
 30
0.0
 11
327.0
 21
327.9999999918
 31
0.0
  0
ARC
  5
3606
  8
0
 10
322.9999999837998
 20
296.0000000161001
 30
0.0
 40
4.0000000162000333
 50
270.00000011602339
 51
359.99999988395058
  0
LINE
  5
3607
  8
0
 10
288.91460700575789
 20
291.99999999990013
 30
0.0
 11
372.00000000000023
 21
291.99999999990013
 31
0.0
  0
ARC
  5
3608
  8
0
 10
288.91460701149998
 20
287.99999998139998
 30
0.0
 40
4.0000000185000379
 50
90.000000082249443
 51
132.39947334484421
  0
ARC
  5
3609
  8
0
 10
267.0
 20
312.00000000890009
 30
0.0
 40
28.500000009015181
 50
227.6005266541766
 51
312.3994733457879
  0
ARC
  5
360A
  8
0
 10
245.08539298849999
 20
287.99999998139998
 30
0.0
 40
4.0000000185151974
 50
47.600526655464677
 51
90.0
  0
LINE
  5
360B
  8
0
 10
211.00000000809811
 20
291.99999999990013
 30
0.0
 11
245.08539298849999
 21
291.99999999990013
 31
0.0
  0
ARC
  5
360C
  8
0
 10
211.00000001619989
 20
296.0000000161001
 30
0.0
 40
4.0000000162000333
 50
180.00000011602501
 51
269.99999988395058
  0
LINE
  5
360D
  8
0
 10
207.0
 20
327.99999999180187
 30
0.0
 11
207.0
 21
296.00000000800009
 31
0.0
  0
ARC
  5
360E
  8
0
 10
211.00000001619989
 20
327.99999998370009
 30
0.0
 40
4.0000000161999756
 50
90.0
 51
179.99999988395061
  0
LINE
  5
360F
  8
0
 10
245.08539299424211
 20
331.99999999990013
 30
0.0
 11
211.00000001619989
 21
331.99999999990013
 31
0.0
  0
ARC
  5
3610
  8
0
 10
245.08539298849999
 20
336.0000000184001
 30
0.0
 40
4.000000018499974
 50
270.00000008224953
 51
312.39947334485282
  0
ARC
  5
3611
  8
0
 10
267.0
 20
311.99999999089999
 30
0.0
 40
28.500000009015221
 50
47.600526654212139
 51
132.39947334578781
  0
ARC
  5
3612
  8
0
 10
288.91460701149998
 20
336.0000000184001
 30
0.0
 40
4.000000018507559
 50
227.60052665515579
 51
269.9999999176398
  0
LINE
  5
3613
  8
0
 10
372.0
 20
331.99999999990013
 30
0.0
 11
288.91460700574999
 21
331.99999999990013
 31
0.0
  0
LINE
  5
3614
  8
0
 10
349.82336961999999
 20
331.99999998990012
 30
0.0
 11
349.82336961999999
 21
291.99999999990001
 31
0.0
  0
LINE
  5
3617
  8
0
 10
372.0
 20
331.99999999990013
 30
0.0
 11
372.0
 21
291.99999999990013
 31
0.0
  0
LINE
  5
361A
  8
0
 10
380.33419716999992
 20
296.99999999990001
 30
0.0
 11
380.33419716999992
 21
326.99999999990013
 31
0.0
  0
ARC
  5
361D
  8
0
 10
386.89578806949999
 20
316.99999999260001
 30
0.0
 40
10.000000007300089
 50
2.3880154494707519
 51
89.999999969919386
  0
ARC
  5
361E
  8
0
 10
266.99999591214441
 20
312.0000000048995
 30
0.0
 40
130.00000407785291
 50
357.61198461375011
 51
2.3880153819659791
  0
ARC
  5
361F
  8
0
 10
386.89578808750008
 20
306.99999999850007
 30
0.0
 40
9.9999999986000034
 50
270.0
 51
357.611984597576
  0
LINE
  5
3620
  8
0
 10
386.89578808750008
 20
296.99999999990001
 30
0.0
 11
372.0
 21
296.99999999990001
 31
0.0
  0
LINE
  5
3621
  8
0
 10
386.8957880747501
 20
326.99999999990013
 30
0.0
 11
372.0
 21
326.99999999990013
 31
0.0
  0
LINE
  5
3625
  8
0
 10
105.7331999999999
 20
104.0
 30
0.0
 11
105.0000000000466
 21
104.0
 31
0.0
  0
LINE
  5
3626
  8
0
 10
96.5
 20
104.0
 30
0.0
 11
95.327275560007365
 21
104.0
 31
0.0
  0
LINE
  5
3627
  8
0
 10
95.327275559992813
 20
96.000000000000028
 30
0.0
 11
96.5
 21
96.000000000000028
 31
0.0
  0
LINE
  5
3628
  8
0
 10
105.0000000000466
 20
96.000000000000028
 30
0.0
 11
105.7331999999999
 21
96.000000000000028
 31
0.0
  0
LINE
  5
3629
  8
0
 10
105.7331999999999
 20
95.999999999987153
 30
0.0
 11
106.50000000001999
 21
96.76680000000718
 31
0.0
  0
LINE
  5
362A
  8
0
 10
106.50000000001999
 20
103.23319999999281
 30
0.0
 11
105.7331999999999
 21
104.0000000000129
 31
0.0
  0
LINE
  5
362B
  8
0
 10
61.672724439999911
 20
104.0
 30
0.0
 11
60.500000009999901
 21
104.0
 31
0.0
  0
LINE
  5
362C
  8
0
 10
60.500000009999901
 20
96.000000000000028
 30
0.0
 11
61.672724439999911
 21
96.000000000000028
 31
0.0
  0
ARC
  5
362D
  8
0
 10
78.5
 20
110.00000006020009
 30
0.0
 40
39.999999939799899
 50
75.984315553299083
 51
104.0156844467277
  0
ARC
  5
362E
  8
0
 10
78.5
 20
89.999999939799878
 30
0.0
 40
39.999999939799899
 50
255.9843155532723
 51
284.0156844467009
  0
ARC
  5
362F
  8
0
 10
70.749999990800006
 20
141.04734288680001
 30
0.0
 40
7.9999999908075834
 50
104.0156843739115
 51
180.0000000000008
  0
ARC
  5
3630
  8
0
 10
70.749999990800006
 20
58.952657113200019
 30
0.0
 40
7.9999999908075834
 50
180.0
 51
255.9843156260884
  0
ARC
  5
3631
  8
0
 10
86.250000009199994
 20
141.04734288680001
 30
0.0
 40
7.9999999908075763
 50
0.0
 51
75.984315626229403
  0
ARC
  5
3632
  8
0
 10
86.250000009199994
 20
58.952657113200019
 30
0.0
 40
7.9999999908075763
 50
284.01568437377063
 51
0.0
  0
ARC
  5
3633
  8
0
 10
561.53139189392778
 20
104.3128145831849
 30
0.0
 40
499.99999260592779
 50
175.998936420652
 51
178.63768596536951
  0
ARC
  5
3634
  8
0
 10
561.53139189392778
 20
95.68718541681514
 30
0.0
 40
499.99999260592779
 50
181.36230564266319
 51
184.0010434398736
  0
ARC
  5
3635
  8
0
 10
-404.53139189346803
 20
104.3128145832093
 30
0.0
 40
499.99999260546792
 50
1.3623056426965989
 51
4.0010279915561711
  0
ARC
  5
3636
  8
0
 10
-404.53139189346803
 20
95.687185416790697
 30
0.0
 40
499.99999260546792
 50
355.99897200844458
 51
358.63768596533538
  0
ARC
  5
3637
  8
0
 10
49.499999997199893
 20
174.89279363989999
 30
0.0
 40
0.4999999970999804
 50
119.9999998282775
 51
225.00000021878159
  0
ARC
  5
3638
  8
0
 10
107.50000000279989
 20
174.89279363989999
 30
0.0
 40
0.4999999971000006
 50
314.99999978121878
 51
60.000000171722448
  0
LINE
  5
3639
  8
0
 10
49.146446609992609
 20
174.53924025000731
 30
0.0
 11
50.185686860000033
 21
173.5
 31
0.0
  0
LINE
  5
363A
  8
0
 10
106.8143131399999
 20
173.5
 30
0.0
 11
107.85355339000741
 21
174.53924025000731
 31
0.0
  0
LINE
  5
363B
  8
0
 10
107.7500000000195
 20
175.32580634001869
 30
0.0
 11
105.940380800105
 21
176.3705904699695
 31
0.0
  0
LINE
  5
363C
  8
0
 10
51.059619199895003
 20
176.3705904699695
 30
0.0
 11
49.249999999980439
 21
175.32580634001869
 31
0.0
  0
ARC
  5
363D
  8
0
 10
50.576656334300189
 20
177.20710672569999
 30
0.0
 40
0.9659257609999409
 50
299.9999989874986
 51
330.00000101220007
  0
ARC
  5
363E
  8
0
 10
106.4233436656998
 20
177.20710672569999
 30
0.0
 40
0.9659257609999409
 50
209.9999989877999
 51
240.0000010125014
  0
LINE
  5
363F
  8
0
 10
105.58682740998979
 20
176.72414385998249
 30
0.0
 11
103.9841861199847
 21
179.49999998999121
 31
0.0
  0
LINE
  5
3640
  8
0
 10
53.01581388001523
 20
179.49999998999121
 30
0.0
 11
51.413172590010163
 21
176.72414385998249
 31
0.0
  0
LINE
  5
3641
  8
0
 10
54.5
 20
173.5
 30
0.0
 11
54.5
 21
172.0
 31
0.0
  0
LINE
  5
3642
  8
0
 10
102.5
 20
172.0
 30
0.0
 11
102.5
 21
173.5
 31
0.0
  0
LINE
  5
3643
  8
0
 10
107.0
 20
179.5
 30
0.0
 11
107.0
 21
182.5
 31
0.0
  0
LINE
  5
3644
  8
0
 10
50.0
 20
182.5
 30
0.0
 11
50.0
 21
179.5
 31
0.0
  0
LINE
  5
3645
  8
0
 10
107.0000000042
 20
121.1082054424474
 30
0.0
 11
107.0000000042
 21
172.0
 31
0.0
  0
LINE
  5
3646
  8
0
 10
50.000000005800082
 20
172.0
 30
0.0
 11
50.000000005800082
 21
121.1082054424475
 31
0.0
  0
LINE
  5
3647
  8
0
 10
104.6016283142496
 20
99.411686495504981
 30
0.0
 11
104.60162831425281
 21
100.58831350450561
 31
0.0
  0
LINE
  5
3648
  8
0
 10
104.6016283142496
 20
99.411686495504981
 30
0.0
 11
99.920249468415037
 21
99.411686495494337
 31
0.0
  0
LINE
  5
3649
  8
0
 10
100.7737675577264
 20
100.58831350450571
 30
0.0
 11
104.60162831425281
 21
100.58831350450561
 31
0.0
  0
ARC
  5
364B
  8
0
 10
95.362982847881995
 20
96.668293431953586
 30
0.0
 40
9.6373635167705451
 50
0.4857653844906364
 51
16.538657488802599
  0
ARC
  5
364C
  8
0
 10
95.355349689445575
 20
103.3328490144616
 30
0.0
 40
9.6450061468603696
 50
343.46774449015828
 51
359.50783263661521
  0
ARC
  5
364D
  8
0
 10
95.355349689446484
 20
96.832849014549112
 30
0.0
 40
9.6450061468594956
 50
343.46774449015737
 51
359.5078326366193
  0
LINE
  5
364E
  8
0
 10
98.898371685687394
 20
94.088313504593273
 30
0.0
 11
104.60162831425281
 21
94.088313504593273
 31
0.0
  0
ARC
  5
364F
  8
0
 10
108.456846390583
 20
96.894283215395092
 30
0.0
 40
9.9618223584877246
 50
185.0772406576844
 51
196.3600399487616
  0
LINE
  5
3650
  8
0
 10
104.6016283142496
 20
105.9116864954173
 30
0.0
 11
103.77584770248831
 21
105.9116864954067
 31
0.0
  0
ARC
  5
3651
  8
0
 10
95.362982847882904
 20
103.1682934318661
 30
0.0
 40
9.6373635167696214
 50
0.4857653844857514
 51
16.538657488802599
  0
LINE
  5
3652
  8
0
 10
104.6016283142496
 20
93.500000000000028
 30
0.0
 11
104.60162831425281
 21
94.088313504593273
 31
0.0
  0
LINE
  5
3655
  8
0
 10
98.898371685687394
 20
94.088313504593273
 30
0.0
 11
98.898371685687394
 21
93.500000000000028
 31
0.0
  0
LINE
  5
3656
  8
0
 10
98.499999999934516
 20
93.500000000000028
 30
0.0
 11
105.0000000000464
 21
93.500000000000028
 31
0.0
  0
LINE
  5
3657
  8
0
 10
104.6016283142496
 20
105.9116864954173
 30
0.0
 11
104.60162831425259
 21
106.5
 31
0.0
  0
LINE
  5
3659
  8
0
 10
105.0000000000464
 20
93.500000000000682
 30
0.0
 11
105.0000000000464
 21
106.4999999999993
 31
0.0
  0
LINE
  5
365A
  8
0
 10
104.03493886044041
 20
106.5
 30
0.0
 11
105.0000000000463
 21
106.5
 31
0.0
  0
LINE
  5
365C
  8
0
 10
57.079750541584872
 20
99.411686495494337
 30
0.0
 11
53.598371685661959
 21
99.411686495454973
 31
0.0
  0
LINE
  5
365D
  8
0
 10
53.598371685661959
 20
99.411686495454973
 30
0.0
 11
53.598371685662187
 21
100.5883135045443
 31
0.0
  0
LINE
  5
365E
  8
0
 10
53.598371685662187
 20
100.5883135045443
 30
0.0
 11
56.226232452273507
 21
100.58831350450571
 31
0.0
  0
ARC
  5
365F
  8
0
 10
62.844650314026012
 20
96.667150985213084
 30
0.0
 40
9.6450061503516462
 50
163.4677444945392
 51
179.50783263485971
  0
ARC
  5
3661
  8
0
 10
62.83701715553002
 20
103.3317065683634
 30
0.0
 40
9.6373635202020687
 50
180.48576538620219
 51
196.53865748440251
  0
ARC
  5
3662
  8
0
 10
62.002434177162293
 20
103.24704958831509
 30
0.0
 40
8.8024346716870081
 50
165.9098475976563
 51
179.9807955248389
  0
LINE
  5
3663
  8
0
 10
53.598371685662187
 20
94.088313504631969
 30
0.0
 11
58.5
 21
94.088313504593316
 31
0.0
  0
ARC
  5
3664
  8
0
 10
62.837017155530702
 20
96.831706568451153
 30
0.0
 40
9.637363520202836
 50
180.48576538619969
 51
196.53865748440219
  0
LINE
  5
3665
  8
0
 10
53.598371685661959
 20
93.500000000000028
 30
0.0
 11
53.598371685662187
 21
94.088313504631969
 31
0.0
  0
LINE
  5
3668
  8
0
 10
53.199999999936381
 20
105.9653130715234
 30
0.0
 11
53.199999999937397
 21
93.500000000000028
 31
0.0
  0
LINE
  5
3669
  8
0
 10
58.5
 20
93.500000000000028
 30
0.0
 11
53.199999999936608
 21
93.500000000000028
 31
0.0
  0
LINE
  5
366A
  8
0
 10
105.7331999999999
 20
96.000000000000028
 30
0.0
 11
105.7331999999999
 21
104.0
 31
0.0
  0
LINE
  5
366C
  8
0
 10
106.50000000001999
 20
96.76680000000718
 30
0.0
 11
106.50000000001999
 21
103.23319999999281
 31
0.0
  0
LINE
  5
366D
  8
0
 10
62.75000000118893
 20
141.04734288
 30
0.0
 11
62.75
 21
58.952657120000033
 31
0.0
  0
LINE
  5
366E
  8
0
 10
94.25
 20
141.04734288001421
 30
0.0
 11
94.25
 21
58.952657119986043
 31
0.0
  0
LINE
  5
366F
  8
0
 10
61.672724439999911
 20
116.2
 30
0.0
 11
61.672724439999911
 21
83.799999999999997
 31
0.0
  0
LINE
  5
3670
  8
0
 10
95.327275559970303
 20
83.799999999686634
 30
0.0
 11
95.327275560029648
 21
116.20000000031339
 31
0.0
  0
LINE
  5
3671
  8
0
 10
98.500000000000014
 20
182.5
 30
0.0
 11
98.500000000000014
 21
179.5
 31
0.0
  0
LINE
  5
3678
  8
0
 10
58.5
 20
182.5
 30
0.0
 11
58.5
 21
179.5
 31
0.0
  0
LINE
  5
367B
  8
0
 10
50.185686860000033
 20
173.5
 30
0.0
 11
106.8143131399999
 21
173.5
 31
0.0
  0
LINE
  5
3684
  8
0
 10
49.999999999992269
 20
179.5
 30
0.0
 11
107.0
 21
179.5
 31
0.0
  0
LINE
  5
3685
  8
0
 10
49.999999999992269
 20
182.5
 30
0.0
 11
107.0
 21
182.5
 31
0.0
  0
POLYLINE
  5
3686
  8
0
 10
99.54615385046867
 20
98.929413096855455
 30
0.0
 66
     1
 70
     8
  0
VERTEX
  8
0
  5
3BB2
 10
99.5462
 20
98.9294
 30
0.000000
  70
    32
  0
VERTEX
  8
0
  5
3BB3
 10
99.5479
 20
98.9316
 30
0.000000
  70
    32
  0
VERTEX
  8
0
  5
3BB4
 10
99.5497
 20
98.9338
 30
0.000000
  70
    32
  0
VERTEX
  8
0
  5
3BB5
 10
99.5514
 20
98.9360
 30
0.000000
  70
    32
  0
VERTEX
  8
0
  5
3BB6
 10
99.5532
 20
98.9383
 30
0.000000
  70
    32
  0
VERTEX
  8
0
  5
3BB7
 10
99.5549
 20
98.9405
 30
0.000000
  70
    32
  0
VERTEX
  8
0
  5
3BB8
 10
99.5566
 20
98.9427
 30
0.000000
  70
    32
  0
VERTEX
  8
0
  5
3BB9
 10
99.5584
 20
98.9449
 30
0.000000
  70
    32
  0
VERTEX
  8
0
  5
3BBA
 10
99.5601
 20
98.9471
 30
0.000000
  70
    32
  0
VERTEX
  8
0
  5
3BBB
 10
99.5619
 20
98.9493
 30
0.000000
  70
    32
  0
VERTEX
  8
0
  5
3BBC
 10
99.5636
 20
98.9515
 30
0.000000
  70
    32
  0
VERTEX
  8
0
  5
3BBD
 10
99.5654
 20
98.9537
 30
0.000000
  70
    32
  0
VERTEX
  8
0
  5
3BBE
 10
99.5671
 20
98.9560
 30
0.000000
  70
    32
  0
VERTEX
  8
0
  5
3BBF
 10
99.5689
 20
98.9582
 30
0.000000
  70
    32
  0
VERTEX
  8
0
  5
3BC0
 10
99.5706
 20
98.9604
 30
0.000000
  70
    32
  0
VERTEX
  8
0
  5
3BC1
 10
99.5724
 20
98.9626
 30
0.000000
  70
    32
  0
VERTEX
  8
0
  5
3BC2
 10
99.5741
 20
98.9648
 30
0.000000
  70
    32
  0
VERTEX
  8
0
  5
3BC3
 10
99.5759
 20
98.9670
 30
0.000000
  70
    32
  0
VERTEX
  8
0
  5
3BC4
 10
99.5776
 20
98.9692
 30
0.000000
  70
    32
  0
VERTEX
  8
0
  5
3BC5
 10
99.5794
 20
98.9715
 30
0.000000
  70
    32
  0
VERTEX
  8
0
  5
3BC6
 10
99.5811
 20
98.9737
 30
0.000000
  70
    32
  0
VERTEX
  8
0
  5
3BC7
 10
99.5829
 20
98.9759
 30
0.000000
  70
    32
  0
VERTEX
  8
0
  5
3BC8
 10
99.5846
 20
98.9781
 30
0.000000
  70
    32
  0
VERTEX
  8
0
  5
3BC9
 10
99.5863
 20
98.9803
 30
0.000000
  70
    32
  0
VERTEX
  8
0
  5
3BCA
 10
99.5881
 20
98.9825
 30
0.000000
  70
    32
  0
VERTEX
  8
0
  5
3BCB
 10
99.5898
 20
98.9848
 30
0.000000
  70
    32
  0
VERTEX
  8
0
  5
3BCC
 10
99.5916
 20
98.9870
 30
0.000000
  70
    32
  0
VERTEX
  8
0
  5
3BCD
 10
99.5933
 20
98.9892
 30
0.000000
  70
    32
  0
VERTEX
  8
0
  5
3BCE
 10
99.5951
 20
98.9914
 30
0.000000
  70
    32
  0
VERTEX
  8
0
  5
3BCF
 10
99.5968
 20
98.9936
 30
0.000000
  70
    32
  0
VERTEX
  8
0
  5
3BD0
 10
99.5986
 20
98.9958
 30
0.000000
  70
    32
  0
VERTEX
  8
0
  5
3BD1
 10
99.6003
 20
98.9980
 30
0.000000
  70
    32
  0
VERTEX
  8
0
  5
3BD2
 10
99.6020
 20
99.0003
 30
0.000000
  70
    32
  0
VERTEX
  8
0
  5
3BD3
 10
99.6038
 20
99.0025
 30
0.000000
  70
    32
  0
VERTEX
  8
0
  5
3BD4
 10
99.6055
 20
99.0047
 30
0.000000
  70
    32
  0
VERTEX
  8
0
  5
3BD5
 10
99.6073
 20
99.0069
 30
0.000000
  70
    32
  0
VERTEX
  8
0
  5
3BD6
 10
99.6090
 20
99.0091
 30
0.000000
  70
    32
  0
VERTEX
  8
0
  5
3BD7
 10
99.6108
 20
99.0114
 30
0.000000
  70
    32
  0
VERTEX
  8
0
  5
3BD8
 10
99.6125
 20
99.0136
 30
0.000000
  70
    32
  0
VERTEX
  8
0
  5
3BD9
 10
99.6143
 20
99.0158
 30
0.000000
  70
    32
  0
VERTEX
  8
0
  5
3BDA
 10
99.6160
 20
99.0180
 30
0.000000
  70
    32
  0
VERTEX
  8
0
  5
3BDB
 10
99.6177
 20
99.0202
 30
0.000000
  70
    32
  0
VERTEX
  8
0
  5
3BDC
 10
99.6195
 20
99.0224
 30
0.000000
  70
    32
  0
VERTEX
  8
0
  5
3BDD
 10
99.6212
 20
99.0247
 30
0.000000
  70
    32
  0
VERTEX
  8
0
  5
3BDE
 10
99.6230
 20
99.0269
 30
0.000000
  70
    32
  0
VERTEX
  8
0
  5
3BDF
 10
99.6247
 20
99.0291
 30
0.000000
  70
    32
  0
VERTEX
  8
0
  5
3BE0
 10
99.6264
 20
99.0313
 30
0.000000
  70
    32
  0
VERTEX
  8
0
  5
3BE1
 10
99.6282
 20
99.0335
 30
0.000000
  70
    32
  0
VERTEX
  8
0
  5
3BE2
 10
99.6299
 20
99.0358
 30
0.000000
  70
    32
  0
VERTEX
  8
0
  5
3BE3
 10
99.6317
 20
99.0380
 30
0.000000
  70
    32
  0
VERTEX
  8
0
  5
3BE4
 10
99.6334
 20
99.0402
 30
0.000000
  70
    32
  0
VERTEX
  8
0
  5
3BE5
 10
99.6352
 20
99.0424
 30
0.000000
  70
    32
  0
VERTEX
  8
0
  5
3BE6
 10
99.6369
 20
99.0446
 30
0.000000
  70
    32
  0
VERTEX
  8
0
  5
3BE7
 10
99.6386
 20
99.0469
 30
0.000000
  70
    32
  0
VERTEX
  8
0
  5
3BE8
 10
99.6404
 20
99.0491
 30
0.000000
  70
    32
  0
VERTEX
  8
0
  5
3BE9
 10
99.6421
 20
99.0513
 30
0.000000
  70
    32
  0
VERTEX
  8
0
  5
3BEA
 10
99.6439
 20
99.0535
 30
0.000000
  70
    32
  0
VERTEX
  8
0
  5
3BEB
 10
99.6456
 20
99.0558
 30
0.000000
  70
    32
  0
VERTEX
  8
0
  5
3BEC
 10
99.6473
 20
99.0580
 30
0.000000
  70
    32
  0
VERTEX
  8
0
  5
3BED
 10
99.6491
 20
99.0602
 30
0.000000
  70
    32
  0
VERTEX
  8
0
  5
3BEE
 10
99.6508
 20
99.0624
 30
0.000000
  70
    32
  0
VERTEX
  8
0
  5
3BEF
 10
99.6525
 20
99.0646
 30
0.000000
  70
    32
  0
VERTEX
  8
0
  5
3BF0
 10
99.6543
 20
99.0669
 30
0.000000
  70
    32
  0
VERTEX
  8
0
  5
3BF1
 10
99.6560
 20
99.0691
 30
0.000000
  70
    32
  0
VERTEX
  8
0
  5
3BF2
 10
99.6578
 20
99.0713
 30
0.000000
  70
    32
  0
VERTEX
  8
0
  5
3BF3
 10
99.6595
 20
99.0735
 30
0.000000
  70
    32
  0
VERTEX
  8
0
  5
3BF4
 10
99.6612
 20
99.0758
 30
0.000000
  70
    32
  0
VERTEX
  8
0
  5
3BF5
 10
99.6630
 20
99.0780
 30
0.000000
  70
    32
  0
VERTEX
  8
0
  5
3BF6
 10
99.6647
 20
99.0802
 30
0.000000
  70
    32
  0
VERTEX
  8
0
  5
3BF7
 10
99.6665
 20
99.0824
 30
0.000000
  70
    32
  0
VERTEX
  8
0
  5
3BF8
 10
99.6682
 20
99.0846
 30
0.000000
  70
    32
  0
VERTEX
  8
0
  5
3BF9
 10
99.6699
 20
99.0869
 30
0.000000
  70
    32
  0
VERTEX
  8
0
  5
3BFA
 10
99.6717
 20
99.0891
 30
0.000000
  70
    32
  0
VERTEX
  8
0
  5
3BFB
 10
99.6734
 20
99.0913
 30
0.000000
  70
    32
  0
VERTEX
  8
0
  5
3BFC
 10
99.6751
 20
99.0935
 30
0.000000
  70
    32
  0
VERTEX
  8
0
  5
3BFD
 10
99.6769
 20
99.0958
 30
0.000000
  70
    32
  0
VERTEX
  8
0
  5
3BFE
 10
99.6786
 20
99.0980
 30
0.000000
  70
    32
  0
VERTEX
  8
0
  5
3BFF
 10
99.6803
 20
99.1002
 30
0.000000
  70
    32
  0
VERTEX
  8
0
  5
3C00
 10
99.6821
 20
99.1024
 30
0.000000
  70
    32
  0
VERTEX
  8
0
  5
3C01
 10
99.6838
 20
99.1047
 30
0.000000
  70
    32
  0
VERTEX
  8
0
  5
3C02
 10
99.6856
 20
99.1069
 30
0.000000
  70
    32
  0
VERTEX
  8
0
  5
3C03
 10
99.6873
 20
99.1091
 30
0.000000
  70
    32
  0
VERTEX
  8
0
  5
3C04
 10
99.6890
 20
99.1114
 30
0.000000
  70
    32
  0
VERTEX
  8
0
  5
3C05
 10
99.6908
 20
99.1136
 30
0.000000
  70
    32
  0
VERTEX
  8
0
  5
3C06
 10
99.6925
 20
99.1158
 30
0.000000
  70
    32
  0
VERTEX
  8
0
  5
3C07
 10
99.6942
 20
99.1180
 30
0.000000
  70
    32
  0
VERTEX
  8
0
  5
3C08
 10
99.6960
 20
99.1203
 30
0.000000
  70
    32
  0
VERTEX
  8
0
  5
3C09
 10
99.6977
 20
99.1225
 30
0.000000
  70
    32
  0
VERTEX
  8
0
  5
3C0A
 10
99.6994
 20
99.1247
 30
0.000000
  70
    32
  0
VERTEX
  8
0
  5
3C0B
 10
99.7012
 20
99.1269
 30
0.000000
  70
    32
  0
VERTEX
  8
0
  5
3C0C
 10
99.7029
 20
99.1292
 30
0.000000
  70
    32
  0
VERTEX
  8
0
  5
3C0D
 10
99.7046
 20
99.1314
 30
0.000000
  70
    32
  0
VERTEX
  8
0
  5
3C0E
 10
99.7064
 20
99.1336
 30
0.000000
  70
    32
  0
VERTEX
  8
0
  5
3C0F
 10
99.7081
 20
99.1359
 30
0.000000
  70
    32
  0
VERTEX
  8
0
  5
3C10
 10
99.7098
 20
99.1381
 30
0.000000
  70
    32
  0
VERTEX
  8
0
  5
3C11
 10
99.7116
 20
99.1403
 30
0.000000
  70
    32
  0
VERTEX
  8
0
  5
3C12
 10
99.7133
 20
99.1425
 30
0.000000
  70
    32
  0
VERTEX
  8
0
  5
3C13
 10
99.7150
 20
99.1448
 30
0.000000
  70
    32
  0
VERTEX
  8
0
  5
3C14
 10
99.7168
 20
99.1470
 30
0.000000
  70
    32
  0
VERTEX
  8
0
  5
3C15
 10
99.7185
 20
99.1492
 30
0.000000
  70
    32
  0
VERTEX
  8
0
  5
3C16
 10
99.7202
 20
99.1515
 30
0.000000
  70
    32
  0
VERTEX
  8
0
  5
3C17
 10
99.7220
 20
99.1537
 30
0.000000
  70
    32
  0
VERTEX
  8
0
  5
3C18
 10
99.7237
 20
99.1559
 30
0.000000
  70
    32
  0
VERTEX
  8
0
  5
3C19
 10
99.7254
 20
99.1581
 30
0.000000
  70
    32
  0
VERTEX
  8
0
  5
3C1A
 10
99.7272
 20
99.1604
 30
0.000000
  70
    32
  0
VERTEX
  8
0
  5
3C1B
 10
99.7289
 20
99.1626
 30
0.000000
  70
    32
  0
VERTEX
  8
0
  5
3C1C
 10
99.7306
 20
99.1648
 30
0.000000
  70
    32
  0
VERTEX
  8
0
  5
3C1D
 10
99.7323
 20
99.1671
 30
0.000000
  70
    32
  0
VERTEX
  8
0
  5
3C1E
 10
99.7341
 20
99.1693
 30
0.000000
  70
    32
  0
VERTEX
  8
0
  5
3C1F
 10
99.7358
 20
99.1715
 30
0.000000
  70
    32
  0
VERTEX
  8
0
  5
3C20
 10
99.7375
 20
99.1738
 30
0.000000
  70
    32
  0
VERTEX
  8
0
  5
3C21
 10
99.7393
 20
99.1760
 30
0.000000
  70
    32
  0
VERTEX
  8
0
  5
3C22
 10
99.7410
 20
99.1782
 30
0.000000
  70
    32
  0
VERTEX
  8
0
  5
3C23
 10
99.7427
 20
99.1805
 30
0.000000
  70
    32
  0
VERTEX
  8
0
  5
3C24
 10
99.7445
 20
99.1827
 30
0.000000
  70
    32
  0
VERTEX
  8
0
  5
3C25
 10
99.7462
 20
99.1849
 30
0.000000
  70
    32
  0
VERTEX
  8
0
  5
3C26
 10
99.7479
 20
99.1871
 30
0.000000
  70
    32
  0
VERTEX
  8
0
  5
3C27
 10
99.7496
 20
99.1894
 30
0.000000
  70
    32
  0
VERTEX
  8
0
  5
3C28
 10
99.7514
 20
99.1916
 30
0.000000
  70
    32
  0
VERTEX
  8
0
  5
3C29
 10
99.7531
 20
99.1938
 30
0.000000
  70
    32
  0
VERTEX
  8
0
  5
3C2A
 10
99.7548
 20
99.1961
 30
0.000000
  70
    32
  0
VERTEX
  8
0
  5
3C2B
 10
99.7566
 20
99.1983
 30
0.000000
  70
    32
  0
VERTEX
  8
0
  5
3C2C
 10
99.7583
 20
99.2005
 30
0.000000
  70
    32
  0
VERTEX
  8
0
  5
3C2D
 10
99.7600
 20
99.2028
 30
0.000000
  70
    32
  0
VERTEX
  8
0
  5
3C2E
 10
99.7617
 20
99.2050
 30
0.000000
  70
    32
  0
VERTEX
  8
0
  5
3C2F
 10
99.7635
 20
99.2072
 30
0.000000
  70
    32
  0
VERTEX
  8
0
  5
3C30
 10
99.7652
 20
99.2095
 30
0.000000
  70
    32
  0
VERTEX
  8
0
  5
3C31
 10
99.7669
 20
99.2117
 30
0.000000
  70
    32
  0
VERTEX
  8
0
  5
3C32
 10
99.7687
 20
99.2140
 30
0.000000
  70
    32
  0
SEQEND
  8
0
  5
3C33
  0
POLYLINE
  5
3687
  8
0
 10
99.768656732622333
 20
99.213951170000385
 30
0.0
 66
     1
 70
     8
  0
VERTEX
  8
0
  5
3C34
 10
99.7687
 20
99.2140
 30
0.000000
  70
    32
  0
VERTEX
  8
0
  5
3C35
 10
100.436
 20
100.110
 30
0.000000
  70
    32
  0
VERTEX
  8
0
  5
3C36
 10
101.076
 20
101.033
 30
0.000000
  70
    32
  0
VERTEX
  8
0
  5
3C37
 10
101.686
 20
101.981
 30
0.000000
  70
    32
  0
VERTEX
  8
0
  5
3C38
 10
102.266
 20
102.955
 30
0.000000
  70
    32
  0
VERTEX
  8
0
  5
3C39
 10
102.816
 20
103.952
 30
0.000000
  70
    32
  0
VERTEX
  8
0
  5
3C3A
 10
103.334
 20
104.971
 30
0.000000
  70
    32
  0
VERTEX
  8
0
  5
3C3B
 10
103.820
 20
106.010
 30
0.000000
  70
    32
  0
VERTEX
  8
0
  5
3C3C
 10
104.274
 20
107.070
 30
0.000000
  70
    32
  0
VERTEX
  8
0
  5
3C3D
 10
104.694
 20
108.147
 30
0.000000
  70
    32
  0
VERTEX
  8
0
  5
3C3E
 10
105.080
 20
109.241
 30
0.000000
  70
    32
  0
VERTEX
  8
0
  5
3C3F
 10
105.433
 20
110.351
 30
0.000000
  70
    32
  0
VERTEX
  8
0
  5
3C40
 10
105.750
 20
111.474
 30
0.000000
  70
    32
  0
VERTEX
  8
0
  5
3C41
 10
106.032
 20
112.610
 30
0.000000
  70
    32
  0
VERTEX
  8
0
  5
3C42
 10
106.279
 20
113.756
 30
0.000000
  70
    32
  0
VERTEX
  8
0
  5
3C43
 10
106.490
 20
114.913
 30
0.000000
  70
    32
  0
VERTEX
  8
0
  5
3C44
 10
106.665
 20
116.077
 30
0.000000
  70
    32
  0
VERTEX
  8
0
  5
3C45
 10
106.803
 20
117.248
 30
0.000000
  70
    32
  0
VERTEX
  8
0
  5
3C46
 10
106.905
 20
118.423
 30
0.000000
  70
    32
  0
VERTEX
  8
0
  5
3C47
 10
106.970
 20
119.602
 30
0.000000
  70
    32
  0
VERTEX
  8
0
  5
3C48
 10
106.999
 20
120.784
 30
0.000000
  70
    32
  0
VERTEX
  8
0
  5
3C49
 10
106.990
 20
121.965
 30
0.000000
  70
    32
  0
VERTEX
  8
0
  5
3C4A
 10
106.945
 20
123.145
 30
0.000000
  70
    32
  0
VERTEX
  8
0
  5
3C4B
 10
106.864
 20
124.323
 30
0.000000
  70
    32
  0
VERTEX
  8
0
  5
3C4C
 10
106.745
 20
125.497
 30
0.000000
  70
    32
  0
VERTEX
  8
0
  5
3C4D
 10
106.590
 20
126.665
 30
0.000000
  70
    32
  0
VERTEX
  8
0
  5
3C4E
 10
106.399
 20
127.826
 30
0.000000
  70
    32
  0
VERTEX
  8
0
  5
3C4F
 10
106.172
 20
128.978
 30
0.000000
  70
    32
  0
VERTEX
  8
0
  5
3C50
 10
105.910
 20
130.120
 30
0.000000
  70
    32
  0
VERTEX
  8
0
  5
3C51
 10
105.611
 20
131.250
 30
0.000000
  70
    32
  0
VERTEX
  8
0
  5
3C52
 10
105.278
 20
132.367
 30
0.000000
  70
    32
  0
VERTEX
  8
0
  5
3C53
 10
104.911
 20
133.470
 30
0.000000
  70
    32
  0
VERTEX
  8
0
  5
3C54
 10
104.509
 20
134.557
 30
0.000000
  70
    32
  0
VERTEX
  8
0
  5
3C55
 10
104.074
 20
135.626
 30
0.000000
  70
    32
  0
VERTEX
  8
0
  5
3C56
 10
103.605
 20
136.677
 30
0.000000
  70
    32
  0
VERTEX
  8
0
  5
3C57
 10
103.105
 20
137.707
 30
0.000000
  70
    32
  0
VERTEX
  8
0
  5
3C58
 10
102.572
 20
138.717
 30
0.000000
  70
    32
  0
VERTEX
  8
0
  5
3C59
 10
102.009
 20
139.703
 30
0.000000
  70
    32
  0
VERTEX
  8
0
  5
3C5A
 10
101.415
 20
140.666
 30
0.000000
  70
    32
  0
VERTEX
  8
0
  5
3C5B
 10
100.791
 20
141.603
 30
0.000000
  70
    32
  0
VERTEX
  8
0
  5
3C5C
 10
100.139
 20
142.514
 30
0.000000
  70
    32
  0
VERTEX
  8
0
  5
3C5D
 10
99.4589
 20
143.397
 30
0.000000
  70
    32
  0
VERTEX
  8
0
  5
3C5E
 10
98.7518
 20
144.251
 30
0.000000
  70
    32
  0
VERTEX
  8
0
  5
3C5F
 10
98.0185
 20
145.076
 30
0.000000
  70
    32
  0
VERTEX
  8
0
  5
3C60
 10
97.2600
 20
145.869
 30
0.000000
  70
    32
  0
VERTEX
  8
0
  5
3C61
 10
96.4773
 20
146.631
 30
0.000000
  70
    32
  0
VERTEX
  8
0
  5
3C62
 10
95.6714
 20
147.360
 30
0.000000
  70
    32
  0
VERTEX
  8
0
  5
3C63
 10
94.8434
 20
148.054
 30
0.000000
  70
    32
  0
VERTEX
  8
0
  5
3C64
 10
93.9942
 20
148.715
 30
0.000000
  70
    32
  0
VERTEX
  8
0
  5
3C65
 10
93.1251
 20
149.339
 30
0.000000
  70
    32
  0
VERTEX
  8
0
  5
3C66
 10
92.2371
 20
149.927
 30
0.000000
  70
    32
  0
VERTEX
  8
0
  5
3C67
 10
91.3314
 20
150.478
 30
0.000000
  70
    32
  0
VERTEX
  8
0
  5
3C68
 10
90.4091
 20
150.991
 30
0.000000
  70
    32
  0
VERTEX
  8
0
  5
3C69
 10
89.4714
 20
151.465
 30
0.000000
  70
    32
  0
VERTEX
  8
0
  5
3C6A
 10
88.5196
 20
151.900
 30
0.000000
  70
    32
  0
VERTEX
  8
0
  5
3C6B
 10
87.5549
 20
152.296
 30
0.000000
  70
    32
  0
VERTEX
  8
0
  5
3C6C
 10
86.5784
 20
152.651
 30
0.000000
  70
    32
  0
VERTEX
  8
0
  5
3C6D
 10
85.5916
 20
152.965
 30
0.000000
  70
    32
  0
VERTEX
  8
0
  5
3C6E
 10
84.5956
 20
153.239
 30
0.000000
  70
    32
  0
VERTEX
  8
0
  5
3C6F
 10
83.5917
 20
153.471
 30
0.000000
  70
    32
  0
VERTEX
  8
0
  5
3C70
 10
82.5813
 20
153.661
 30
0.000000
  70
    32
  0
VERTEX
  8
0
  5
3C71
 10
81.5656
 20
153.809
 30
0.000000
  70
    32
  0
VERTEX
  8
0
  5
3C72
 10
80.5459
 20
153.915
 30
0.000000
  70
    32
  0
VERTEX
  8
0
  5
3C73
 10
79.5236
 20
153.979
 30
0.000000
  70
    32
  0
VERTEX
  8
0
  5
3C74
 10
78.5000
 20
154.000
 30
0.000000
  70
    32
  0
VERTEX
  8
0
  5
3C75
 10
77.4764
 20
153.979
 30
0.000000
  70
    32
  0
VERTEX
  8
0
  5
3C76
 10
76.4541
 20
153.915
 30
0.000000
  70
    32
  0
VERTEX
  8
0
  5
3C77
 10
75.4344
 20
153.809
 30
0.000000
  70
    32
  0
VERTEX
  8
0
  5
3C78
 10
74.4187
 20
153.661
 30
0.000000
  70
    32
  0
VERTEX
  8
0
  5
3C79
 10
73.4083
 20
153.471
 30
0.000000
  70
    32
  0
VERTEX
  8
0
  5
3C7A
 10
72.4044
 20
153.239
 30
0.000000
  70
    32
  0
VERTEX
  8
0
  5
3C7B
 10
71.4084
 20
152.965
 30
0.000000
  70
    32
  0
VERTEX
  8
0
  5
3C7C
 10
70.4216
 20
152.651
 30
0.000000
  70
    32
  0
VERTEX
  8
0
  5
3C7D
 10
69.4451
 20
152.296
 30
0.000000
  70
    32
  0
VERTEX
  8
0
  5
3C7E
 10
68.4804
 20
151.900
 30
0.000000
  70
    32
  0
VERTEX
  8
0
  5
3C7F
 10
67.5286
 20
151.465
 30
0.000000
  70
    32
  0
VERTEX
  8
0
  5
3C80
 10
66.5909
 20
150.991
 30
0.000000
  70
    32
  0
VERTEX
  8
0
  5
3C81
 10
65.6686
 20
150.478
 30
0.000000
  70
    32
  0
VERTEX
  8
0
  5
3C82
 10
64.7629
 20
149.927
 30
0.000000
  70
    32
  0
VERTEX
  8
0
  5
3C83
 10
63.8749
 20
149.339
 30
0.000000
  70
    32
  0
VERTEX
  8
0
  5
3C84
 10
63.0058
 20
148.715
 30
0.000000
  70
    32
  0
VERTEX
  8
0
  5
3C85
 10
62.1566
 20
148.054
 30
0.000000
  70
    32
  0
VERTEX
  8
0
  5
3C86
 10
61.3286
 20
147.360
 30
0.000000
  70
    32
  0
VERTEX
  8
0
  5
3C87
 10
60.5227
 20
146.631
 30
0.000000
  70
    32
  0
VERTEX
  8
0
  5
3C88
 10
59.7400
 20
145.869
 30
0.000000
  70
    32
  0
VERTEX
  8
0
  5
3C89
 10
58.9815
 20
145.076
 30
0.000000
  70
    32
  0
VERTEX
  8
0
  5
3C8A
 10
58.2482
 20
144.251
 30
0.000000
  70
    32
  0
VERTEX
  8
0
  5
3C8B
 10
57.5411
 20
143.397
 30
0.000000
  70
    32
  0
VERTEX
  8
0
  5
3C8C
 10
56.8610
 20
142.514
 30
0.000000
  70
    32
  0
VERTEX
  8
0
  5
3C8D
 10
56.2088
 20
141.603
 30
0.000000
  70
    32
  0
VERTEX
  8
0
  5
3C8E
 10
55.5853
 20
140.666
 30
0.000000
  70
    32
  0
VERTEX
  8
0
  5
3C8F
 10
54.9915
 20
139.703
 30
0.000000
  70
    32
  0
VERTEX
  8
0
  5
3C90
 10
54.4280
 20
138.717
 30
0.000000
  70
    32
  0
VERTEX
  8
0
  5
3C91
 10
53.8955
 20
137.707
 30
0.000000
  70
    32
  0
VERTEX
  8
0
  5
3C92
 10
53.3948
 20
136.677
 30
0.000000
  70
    32
  0
VERTEX
  8
0
  5
3C93
 10
52.9265
 20
135.626
 30
0.000000
  70
    32
  0
VERTEX
  8
0
  5
3C94
 10
52.4912
 20
134.557
 30
0.000000
  70
    32
  0
VERTEX
  8
0
  5
3C95
 10
52.0894
 20
133.470
 30
0.000000
  70
    32
  0
VERTEX
  8
0
  5
3C96
 10
51.7217
 20
132.367
 30
0.000000
  70
    32
  0
VERTEX
  8
0
  5
3C97
 10
51.3886
 20
131.250
 30
0.000000
  70
    32
  0
VERTEX
  8
0
  5
3C98
 10
51.0905
 20
130.120
 30
0.000000
  70
    32
  0
VERTEX
  8
0
  5
3C99
 10
50.8277
 20
128.978
 30
0.000000
  70
    32
  0
VERTEX
  8
0
  5
3C9A
 10
50.6007
 20
127.826
 30
0.000000
  70
    32
  0
VERTEX
  8
0
  5
3C9B
 10
50.4096
 20
126.665
 30
0.000000
  70
    32
  0
VERTEX
  8
0
  5
3C9C
 10
50.2548
 20
125.497
 30
0.000000
  70
    32
  0
VERTEX
  8
0
  5
3C9D
 10
50.1365
 20
124.323
 30
0.000000
  70
    32
  0
VERTEX
  8
0
  5
3C9E
 10
50.0547
 20
123.145
 30
0.000000
  70
    32
  0
VERTEX
  8
0
  5
3C9F
 10
50.0097
 20
121.965
 30
0.000000
  70
    32
  0
VERTEX
  8
0
  5
3CA0
 10
50.0014
 20
120.784
 30
0.000000
  70
    32
  0
VERTEX
  8
0
  5
3CA1
 10
50.0299
 20
119.602
 30
0.000000
  70
    32
  0
VERTEX
  8
0
  5
3CA2
 10
50.0951
 20
118.423
 30
0.000000
  70
    32
  0
VERTEX
  8
0
  5
3CA3
 10
50.1970
 20
117.248
 30
0.000000
  70
    32
  0
VERTEX
  8
0
  5
3CA4
 10
50.3354
 20
116.077
 30
0.000000
  70
    32
  0
VERTEX
  8
0
  5
3CA5
 10
50.5102
 20
114.913
 30
0.000000
  70
    32
  0
VERTEX
  8
0
  5
3CA6
 10
50.7210
 20
113.756
 30
0.000000
  70
    32
  0
VERTEX
  8
0
  5
3CA7
 10
50.9677
 20
112.610
 30
0.000000
  70
    32
  0
VERTEX
  8
0
  5
3CA8
 10
51.2500
 20
111.474
 30
0.000000
  70
    32
  0
VERTEX
  8
0
  5
3CA9
 10
51.5674
 20
110.351
 30
0.000000
  70
    32
  0
VERTEX
  8
0
  5
3CAA
 10
51.9196
 20
109.241
 30
0.000000
  70
    32
  0
VERTEX
  8
0
  5
3CAB
 10
52.3060
 20
108.147
 30
0.000000
  70
    32
  0
VERTEX
  8
0
  5
3CAC
 10
52.7263
 20
107.070
 30
0.000000
  70
    32
  0
VERTEX
  8
0
  5
3CAD
 10
53.1798
 20
106.010
 30
0.000000
  70
    32
  0
VERTEX
  8
0
  5
3CAE
 10
53.6660
 20
104.971
 30
0.000000
  70
    32
  0
VERTEX
  8
0
  5
3CAF
 10
54.1842
 20
103.952
 30
0.000000
  70
    32
  0
VERTEX
  8
0
  5
3CB0
 10
54.7339
 20
102.955
 30
0.000000
  70
    32
  0
VERTEX
  8
0
  5
3CB1
 10
55.3142
 20
101.981
 30
0.000000
  70
    32
  0
VERTEX
  8
0
  5
3CB2
 10
55.9244
 20
101.033
 30
0.000000
  70
    32
  0
VERTEX
  8
0
  5
3CB3
 10
56.5637
 20
100.110
 30
0.000000
  70
    32
  0
VERTEX
  8
0
  5
3CB4
 10
57.2313
 20
99.2140
 30
0.000000
  70
    32
  0
SEQEND
  8
0
  5
3CB5
  0
POLYLINE
  5
3688
  8
0
 10
57.231343277377732
 20
99.213951170000044
 30
0.0
 66
     1
 70
     8
  0
VERTEX
  8
0
  5
3CB6
 10
57.2313
 20
99.2140
 30
0.000000
  70
    32
  0
VERTEX
  8
0
  5
3CB7
 10
57.2331
 20
99.2117
 30
0.000000
  70
    32
  0
VERTEX
  8
0
  5
3CB8
 10
57.2348
 20
99.2095
 30
0.000000
  70
    32
  0
VERTEX
  8
0
  5
3CB9
 10
57.2365
 20
99.2072
 30
0.000000
  70
    32
  0
VERTEX
  8
0
  5
3CBA
 10
57.2383
 20
99.2050
 30
0.000000
  70
    32
  0
VERTEX
  8
0
  5
3CBB
 10
57.2400
 20
99.2028
 30
0.000000
  70
    32
  0
VERTEX
  8
0
  5
3CBC
 10
57.2417
 20
99.2005
 30
0.000000
  70
    32
  0
VERTEX
  8
0
  5
3CBD
 10
57.2434
 20
99.1983
 30
0.000000
  70
    32
  0
VERTEX
  8
0
  5
3CBE
 10
57.2452
 20
99.1961
 30
0.000000
  70
    32
  0
VERTEX
  8
0
  5
3CBF
 10
57.2469
 20
99.1938
 30
0.000000
  70
    32
  0
VERTEX
  8
0
  5
3CC0
 10
57.2486
 20
99.1916
 30
0.000000
  70
    32
  0
VERTEX
  8
0
  5
3CC1
 10
57.2504
 20
99.1894
 30
0.000000
  70
    32
  0
VERTEX
  8
0
  5
3CC2
 10
57.2521
 20
99.1871
 30
0.000000
  70
    32
  0
VERTEX
  8
0
  5
3CC3
 10
57.2538
 20
99.1849
 30
0.000000
  70
    32
  0
VERTEX
  8
0
  5
3CC4
 10
57.2555
 20
99.1827
 30
0.000000
  70
    32
  0
VERTEX
  8
0
  5
3CC5
 10
57.2573
 20
99.1805
 30
0.000000
  70
    32
  0
VERTEX
  8
0
  5
3CC6
 10
57.2590
 20
99.1782
 30
0.000000
  70
    32
  0
VERTEX
  8
0
  5
3CC7
 10
57.2607
 20
99.1760
 30
0.000000
  70
    32
  0
VERTEX
  8
0
  5
3CC8
 10
57.2625
 20
99.1738
 30
0.000000
  70
    32
  0
VERTEX
  8
0
  5
3CC9
 10
57.2642
 20
99.1715
 30
0.000000
  70
    32
  0
VERTEX
  8
0
  5
3CCA
 10
57.2659
 20
99.1693
 30
0.000000
  70
    32
  0
VERTEX
  8
0
  5
3CCB
 10
57.2677
 20
99.1671
 30
0.000000
  70
    32
  0
VERTEX
  8
0
  5
3CCC
 10
57.2694
 20
99.1648
 30
0.000000
  70
    32
  0
VERTEX
  8
0
  5
3CCD
 10
57.2711
 20
99.1626
 30
0.000000
  70
    32
  0
VERTEX
  8
0
  5
3CCE
 10
57.2728
 20
99.1604
 30
0.000000
  70
    32
  0
VERTEX
  8
0
  5
3CCF
 10
57.2746
 20
99.1581
 30
0.000000
  70
    32
  0
VERTEX
  8
0
  5
3CD0
 10
57.2763
 20
99.1559
 30
0.000000
  70
    32
  0
VERTEX
  8
0
  5
3CD1
 10
57.2780
 20
99.1537
 30
0.000000
  70
    32
  0
VERTEX
  8
0
  5
3CD2
 10
57.2798
 20
99.1515
 30
0.000000
  70
    32
  0
VERTEX
  8
0
  5
3CD3
 10
57.2815
 20
99.1492
 30
0.000000
  70
    32
  0
VERTEX
  8
0
  5
3CD4
 10
57.2832
 20
99.1470
 30
0.000000
  70
    32
  0
VERTEX
  8
0
  5
3CD5
 10
57.2850
 20
99.1448
 30
0.000000
  70
    32
  0
VERTEX
  8
0
  5
3CD6
 10
57.2867
 20
99.1425
 30
0.000000
  70
    32
  0
VERTEX
  8
0
  5
3CD7
 10
57.2884
 20
99.1403
 30
0.000000
  70
    32
  0
VERTEX
  8
0
  5
3CD8
 10
57.2902
 20
99.1381
 30
0.000000
  70
    32
  0
VERTEX
  8
0
  5
3CD9
 10
57.2919
 20
99.1359
 30
0.000000
  70
    32
  0
VERTEX
  8
0
  5
3CDA
 10
57.2936
 20
99.1336
 30
0.000000
  70
    32
  0
VERTEX
  8
0
  5
3CDB
 10
57.2954
 20
99.1314
 30
0.000000
  70
    32
  0
VERTEX
  8
0
  5
3CDC
 10
57.2971
 20
99.1292
 30
0.000000
  70
    32
  0
VERTEX
  8
0
  5
3CDD
 10
57.2988
 20
99.1269
 30
0.000000
  70
    32
  0
VERTEX
  8
0
  5
3CDE
 10
57.3006
 20
99.1247
 30
0.000000
  70
    32
  0
VERTEX
  8
0
  5
3CDF
 10
57.3023
 20
99.1225
 30
0.000000
  70
    32
  0
VERTEX
  8
0
  5
3CE0
 10
57.3040
 20
99.1203
 30
0.000000
  70
    32
  0
VERTEX
  8
0
  5
3CE1
 10
57.3058
 20
99.1180
 30
0.000000
  70
    32
  0
VERTEX
  8
0
  5
3CE2
 10
57.3075
 20
99.1158
 30
0.000000
  70
    32
  0
VERTEX
  8
0
  5
3CE3
 10
57.3092
 20
99.1136
 30
0.000000
  70
    32
  0
VERTEX
  8
0
  5
3CE4
 10
57.3110
 20
99.1114
 30
0.000000
  70
    32
  0
VERTEX
  8
0
  5
3CE5
 10
57.3127
 20
99.1091
 30
0.000000
  70
    32
  0
VERTEX
  8
0
  5
3CE6
 10
57.3144
 20
99.1069
 30
0.000000
  70
    32
  0
VERTEX
  8
0
  5
3CE7
 10
57.3162
 20
99.1047
 30
0.000000
  70
    32
  0
VERTEX
  8
0
  5
3CE8
 10
57.3179
 20
99.1024
 30
0.000000
  70
    32
  0
VERTEX
  8
0
  5
3CE9
 10
57.3197
 20
99.1002
 30
0.000000
  70
    32
  0
VERTEX
  8
0
  5
3CEA
 10
57.3214
 20
99.0980
 30
0.000000
  70
    32
  0
VERTEX
  8
0
  5
3CEB
 10
57.3231
 20
99.0958
 30
0.000000
  70
    32
  0
VERTEX
  8
0
  5
3CEC
 10
57.3249
 20
99.0935
 30
0.000000
  70
    32
  0
VERTEX
  8
0
  5
3CED
 10
57.3266
 20
99.0913
 30
0.000000
  70
    32
  0
VERTEX
  8
0
  5
3CEE
 10
57.3283
 20
99.0891
 30
0.000000
  70
    32
  0
VERTEX
  8
0
  5
3CEF
 10
57.3301
 20
99.0869
 30
0.000000
  70
    32
  0
VERTEX
  8
0
  5
3CF0
 10
57.3318
 20
99.0846
 30
0.000000
  70
    32
  0
VERTEX
  8
0
  5
3CF1
 10
57.3335
 20
99.0824
 30
0.000000
  70
    32
  0
VERTEX
  8
0
  5
3CF2
 10
57.3353
 20
99.0802
 30
0.000000
  70
    32
  0
VERTEX
  8
0
  5
3CF3
 10
57.3370
 20
99.0780
 30
0.000000
  70
    32
  0
VERTEX
  8
0
  5
3CF4
 10
57.3388
 20
99.0758
 30
0.000000
  70
    32
  0
VERTEX
  8
0
  5
3CF5
 10
57.3405
 20
99.0735
 30
0.000000
  70
    32
  0
VERTEX
  8
0
  5
3CF6
 10
57.3422
 20
99.0713
 30
0.000000
  70
    32
  0
VERTEX
  8
0
  5
3CF7
 10
57.3440
 20
99.0691
 30
0.000000
  70
    32
  0
VERTEX
  8
0
  5
3CF8
 10
57.3457
 20
99.0669
 30
0.000000
  70
    32
  0
VERTEX
  8
0
  5
3CF9
 10
57.3475
 20
99.0646
 30
0.000000
  70
    32
  0
VERTEX
  8
0
  5
3CFA
 10
57.3492
 20
99.0624
 30
0.000000
  70
    32
  0
VERTEX
  8
0
  5
3CFB
 10
57.3509
 20
99.0602
 30
0.000000
  70
    32
  0
VERTEX
  8
0
  5
3CFC
 10
57.3527
 20
99.0580
 30
0.000000
  70
    32
  0
VERTEX
  8
0
  5
3CFD
 10
57.3544
 20
99.0558
 30
0.000000
  70
    32
  0
VERTEX
  8
0
  5
3CFE
 10
57.3561
 20
99.0535
 30
0.000000
  70
    32
  0
VERTEX
  8
0
  5
3CFF
 10
57.3579
 20
99.0513
 30
0.000000
  70
    32
  0
VERTEX
  8
0
  5
3D00
 10
57.3596
 20
99.0491
 30
0.000000
  70
    32
  0
VERTEX
  8
0
  5
3D01
 10
57.3614
 20
99.0469
 30
0.000000
  70
    32
  0
VERTEX
  8
0
  5
3D02
 10
57.3631
 20
99.0446
 30
0.000000
  70
    32
  0
VERTEX
  8
0
  5
3D03
 10
57.3648
 20
99.0424
 30
0.000000
  70
    32
  0
VERTEX
  8
0
  5
3D04
 10
57.3666
 20
99.0402
 30
0.000000
  70
    32
  0
VERTEX
  8
0
  5
3D05
 10
57.3683
 20
99.0380
 30
0.000000
  70
    32
  0
VERTEX
  8
0
  5
3D06
 10
57.3701
 20
99.0358
 30
0.000000
  70
    32
  0
VERTEX
  8
0
  5
3D07
 10
57.3718
 20
99.0335
 30
0.000000
  70
    32
  0
VERTEX
  8
0
  5
3D08
 10
57.3736
 20
99.0313
 30
0.000000
  70
    32
  0
VERTEX
  8
0
  5
3D09
 10
57.3753
 20
99.0291
 30
0.000000
  70
    32
  0
VERTEX
  8
0
  5
3D0A
 10
57.3770
 20
99.0269
 30
0.000000
  70
    32
  0
VERTEX
  8
0
  5
3D0B
 10
57.3788
 20
99.0247
 30
0.000000
  70
    32
  0
VERTEX
  8
0
  5
3D0C
 10
57.3805
 20
99.0224
 30
0.000000
  70
    32
  0
VERTEX
  8
0
  5
3D0D
 10
57.3823
 20
99.0202
 30
0.000000
  70
    32
  0
VERTEX
  8
0
  5
3D0E
 10
57.3840
 20
99.0180
 30
0.000000
  70
    32
  0
VERTEX
  8
0
  5
3D0F
 10
57.3857
 20
99.0158
 30
0.000000
  70
    32
  0
VERTEX
  8
0
  5
3D10
 10
57.3875
 20
99.0136
 30
0.000000
  70
    32
  0
VERTEX
  8
0
  5
3D11
 10
57.3892
 20
99.0114
 30
0.000000
  70
    32
  0
VERTEX
  8
0
  5
3D12
 10
57.3910
 20
99.0091
 30
0.000000
  70
    32
  0
VERTEX
  8
0
  5
3D13
 10
57.3927
 20
99.0069
 30
0.000000
  70
    32
  0
VERTEX
  8
0
  5
3D14
 10
57.3945
 20
99.0047
 30
0.000000
  70
    32
  0
VERTEX
  8
0
  5
3D15
 10
57.3962
 20
99.0025
 30
0.000000
  70
    32
  0
VERTEX
  8
0
  5
3D16
 10
57.3980
 20
99.0003
 30
0.000000
  70
    32
  0
VERTEX
  8
0
  5
3D17
 10
57.3997
 20
98.9980
 30
0.000000
  70
    32
  0
VERTEX
  8
0
  5
3D18
 10
57.4014
 20
98.9958
 30
0.000000
  70
    32
  0
VERTEX
  8
0
  5
3D19
 10
57.4032
 20
98.9936
 30
0.000000
  70
    32
  0
VERTEX
  8
0
  5
3D1A
 10
57.4049
 20
98.9914
 30
0.000000
  70
    32
  0
VERTEX
  8
0
  5
3D1B
 10
57.4067
 20
98.9892
 30
0.000000
  70
    32
  0
VERTEX
  8
0
  5
3D1C
 10
57.4084
 20
98.9870
 30
0.000000
  70
    32
  0
VERTEX
  8
0
  5
3D1D
 10
57.4102
 20
98.9848
 30
0.000000
  70
    32
  0
VERTEX
  8
0
  5
3D1E
 10
57.4119
 20
98.9825
 30
0.000000
  70
    32
  0
VERTEX
  8
0
  5
3D1F
 10
57.4137
 20
98.9803
 30
0.000000
  70
    32
  0
VERTEX
  8
0
  5
3D20
 10
57.4154
 20
98.9781
 30
0.000000
  70
    32
  0
VERTEX
  8
0
  5
3D21
 10
57.4171
 20
98.9759
 30
0.000000
  70
    32
  0
VERTEX
  8
0
  5
3D22
 10
57.4189
 20
98.9737
 30
0.000000
  70
    32
  0
VERTEX
  8
0
  5
3D23
 10
57.4206
 20
98.9715
 30
0.000000
  70
    32
  0
VERTEX
  8
0
  5
3D24
 10
57.4224
 20
98.9692
 30
0.000000
  70
    32
  0
VERTEX
  8
0
  5
3D25
 10
57.4241
 20
98.9670
 30
0.000000
  70
    32
  0
VERTEX
  8
0
  5
3D26
 10
57.4259
 20
98.9648
 30
0.000000
  70
    32
  0
VERTEX
  8
0
  5
3D27
 10
57.4276
 20
98.9626
 30
0.000000
  70
    32
  0
VERTEX
  8
0
  5
3D28
 10
57.4294
 20
98.9604
 30
0.000000
  70
    32
  0
VERTEX
  8
0
  5
3D29
 10
57.4311
 20
98.9582
 30
0.000000
  70
    32
  0
VERTEX
  8
0
  5
3D2A
 10
57.4329
 20
98.9560
 30
0.000000
  70
    32
  0
VERTEX
  8
0
  5
3D2B
 10
57.4346
 20
98.9537
 30
0.000000
  70
    32
  0
VERTEX
  8
0
  5
3D2C
 10
57.4364
 20
98.9515
 30
0.000000
  70
    32
  0
VERTEX
  8
0
  5
3D2D
 10
57.4381
 20
98.9493
 30
0.000000
  70
    32
  0
VERTEX
  8
0
  5
3D2E
 10
57.4399
 20
98.9471
 30
0.000000
  70
    32
  0
VERTEX
  8
0
  5
3D2F
 10
57.4416
 20
98.9449
 30
0.000000
  70
    32
  0
VERTEX
  8
0
  5
3D30
 10
57.4434
 20
98.9427
 30
0.000000
  70
    32
  0
VERTEX
  8
0
  5
3D31
 10
57.4451
 20
98.9405
 30
0.000000
  70
    32
  0
VERTEX
  8
0
  5
3D32
 10
57.4468
 20
98.9383
 30
0.000000
  70
    32
  0
VERTEX
  8
0
  5
3D33
 10
57.4486
 20
98.9360
 30
0.000000
  70
    32
  0
VERTEX
  8
0
  5
3D34
 10
57.4503
 20
98.9338
 30
0.000000
  70
    32
  0
VERTEX
  8
0
  5
3D35
 10
57.4521
 20
98.9316
 30
0.000000
  70
    32
  0
VERTEX
  8
0
  5
3D36
 10
57.4538
 20
98.9294
 30
0.000000
  70
    32
  0
SEQEND
  8
0
  5
3D37
  0
LINE
  5
3689
  8
0
 10
50.000000005800082
 20
172.0
 30
0.0
 11
107.0000000042
 21
172.0
 31
0.0
  0
LINE
  5
368A
  8
0
 10
58.500000009999887
 20
95.816600135037362
 30
0.0
 11
58.500000009999887
 21
95.372853930000019
 31
0.0
  0
POLYLINE
  5
368B
  8
0
 10
58.500000010000029
 20
95.816600135037405
 30
0.0
 66
     1
 70
     8
  0
VERTEX
  8
0
  5
3D38
 10
58.5000
 20
95.8166
 30
0.000000
  70
    32
  0
VERTEX
  8
0
  5
3D39
 10
58.4999
 20
95.8433
 30
0.000000
  70
    32
  0
VERTEX
  8
0
  5
3D3A
 10
58.4997
 20
95.8700
 30
0.000000
  70
    32
  0
VERTEX
  8
0
  5
3D3B
 10
58.4994
 20
95.8967
 30
0.000000
  70
    32
  0
VERTEX
  8
0
  5
3D3C
 10
58.4989
 20
95.9233
 30
0.000000
  70
    32
  0
VERTEX
  8
0
  5
3D3D
 10
58.4983
 20
95.9500
 30
0.000000
  70
    32
  0
VERTEX
  8
0
  5
3D3E
 10
58.4976
 20
95.9767
 30
0.000000
  70
    32
  0
VERTEX
  8
0
  5
3D3F
 10
58.4967
 20
96.0034
 30
0.000000
  70
    32
  0
VERTEX
  8
0
  5
3D40
 10
58.4957
 20
96.0300
 30
0.000000
  70
    32
  0
VERTEX
  8
0
  5
3D41
 10
58.4946
 20
96.0567
 30
0.000000
  70
    32
  0
VERTEX
  8
0
  5
3D42
 10
58.4933
 20
96.0833
 30
0.000000
  70
    32
  0
VERTEX
  8
0
  5
3D43
 10
58.4919
 20
96.1100
 30
0.000000
  70
    32
  0
VERTEX
  8
0
  5
3D44
 10
58.4904
 20
96.1366
 30
0.000000
  70
    32
  0
VERTEX
  8
0
  5
3D45
 10
58.4887
 20
96.1632
 30
0.000000
  70
    32
  0
VERTEX
  8
0
  5
3D46
 10
58.4869
 20
96.1898
 30
0.000000
  70
    32
  0
VERTEX
  8
0
  5
3D47
 10
58.4850
 20
96.2164
 30
0.000000
  70
    32
  0
VERTEX
  8
0
  5
3D48
 10
58.4829
 20
96.2430
 30
0.000000
  70
    32
  0
VERTEX
  8
0
  5
3D49
 10
58.4807
 20
96.2696
 30
0.000000
  70
    32
  0
VERTEX
  8
0
  5
3D4A
 10
58.4784
 20
96.2961
 30
0.000000
  70
    32
  0
VERTEX
  8
0
  5
3D4B
 10
58.4759
 20
96.3227
 30
0.000000
  70
    32
  0
VERTEX
  8
0
  5
3D4C
 10
58.4733
 20
96.3492
 30
0.000000
  70
    32
  0
VERTEX
  8
0
  5
3D4D
 10
58.4706
 20
96.3757
 30
0.000000
  70
    32
  0
VERTEX
  8
0
  5
3D4E
 10
58.4677
 20
96.4022
 30
0.000000
  70
    32
  0
VERTEX
  8
0
  5
3D4F
 10
58.4647
 20
96.4286
 30
0.000000
  70
    32
  0
VERTEX
  8
0
  5
3D50
 10
58.4616
 20
96.4551
 30
0.000000
  70
    32
  0
VERTEX
  8
0
  5
3D51
 10
58.4583
 20
96.4815
 30
0.000000
  70
    32
  0
VERTEX
  8
0
  5
3D52
 10
58.4549
 20
96.5079
 30
0.000000
  70
    32
  0
VERTEX
  8
0
  5
3D53
 10
58.4514
 20
96.5343
 30
0.000000
  70
    32
  0
VERTEX
  8
0
  5
3D54
 10
58.4477
 20
96.5606
 30
0.000000
  70
    32
  0
VERTEX
  8
0
  5
3D55
 10
58.4439
 20
96.5870
 30
0.000000
  70
    32
  0
VERTEX
  8
0
  5
3D56
 10
58.4400
 20
96.6133
 30
0.000000
  70
    32
  0
VERTEX
  8
0
  5
3D57
 10
58.4359
 20
96.6395
 30
0.000000
  70
    32
  0
VERTEX
  8
0
  5
3D58
 10
58.4317
 20
96.6658
 30
0.000000
  70
    32
  0
VERTEX
  8
0
  5
3D59
 10
58.4274
 20
96.6920
 30
0.000000
  70
    32
  0
VERTEX
  8
0
  5
3D5A
 10
58.4230
 20
96.7182
 30
0.000000
  70
    32
  0
VERTEX
  8
0
  5
3D5B
 10
58.4184
 20
96.7444
 30
0.000000
  70
    32
  0
VERTEX
  8
0
  5
3D5C
 10
58.4137
 20
96.7705
 30
0.000000
  70
    32
  0
VERTEX
  8
0
  5
3D5D
 10
58.4088
 20
96.7966
 30
0.000000
  70
    32
  0
VERTEX
  8
0
  5
3D5E
 10
58.4039
 20
96.8226
 30
0.000000
  70
    32
  0
VERTEX
  8
0
  5
3D5F
 10
58.3988
 20
96.8487
 30
0.000000
  70
    32
  0
VERTEX
  8
0
  5
3D60
 10
58.3935
 20
96.8747
 30
0.000000
  70
    32
  0
VERTEX
  8
0
  5
3D61
 10
58.3882
 20
96.9006
 30
0.000000
  70
    32
  0
VERTEX
  8
0
  5
3D62
 10
58.3827
 20
96.9266
 30
0.000000
  70
    32
  0
VERTEX
  8
0
  5
3D63
 10
58.3770
 20
96.9524
 30
0.000000
  70
    32
  0
VERTEX
  8
0
  5
3D64
 10
58.3713
 20
96.9783
 30
0.000000
  70
    32
  0
VERTEX
  8
0
  5
3D65
 10
58.3654
 20
97.0041
 30
0.000000
  70
    32
  0
VERTEX
  8
0
  5
3D66
 10
58.3594
 20
97.0299
 30
0.000000
  70
    32
  0
VERTEX
  8
0
  5
3D67
 10
58.3532
 20
97.0556
 30
0.000000
  70
    32
  0
VERTEX
  8
0
  5
3D68
 10
58.3470
 20
97.0813
 30
0.000000
  70
    32
  0
VERTEX
  8
0
  5
3D69
 10
58.3406
 20
97.1069
 30
0.000000
  70
    32
  0
VERTEX
  8
0
  5
3D6A
 10
58.3340
 20
97.1325
 30
0.000000
  70
    32
  0
VERTEX
  8
0
  5
3D6B
 10
58.3274
 20
97.1581
 30
0.000000
  70
    32
  0
VERTEX
  8
0
  5
3D6C
 10
58.3206
 20
97.1836
 30
0.000000
  70
    32
  0
VERTEX
  8
0
  5
3D6D
 10
58.3137
 20
97.2091
 30
0.000000
  70
    32
  0
VERTEX
  8
0
  5
3D6E
 10
58.3067
 20
97.2345
 30
0.000000
  70
    32
  0
VERTEX
  8
0
  5
3D6F
 10
58.2995
 20
97.2599
 30
0.000000
  70
    32
  0
VERTEX
  8
0
  5
3D70
 10
58.2922
 20
97.2852
 30
0.000000
  70
    32
  0
VERTEX
  8
0
  5
3D71
 10
58.2848
 20
97.3105
 30
0.000000
  70
    32
  0
VERTEX
  8
0
  5
3D72
 10
58.2772
 20
97.3357
 30
0.000000
  70
    32
  0
VERTEX
  8
0
  5
3D73
 10
58.2696
 20
97.3609
 30
0.000000
  70
    32
  0
VERTEX
  8
0
  5
3D74
 10
58.2618
 20
97.3860
 30
0.000000
  70
    32
  0
VERTEX
  8
0
  5
3D75
 10
58.2538
 20
97.4111
 30
0.000000
  70
    32
  0
VERTEX
  8
0
  5
3D76
 10
58.2458
 20
97.4361
 30
0.000000
  70
    32
  0
VERTEX
  8
0
  5
3D77
 10
58.2376
 20
97.4611
 30
0.000000
  70
    32
  0
VERTEX
  8
0
  5
3D78
 10
58.2293
 20
97.4860
 30
0.000000
  70
    32
  0
VERTEX
  8
0
  5
3D79
 10
58.2209
 20
97.5108
 30
0.000000
  70
    32
  0
VERTEX
  8
0
  5
3D7A
 10
58.2123
 20
97.5356
 30
0.000000
  70
    32
  0
VERTEX
  8
0
  5
3D7B
 10
58.2037
 20
97.5604
 30
0.000000
  70
    32
  0
VERTEX
  8
0
  5
3D7C
 10
58.1949
 20
97.5851
 30
0.000000
  70
    32
  0
VERTEX
  8
0
  5
3D7D
 10
58.1859
 20
97.6097
 30
0.000000
  70
    32
  0
VERTEX
  8
0
  5
3D7E
 10
58.1769
 20
97.6342
 30
0.000000
  70
    32
  0
VERTEX
  8
0
  5
3D7F
 10
58.1677
 20
97.6587
 30
0.000000
  70
    32
  0
VERTEX
  8
0
  5
3D80
 10
58.1584
 20
97.6832
 30
0.000000
  70
    32
  0
VERTEX
  8
0
  5
3D81
 10
58.1490
 20
97.7076
 30
0.000000
  70
    32
  0
VERTEX
  8
0
  5
3D82
 10
58.1395
 20
97.7319
 30
0.000000
  70
    32
  0
VERTEX
  8
0
  5
3D83
 10
58.1298
 20
97.7561
 30
0.000000
  70
    32
  0
VERTEX
  8
0
  5
3D84
 10
58.1201
 20
97.7803
 30
0.000000
  70
    32
  0
VERTEX
  8
0
  5
3D85
 10
58.1102
 20
97.8044
 30
0.000000
  70
    32
  0
VERTEX
  8
0
  5
3D86
 10
58.1001
 20
97.8285
 30
0.000000
  70
    32
  0
VERTEX
  8
0
  5
3D87
 10
58.0900
 20
97.8525
 30
0.000000
  70
    32
  0
VERTEX
  8
0
  5
3D88
 10
58.0797
 20
97.8764
 30
0.000000
  70
    32
  0
VERTEX
  8
0
  5
3D89
 10
58.0694
 20
97.9003
 30
0.000000
  70
    32
  0
VERTEX
  8
0
  5
3D8A
 10
58.0589
 20
97.9240
 30
0.000000
  70
    32
  0
VERTEX
  8
0
  5
3D8B
 10
58.0483
 20
97.9477
 30
0.000000
  70
    32
  0
VERTEX
  8
0
  5
3D8C
 10
58.0375
 20
97.9714
 30
0.000000
  70
    32
  0
VERTEX
  8
0
  5
3D8D
 10
58.0267
 20
97.9949
 30
0.000000
  70
    32
  0
VERTEX
  8
0
  5
3D8E
 10
58.0157
 20
98.0184
 30
0.000000
  70
    32
  0
VERTEX
  8
0
  5
3D8F
 10
58.0046
 20
98.0419
 30
0.000000
  70
    32
  0
VERTEX
  8
0
  5
3D90
 10
57.9934
 20
98.0652
 30
0.000000
  70
    32
  0
VERTEX
  8
0
  5
3D91
 10
57.9821
 20
98.0885
 30
0.000000
  70
    32
  0
VERTEX
  8
0
  5
3D92
 10
57.9706
 20
98.1117
 30
0.000000
  70
    32
  0
VERTEX
  8
0
  5
3D93
 10
57.9591
 20
98.1348
 30
0.000000
  70
    32
  0
VERTEX
  8
0
  5
3D94
 10
57.9474
 20
98.1578
 30
0.000000
  70
    32
  0
VERTEX
  8
0
  5
3D95
 10
57.9356
 20
98.1808
 30
0.000000
  70
    32
  0
VERTEX
  8
0
  5
3D96
 10
57.9237
 20
98.2037
 30
0.000000
  70
    32
  0
VERTEX
  8
0
  5
3D97
 10
57.9117
 20
98.2265
 30
0.000000
  70
    32
  0
VERTEX
  8
0
  5
3D98
 10
57.8996
 20
98.2492
 30
0.000000
  70
    32
  0
VERTEX
  8
0
  5
3D99
 10
57.8873
 20
98.2718
 30
0.000000
  70
    32
  0
VERTEX
  8
0
  5
3D9A
 10
57.8750
 20
98.2944
 30
0.000000
  70
    32
  0
VERTEX
  8
0
  5
3D9B
 10
57.8625
 20
98.3169
 30
0.000000
  70
    32
  0
VERTEX
  8
0
  5
3D9C
 10
57.8499
 20
98.3393
 30
0.000000
  70
    32
  0
VERTEX
  8
0
  5
3D9D
 10
57.8372
 20
98.3616
 30
0.000000
  70
    32
  0
VERTEX
  8
0
  5
3D9E
 10
57.8244
 20
98.3838
 30
0.000000
  70
    32
  0
VERTEX
  8
0
  5
3D9F
 10
57.8115
 20
98.4060
 30
0.000000
  70
    32
  0
VERTEX
  8
0
  5
3DA0
 10
57.7985
 20
98.4280
 30
0.000000
  70
    32
  0
VERTEX
  8
0
  5
3DA1
 10
57.7854
 20
98.4500
 30
0.000000
  70
    32
  0
VERTEX
  8
0
  5
3DA2
 10
57.7721
 20
98.4718
 30
0.000000
  70
    32
  0
VERTEX
  8
0
  5
3DA3
 10
57.7588
 20
98.4936
 30
0.000000
  70
    32
  0
VERTEX
  8
0
  5
3DA4
 10
57.7453
 20
98.5153
 30
0.000000
  70
    32
  0
VERTEX
  8
0
  5
3DA5
 10
57.7317
 20
98.5369
 30
0.000000
  70
    32
  0
VERTEX
  8
0
  5
3DA6
 10
57.7180
 20
98.5585
 30
0.000000
  70
    32
  0
VERTEX
  8
0
  5
3DA7
 10
57.7043
 20
98.5799
 30
0.000000
  70
    32
  0
VERTEX
  8
0
  5
3DA8
 10
57.6904
 20
98.6012
 30
0.000000
  70
    32
  0
VERTEX
  8
0
  5
3DA9
 10
57.6764
 20
98.6225
 30
0.000000
  70
    32
  0
VERTEX
  8
0
  5
3DAA
 10
57.6622
 20
98.6436
 30
0.000000
  70
    32
  0
VERTEX
  8
0
  5
3DAB
 10
57.6480
 20
98.6647
 30
0.000000
  70
    32
  0
VERTEX
  8
0
  5
3DAC
 10
57.6337
 20
98.6856
 30
0.000000
  70
    32
  0
VERTEX
  8
0
  5
3DAD
 10
57.6193
 20
98.7065
 30
0.000000
  70
    32
  0
VERTEX
  8
0
  5
3DAE
 10
57.6048
 20
98.7272
 30
0.000000
  70
    32
  0
VERTEX
  8
0
  5
3DAF
 10
57.5901
 20
98.7479
 30
0.000000
  70
    32
  0
VERTEX
  8
0
  5
3DB0
 10
57.5754
 20
98.7685
 30
0.000000
  70
    32
  0
VERTEX
  8
0
  5
3DB1
 10
57.5606
 20
98.7889
 30
0.000000
  70
    32
  0
VERTEX
  8
0
  5
3DB2
 10
57.5456
 20
98.8093
 30
0.000000
  70
    32
  0
VERTEX
  8
0
  5
3DB3
 10
57.5306
 20
98.8296
 30
0.000000
  70
    32
  0
VERTEX
  8
0
  5
3DB4
 10
57.5154
 20
98.8498
 30
0.000000
  70
    32
  0
VERTEX
  8
0
  5
3DB5
 10
57.5002
 20
98.8698
 30
0.000000
  70
    32
  0
VERTEX
  8
0
  5
3DB6
 10
57.4848
 20
98.8898
 30
0.000000
  70
    32
  0
VERTEX
  8
0
  5
3DB7
 10
57.4694
 20
98.9097
 30
0.000000
  70
    32
  0
VERTEX
  8
0
  5
3DB8
 10
57.4538
 20
98.9294
 30
0.000000
  70
    32
  0
SEQEND
  8
0
  5
3DB9
  0
POLYLINE
  5
368C
  8
0
 10
99.546153850480394
 20
98.929413096842566
 30
0.0
 66
     1
 70
     8
  0
VERTEX
  8
0
  5
3DBA
 10
99.5462
 20
98.9294
 30
0.000000
  70
    32
  0
VERTEX
  8
0
  5
3DBB
 10
99.5306
 20
98.9097
 30
0.000000
  70
    32
  0
VERTEX
  8
0
  5
3DBC
 10
99.5152
 20
98.8898
 30
0.000000
  70
    32
  0
VERTEX
  8
0
  5
3DBD
 10
99.4998
 20
98.8698
 30
0.000000
  70
    32
  0
VERTEX
  8
0
  5
3DBE
 10
99.4846
 20
98.8498
 30
0.000000
  70
    32
  0
VERTEX
  8
0
  5
3DBF
 10
99.4694
 20
98.8296
 30
0.000000
  70
    32
  0
VERTEX
  8
0
  5
3DC0
 10
99.4544
 20
98.8093
 30
0.000000
  70
    32
  0
VERTEX
  8
0
  5
3DC1
 10
99.4394
 20
98.7889
 30
0.000000
  70
    32
  0
VERTEX
  8
0
  5
3DC2
 10
99.4246
 20
98.7685
 30
0.000000
  70
    32
  0
VERTEX
  8
0
  5
3DC3
 10
99.4099
 20
98.7479
 30
0.000000
  70
    32
  0
VERTEX
  8
0
  5
3DC4
 10
99.3952
 20
98.7272
 30
0.000000
  70
    32
  0
VERTEX
  8
0
  5
3DC5
 10
99.3807
 20
98.7065
 30
0.000000
  70
    32
  0
VERTEX
  8
0
  5
3DC6
 10
99.3663
 20
98.6856
 30
0.000000
  70
    32
  0
VERTEX
  8
0
  5
3DC7
 10
99.3520
 20
98.6647
 30
0.000000
  70
    32
  0
VERTEX
  8
0
  5
3DC8
 10
99.3378
 20
98.6436
 30
0.000000
  70
    32
  0
VERTEX
  8
0
  5
3DC9
 10
99.3236
 20
98.6225
 30
0.000000
  70
    32
  0
VERTEX
  8
0
  5
3DCA
 10
99.3096
 20
98.6012
 30
0.000000
  70
    32
  0
VERTEX
  8
0
  5
3DCB
 10
99.2957
 20
98.5799
 30
0.000000
  70
    32
  0
VERTEX
  8
0
  5
3DCC
 10
99.2820
 20
98.5585
 30
0.000000
  70
    32
  0
VERTEX
  8
0
  5
3DCD
 10
99.2683
 20
98.5369
 30
0.000000
  70
    32
  0
VERTEX
  8
0
  5
3DCE
 10
99.2547
 20
98.5153
 30
0.000000
  70
    32
  0
VERTEX
  8
0
  5
3DCF
 10
99.2412
 20
98.4936
 30
0.000000
  70
    32
  0
VERTEX
  8
0
  5
3DD0
 10
99.2279
 20
98.4718
 30
0.000000
  70
    32
  0
VERTEX
  8
0
  5
3DD1
 10
99.2146
 20
98.4500
 30
0.000000
  70
    32
  0
VERTEX
  8
0
  5
3DD2
 10
99.2015
 20
98.4280
 30
0.000000
  70
    32
  0
VERTEX
  8
0
  5
3DD3
 10
99.1885
 20
98.4060
 30
0.000000
  70
    32
  0
VERTEX
  8
0
  5
3DD4
 10
99.1756
 20
98.3838
 30
0.000000
  70
    32
  0
VERTEX
  8
0
  5
3DD5
 10
99.1628
 20
98.3616
 30
0.000000
  70
    32
  0
VERTEX
  8
0
  5
3DD6
 10
99.1501
 20
98.3393
 30
0.000000
  70
    32
  0
VERTEX
  8
0
  5
3DD7
 10
99.1375
 20
98.3169
 30
0.000000
  70
    32
  0
VERTEX
  8
0
  5
3DD8
 10
99.1250
 20
98.2944
 30
0.000000
  70
    32
  0
VERTEX
  8
0
  5
3DD9
 10
99.1127
 20
98.2718
 30
0.000000
  70
    32
  0
VERTEX
  8
0
  5
3DDA
 10
99.1004
 20
98.2492
 30
0.000000
  70
    32
  0
VERTEX
  8
0
  5
3DDB
 10
99.0883
 20
98.2265
 30
0.000000
  70
    32
  0
VERTEX
  8
0
  5
3DDC
 10
99.0763
 20
98.2037
 30
0.000000
  70
    32
  0
VERTEX
  8
0
  5
3DDD
 10
99.0644
 20
98.1808
 30
0.000000
  70
    32
  0
VERTEX
  8
0
  5
3DDE
 10
99.0526
 20
98.1578
 30
0.000000
  70
    32
  0
VERTEX
  8
0
  5
3DDF
 10
99.0409
 20
98.1348
 30
0.000000
  70
    32
  0
VERTEX
  8
0
  5
3DE0
 10
99.0294
 20
98.1117
 30
0.000000
  70
    32
  0
VERTEX
  8
0
  5
3DE1
 10
99.0179
 20
98.0885
 30
0.000000
  70
    32
  0
VERTEX
  8
0
  5
3DE2
 10
99.0066
 20
98.0652
 30
0.000000
  70
    32
  0
VERTEX
  8
0
  5
3DE3
 10
98.9954
 20
98.0419
 30
0.000000
  70
    32
  0
VERTEX
  8
0
  5
3DE4
 10
98.9843
 20
98.0184
 30
0.000000
  70
    32
  0
VERTEX
  8
0
  5
3DE5
 10
98.9733
 20
97.9949
 30
0.000000
  70
    32
  0
VERTEX
  8
0
  5
3DE6
 10
98.9625
 20
97.9714
 30
0.000000
  70
    32
  0
VERTEX
  8
0
  5
3DE7
 10
98.9517
 20
97.9477
 30
0.000000
  70
    32
  0
VERTEX
  8
0
  5
3DE8
 10
98.9411
 20
97.9240
 30
0.000000
  70
    32
  0
VERTEX
  8
0
  5
3DE9
 10
98.9306
 20
97.9003
 30
0.000000
  70
    32
  0
VERTEX
  8
0
  5
3DEA
 10
98.9203
 20
97.8764
 30
0.000000
  70
    32
  0
VERTEX
  8
0
  5
3DEB
 10
98.9100
 20
97.8525
 30
0.000000
  70
    32
  0
VERTEX
  8
0
  5
3DEC
 10
98.8999
 20
97.8285
 30
0.000000
  70
    32
  0
VERTEX
  8
0
  5
3DED
 10
98.8898
 20
97.8044
 30
0.000000
  70
    32
  0
VERTEX
  8
0
  5
3DEE
 10
98.8799
 20
97.7803
 30
0.000000
  70
    32
  0
VERTEX
  8
0
  5
3DEF
 10
98.8702
 20
97.7561
 30
0.000000
  70
    32
  0
VERTEX
  8
0
  5
3DF0
 10
98.8605
 20
97.7319
 30
0.000000
  70
    32
  0
VERTEX
  8
0
  5
3DF1
 10
98.8510
 20
97.7076
 30
0.000000
  70
    32
  0
VERTEX
  8
0
  5
3DF2
 10
98.8416
 20
97.6832
 30
0.000000
  70
    32
  0
VERTEX
  8
0
  5
3DF3
 10
98.8323
 20
97.6587
 30
0.000000
  70
    32
  0
VERTEX
  8
0
  5
3DF4
 10
98.8231
 20
97.6342
 30
0.000000
  70
    32
  0
VERTEX
  8
0
  5
3DF5
 10
98.8141
 20
97.6097
 30
0.000000
  70
    32
  0
VERTEX
  8
0
  5
3DF6
 10
98.8051
 20
97.5851
 30
0.000000
  70
    32
  0
VERTEX
  8
0
  5
3DF7
 10
98.7963
 20
97.5604
 30
0.000000
  70
    32
  0
VERTEX
  8
0
  5
3DF8
 10
98.7877
 20
97.5356
 30
0.000000
  70
    32
  0
VERTEX
  8
0
  5
3DF9
 10
98.7791
 20
97.5108
 30
0.000000
  70
    32
  0
VERTEX
  8
0
  5
3DFA
 10
98.7707
 20
97.4860
 30
0.000000
  70
    32
  0
VERTEX
  8
0
  5
3DFB
 10
98.7624
 20
97.4611
 30
0.000000
  70
    32
  0
VERTEX
  8
0
  5
3DFC
 10
98.7542
 20
97.4361
 30
0.000000
  70
    32
  0
VERTEX
  8
0
  5
3DFD
 10
98.7462
 20
97.4111
 30
0.000000
  70
    32
  0
VERTEX
  8
0
  5
3DFE
 10
98.7382
 20
97.3860
 30
0.000000
  70
    32
  0
VERTEX
  8
0
  5
3DFF
 10
98.7304
 20
97.3609
 30
0.000000
  70
    32
  0
VERTEX
  8
0
  5
3E00
 10
98.7228
 20
97.3357
 30
0.000000
  70
    32
  0
VERTEX
  8
0
  5
3E01
 10
98.7152
 20
97.3105
 30
0.000000
  70
    32
  0
VERTEX
  8
0
  5
3E02
 10
98.7078
 20
97.2852
 30
0.000000
  70
    32
  0
VERTEX
  8
0
  5
3E03
 10
98.7005
 20
97.2599
 30
0.000000
  70
    32
  0
VERTEX
  8
0
  5
3E04
 10
98.6933
 20
97.2345
 30
0.000000
  70
    32
  0
VERTEX
  8
0
  5
3E05
 10
98.6863
 20
97.2091
 30
0.000000
  70
    32
  0
VERTEX
  8
0
  5
3E06
 10
98.6794
 20
97.1836
 30
0.000000
  70
    32
  0
VERTEX
  8
0
  5
3E07
 10
98.6726
 20
97.1581
 30
0.000000
  70
    32
  0
VERTEX
  8
0
  5
3E08
 10
98.6660
 20
97.1325
 30
0.000000
  70
    32
  0
VERTEX
  8
0
  5
3E09
 10
98.6594
 20
97.1069
 30
0.000000
  70
    32
  0
VERTEX
  8
0
  5
3E0A
 10
98.6530
 20
97.0813
 30
0.000000
  70
    32
  0
VERTEX
  8
0
  5
3E0B
 10
98.6468
 20
97.0556
 30
0.000000
  70
    32
  0
VERTEX
  8
0
  5
3E0C
 10
98.6406
 20
97.0299
 30
0.000000
  70
    32
  0
VERTEX
  8
0
  5
3E0D
 10
98.6346
 20
97.0041
 30
0.000000
  70
    32
  0
VERTEX
  8
0
  5
3E0E
 10
98.6287
 20
96.9783
 30
0.000000
  70
    32
  0
VERTEX
  8
0
  5
3E0F
 10
98.6230
 20
96.9524
 30
0.000000
  70
    32
  0
VERTEX
  8
0
  5
3E10
 10
98.6173
 20
96.9266
 30
0.000000
  70
    32
  0
VERTEX
  8
0
  5
3E11
 10
98.6118
 20
96.9006
 30
0.000000
  70
    32
  0
VERTEX
  8
0
  5
3E12
 10
98.6065
 20
96.8747
 30
0.000000
  70
    32
  0
VERTEX
  8
0
  5
3E13
 10
98.6012
 20
96.8487
 30
0.000000
  70
    32
  0
VERTEX
  8
0
  5
3E14
 10
98.5961
 20
96.8226
 30
0.000000
  70
    32
  0
VERTEX
  8
0
  5
3E15
 10
98.5912
 20
96.7966
 30
0.000000
  70
    32
  0
VERTEX
  8
0
  5
3E16
 10
98.5863
 20
96.7705
 30
0.000000
  70
    32
  0
VERTEX
  8
0
  5
3E17
 10
98.5816
 20
96.7444
 30
0.000000
  70
    32
  0
VERTEX
  8
0
  5
3E18
 10
98.5770
 20
96.7182
 30
0.000000
  70
    32
  0
VERTEX
  8
0
  5
3E19
 10
98.5726
 20
96.6920
 30
0.000000
  70
    32
  0
VERTEX
  8
0
  5
3E1A
 10
98.5683
 20
96.6658
 30
0.000000
  70
    32
  0
VERTEX
  8
0
  5
3E1B
 10
98.5641
 20
96.6395
 30
0.000000
  70
    32
  0
VERTEX
  8
0
  5
3E1C
 10
98.5600
 20
96.6133
 30
0.000000
  70
    32
  0
VERTEX
  8
0
  5
3E1D
 10
98.5561
 20
96.5870
 30
0.000000
  70
    32
  0
VERTEX
  8
0
  5
3E1E
 10
98.5523
 20
96.5606
 30
0.000000
  70
    32
  0
VERTEX
  8
0
  5
3E1F
 10
98.5486
 20
96.5343
 30
0.000000
  70
    32
  0
VERTEX
  8
0
  5
3E20
 10
98.5451
 20
96.5079
 30
0.000000
  70
    32
  0
VERTEX
  8
0
  5
3E21
 10
98.5417
 20
96.4815
 30
0.000000
  70
    32
  0
VERTEX
  8
0
  5
3E22
 10
98.5384
 20
96.4551
 30
0.000000
  70
    32
  0
VERTEX
  8
0
  5
3E23
 10
98.5353
 20
96.4286
 30
0.000000
  70
    32
  0
VERTEX
  8
0
  5
3E24
 10
98.5323
 20
96.4022
 30
0.000000
  70
    32
  0
VERTEX
  8
0
  5
3E25
 10
98.5294
 20
96.3757
 30
0.000000
  70
    32
  0
VERTEX
  8
0
  5
3E26
 10
98.5267
 20
96.3492
 30
0.000000
  70
    32
  0
VERTEX
  8
0
  5
3E27
 10
98.5241
 20
96.3227
 30
0.000000
  70
    32
  0
VERTEX
  8
0
  5
3E28
 10
98.5216
 20
96.2961
 30
0.000000
  70
    32
  0
VERTEX
  8
0
  5
3E29
 10
98.5193
 20
96.2696
 30
0.000000
  70
    32
  0
VERTEX
  8
0
  5
3E2A
 10
98.5171
 20
96.2430
 30
0.000000
  70
    32
  0
VERTEX
  8
0
  5
3E2B
 10
98.5150
 20
96.2164
 30
0.000000
  70
    32
  0
VERTEX
  8
0
  5
3E2C
 10
98.5131
 20
96.1898
 30
0.000000
  70
    32
  0
VERTEX
  8
0
  5
3E2D
 10
98.5113
 20
96.1632
 30
0.000000
  70
    32
  0
VERTEX
  8
0
  5
3E2E
 10
98.5096
 20
96.1366
 30
0.000000
  70
    32
  0
VERTEX
  8
0
  5
3E2F
 10
98.5081
 20
96.1100
 30
0.000000
  70
    32
  0
VERTEX
  8
0
  5
3E30
 10
98.5067
 20
96.0833
 30
0.000000
  70
    32
  0
VERTEX
  8
0
  5
3E31
 10
98.5054
 20
96.0567
 30
0.000000
  70
    32
  0
VERTEX
  8
0
  5
3E32
 10
98.5043
 20
96.0300
 30
0.000000
  70
    32
  0
VERTEX
  8
0
  5
3E33
 10
98.5033
 20
96.0034
 30
0.000000
  70
    32
  0
VERTEX
  8
0
  5
3E34
 10
98.5024
 20
95.9767
 30
0.000000
  70
    32
  0
VERTEX
  8
0
  5
3E35
 10
98.5017
 20
95.9500
 30
0.000000
  70
    32
  0
VERTEX
  8
0
  5
3E36
 10
98.5011
 20
95.9233
 30
0.000000
  70
    32
  0
VERTEX
  8
0
  5
3E37
 10
98.5006
 20
95.8967
 30
0.000000
  70
    32
  0
VERTEX
  8
0
  5
3E38
 10
98.5003
 20
95.8700
 30
0.000000
  70
    32
  0
VERTEX
  8
0
  5
3E39
 10
98.5001
 20
95.8433
 30
0.000000
  70
    32
  0
VERTEX
  8
0
  5
3E3A
 10
98.5000
 20
95.8166
 30
0.000000
  70
    32
  0
SEQEND
  8
0
  5
3E3B
  0
LINE
  5
368D
  8
0
 10
98.500000000000014
 20
95.372853930000019
 30
0.0
 11
98.500000000000014
 21
95.816600135028324
 31
0.0
  0
LINE
  5
368E
  8
0
 10
98.500000000000014
 20
95.372853930000019
 30
0.0
 11
98.500000000000014
 21
89.000000010000036
 31
0.0
  0
LINE
  5
368F
  8
0
 10
96.5
 20
89.000000010000036
 30
0.0
 11
98.500000000000014
 21
89.000000010000036
 31
0.0
  0
POLYLINE
  5
3691
  8
0
 10
97.341840972620744
 20
99.213951170000001
 30
0.0
 66
     1
 70
     8
  0
VERTEX
  8
0
  5
3E3C
 10
97.3418
 20
99.2140
 30
0.000000
  70
    32
  0
VERTEX
  8
0
  5
3E3D
 10
97.3290
 20
99.1864
 30
0.000000
  70
    32
  0
VERTEX
  8
0
  5
3E3E
 10
97.3163
 20
99.1588
 30
0.000000
  70
    32
  0
VERTEX
  8
0
  5
3E3F
 10
97.3036
 20
99.1312
 30
0.000000
  70
    32
  0
VERTEX
  8
0
  5
3E40
 10
97.2910
 20
99.1034
 30
0.000000
  70
    32
  0
VERTEX
  8
0
  5
3E41
 10
97.2786
 20
99.0757
 30
0.000000
  70
    32
  0
VERTEX
  8
0
  5
3E42
 10
97.2662
 20
99.0479
 30
0.000000
  70
    32
  0
VERTEX
  8
0
  5
3E43
 10
97.2539
 20
99.0200
 30
0.000000
  70
    32
  0
VERTEX
  8
0
  5
3E44
 10
97.2417
 20
98.9921
 30
0.000000
  70
    32
  0
VERTEX
  8
0
  5
3E45
 10
97.2296
 20
98.9641
 30
0.000000
  70
    32
  0
VERTEX
  8
0
  5
3E46
 10
97.2177
 20
98.9360
 30
0.000000
  70
    32
  0
VERTEX
  8
0
  5
3E47
 10
97.2057
 20
98.9079
 30
0.000000
  70
    32
  0
VERTEX
  8
0
  5
3E48
 10
97.1939
 20
98.8798
 30
0.000000
  70
    32
  0
VERTEX
  8
0
  5
3E49
 10
97.1822
 20
98.8516
 30
0.000000
  70
    32
  0
VERTEX
  8
0
  5
3E4A
 10
97.1706
 20
98.8233
 30
0.000000
  70
    32
  0
VERTEX
  8
0
  5
3E4B
 10
97.1591
 20
98.7950
 30
0.000000
  70
    32
  0
VERTEX
  8
0
  5
3E4C
 10
97.1476
 20
98.7667
 30
0.000000
  70
    32
  0
VERTEX
  8
0
  5
3E4D
 10
97.1363
 20
98.7383
 30
0.000000
  70
    32
  0
VERTEX
  8
0
  5
3E4E
 10
97.1251
 20
98.7098
 30
0.000000
  70
    32
  0
VERTEX
  8
0
  5
3E4F
 10
97.1139
 20
98.6813
 30
0.000000
  70
    32
  0
VERTEX
  8
0
  5
3E50
 10
97.1029
 20
98.6528
 30
0.000000
  70
    32
  0
VERTEX
  8
0
  5
3E51
 10
97.0919
 20
98.6242
 30
0.000000
  70
    32
  0
VERTEX
  8
0
  5
3E52
 10
97.0811
 20
98.5955
 30
0.000000
  70
    32
  0
VERTEX
  8
0
  5
3E53
 10
97.0703
 20
98.5668
 30
0.000000
  70
    32
  0
VERTEX
  8
0
  5
3E54
 10
97.0596
 20
98.5381
 30
0.000000
  70
    32
  0
VERTEX
  8
0
  5
3E55
 10
97.0491
 20
98.5093
 30
0.000000
  70
    32
  0
VERTEX
  8
0
  5
3E56
 10
97.0386
 20
98.4804
 30
0.000000
  70
    32
  0
VERTEX
  8
0
  5
3E57
 10
97.0282
 20
98.4515
 30
0.000000
  70
    32
  0
VERTEX
  8
0
  5
3E58
 10
97.0179
 20
98.4226
 30
0.000000
  70
    32
  0
VERTEX
  8
0
  5
3E59
 10
97.0078
 20
98.3936
 30
0.000000
  70
    32
  0
VERTEX
  8
0
  5
3E5A
 10
96.9977
 20
98.3646
 30
0.000000
  70
    32
  0
VERTEX
  8
0
  5
3E5B
 10
96.9877
 20
98.3355
 30
0.000000
  70
    32
  0
VERTEX
  8
0
  5
3E5C
 10
96.9778
 20
98.3064
 30
0.000000
  70
    32
  0
VERTEX
  8
0
  5
3E5D
 10
96.9680
 20
98.2772
 30
0.000000
  70
    32
  0
VERTEX
  8
0
  5
3E5E
 10
96.9583
 20
98.2480
 30
0.000000
  70
    32
  0
VERTEX
  8
0
  5
3E5F
 10
96.9487
 20
98.2188
 30
0.000000
  70
    32
  0
VERTEX
  8
0
  5
3E60
 10
96.9392
 20
98.1895
 30
0.000000
  70
    32
  0
VERTEX
  8
0
  5
3E61
 10
96.9298
 20
98.1602
 30
0.000000
  70
    32
  0
VERTEX
  8
0
  5
3E62
 10
96.9205
 20
98.1308
 30
0.000000
  70
    32
  0
VERTEX
  8
0
  5
3E63
 10
96.9113
 20
98.1014
 30
0.000000
  70
    32
  0
VERTEX
  8
0
  5
3E64
 10
96.9022
 20
98.0719
 30
0.000000
  70
    32
  0
VERTEX
  8
0
  5
3E65
 10
96.8932
 20
98.0424
 30
0.000000
  70
    32
  0
VERTEX
  8
0
  5
3E66
 10
96.8843
 20
98.0129
 30
0.000000
  70
    32
  0
VERTEX
  8
0
  5
3E67
 10
96.8755
 20
97.9833
 30
0.000000
  70
    32
  0
VERTEX
  8
0
  5
3E68
 10
96.8668
 20
97.9537
 30
0.000000
  70
    32
  0
VERTEX
  8
0
  5
3E69
 10
96.8582
 20
97.9240
 30
0.000000
  70
    32
  0
VERTEX
  8
0
  5
3E6A
 10
96.8497
 20
97.8944
 30
0.000000
  70
    32
  0
VERTEX
  8
0
  5
3E6B
 10
96.8413
 20
97.8646
 30
0.000000
  70
    32
  0
VERTEX
  8
0
  5
3E6C
 10
96.8330
 20
97.8349
 30
0.000000
  70
    32
  0
VERTEX
  8
0
  5
3E6D
 10
96.8248
 20
97.8051
 30
0.000000
  70
    32
  0
VERTEX
  8
0
  5
3E6E
 10
96.8167
 20
97.7752
 30
0.000000
  70
    32
  0
VERTEX
  8
0
  5
3E6F
 10
96.8087
 20
97.7453
 30
0.000000
  70
    32
  0
VERTEX
  8
0
  5
3E70
 10
96.8008
 20
97.7154
 30
0.000000
  70
    32
  0
VERTEX
  8
0
  5
3E71
 10
96.7929
 20
97.6855
 30
0.000000
  70
    32
  0
VERTEX
  8
0
  5
3E72
 10
96.7852
 20
97.6555
 30
0.000000
  70
    32
  0
VERTEX
  8
0
  5
3E73
 10
96.7776
 20
97.6255
 30
0.000000
  70
    32
  0
VERTEX
  8
0
  5
3E74
 10
96.7701
 20
97.5954
 30
0.000000
  70
    32
  0
VERTEX
  8
0
  5
3E75
 10
96.7627
 20
97.5654
 30
0.000000
  70
    32
  0
VERTEX
  8
0
  5
3E76
 10
96.7554
 20
97.5352
 30
0.000000
  70
    32
  0
VERTEX
  8
0
  5
3E77
 10
96.7482
 20
97.5051
 30
0.000000
  70
    32
  0
VERTEX
  8
0
  5
3E78
 10
96.7411
 20
97.4749
 30
0.000000
  70
    32
  0
VERTEX
  8
0
  5
3E79
 10
96.7341
 20
97.4447
 30
0.000000
  70
    32
  0
VERTEX
  8
0
  5
3E7A
 10
96.7272
 20
97.4145
 30
0.000000
  70
    32
  0
VERTEX
  8
0
  5
3E7B
 10
96.7204
 20
97.3842
 30
0.000000
  70
    32
  0
VERTEX
  8
0
  5
3E7C
 10
96.7137
 20
97.3539
 30
0.000000
  70
    32
  0
VERTEX
  8
0
  5
3E7D
 10
96.7071
 20
97.3236
 30
0.000000
  70
    32
  0
VERTEX
  8
0
  5
3E7E
 10
96.7006
 20
97.2932
 30
0.000000
  70
    32
  0
VERTEX
  8
0
  5
3E7F
 10
96.6942
 20
97.2628
 30
0.000000
  70
    32
  0
VERTEX
  8
0
  5
3E80
 10
96.6880
 20
97.2324
 30
0.000000
  70
    32
  0
VERTEX
  8
0
  5
3E81
 10
96.6818
 20
97.2019
 30
0.000000
  70
    32
  0
VERTEX
  8
0
  5
3E82
 10
96.6757
 20
97.1715
 30
0.000000
  70
    32
  0
VERTEX
  8
0
  5
3E83
 10
96.6697
 20
97.1410
 30
0.000000
  70
    32
  0
VERTEX
  8
0
  5
3E84
 10
96.6638
 20
97.1104
 30
0.000000
  70
    32
  0
VERTEX
  8
0
  5
3E85
 10
96.6581
 20
97.0799
 30
0.000000
  70
    32
  0
VERTEX
  8
0
  5
3E86
 10
96.6524
 20
97.0493
 30
0.000000
  70
    32
  0
VERTEX
  8
0
  5
3E87
 10
96.6468
 20
97.0187
 30
0.000000
  70
    32
  0
VERTEX
  8
0
  5
3E88
 10
96.6413
 20
96.9881
 30
0.000000
  70
    32
  0
VERTEX
  8
0
  5
3E89
 10
96.6360
 20
96.9574
 30
0.000000
  70
    32
  0
VERTEX
  8
0
  5
3E8A
 10
96.6307
 20
96.9267
 30
0.000000
  70
    32
  0
VERTEX
  8
0
  5
3E8B
 10
96.6255
 20
96.8960
 30
0.000000
  70
    32
  0
VERTEX
  8
0
  5
3E8C
 10
96.6205
 20
96.8653
 30
0.000000
  70
    32
  0
VERTEX
  8
0
  5
3E8D
 10
96.6155
 20
96.8346
 30
0.000000
  70
    32
  0
VERTEX
  8
0
  5
3E8E
 10
96.6107
 20
96.8038
 30
0.000000
  70
    32
  0
VERTEX
  8
0
  5
3E8F
 10
96.6059
 20
96.7730
 30
0.000000
  70
    32
  0
VERTEX
  8
0
  5
3E90
 10
96.6013
 20
96.7422
 30
0.000000
  70
    32
  0
VERTEX
  8
0
  5
3E91
 10
96.5967
 20
96.7114
 30
0.000000
  70
    32
  0
VERTEX
  8
0
  5
3E92
 10
96.5923
 20
96.6805
 30
0.000000
  70
    32
  0
VERTEX
  8
0
  5
3E93
 10
96.5880
 20
96.6497
 30
0.000000
  70
    32
  0
VERTEX
  8
0
  5
3E94
 10
96.5837
 20
96.6188
 30
0.000000
  70
    32
  0
VERTEX
  8
0
  5
3E95
 10
96.5796
 20
96.5879
 30
0.000000
  70
    32
  0
VERTEX
  8
0
  5
3E96
 10
96.5756
 20
96.5569
 30
0.000000
  70
    32
  0
VERTEX
  8
0
  5
3E97
 10
96.5717
 20
96.5260
 30
0.000000
  70
    32
  0
VERTEX
  8
0
  5
3E98
 10
96.5679
 20
96.4950
 30
0.000000
  70
    32
  0
VERTEX
  8
0
  5
3E99
 10
96.5641
 20
96.4640
 30
0.000000
  70
    32
  0
VERTEX
  8
0
  5
3E9A
 10
96.5605
 20
96.4331
 30
0.000000
  70
    32
  0
VERTEX
  8
0
  5
3E9B
 10
96.5570
 20
96.4020
 30
0.000000
  70
    32
  0
VERTEX
  8
0
  5
3E9C
 10
96.5536
 20
96.3710
 30
0.000000
  70
    32
  0
VERTEX
  8
0
  5
3E9D
 10
96.5503
 20
96.3400
 30
0.000000
  70
    32
  0
VERTEX
  8
0
  5
3E9E
 10
96.5471
 20
96.3089
 30
0.000000
  70
    32
  0
VERTEX
  8
0
  5
3E9F
 10
96.5441
 20
96.2779
 30
0.000000
  70
    32
  0
VERTEX
  8
0
  5
3EA0
 10
96.5411
 20
96.2468
 30
0.000000
  70
    32
  0
VERTEX
  8
0
  5
3EA1
 10
96.5382
 20
96.2157
 30
0.000000
  70
    32
  0
VERTEX
  8
0
  5
3EA2
 10
96.5354
 20
96.1846
 30
0.000000
  70
    32
  0
VERTEX
  8
0
  5
3EA3
 10
96.5328
 20
96.1534
 30
0.000000
  70
    32
  0
VERTEX
  8
0
  5
3EA4
 10
96.5302
 20
96.1223
 30
0.000000
  70
    32
  0
VERTEX
  8
0
  5
3EA5
 10
96.5277
 20
96.0912
 30
0.000000
  70
    32
  0
VERTEX
  8
0
  5
3EA6
 10
96.5254
 20
96.0600
 30
0.000000
  70
    32
  0
VERTEX
  8
0
  5
3EA7
 10
96.5231
 20
96.0289
 30
0.000000
  70
    32
  0
VERTEX
  8
0
  5
3EA8
 10
96.5210
 20
95.9977
 30
0.000000
  70
    32
  0
VERTEX
  8
0
  5
3EA9
 10
96.5189
 20
95.9665
 30
0.000000
  70
    32
  0
VERTEX
  8
0
  5
3EAA
 10
96.5170
 20
95.9353
 30
0.000000
  70
    32
  0
VERTEX
  8
0
  5
3EAB
 10
96.5152
 20
95.9041
 30
0.000000
  70
    32
  0
VERTEX
  8
0
  5
3EAC
 10
96.5134
 20
95.8729
 30
0.000000
  70
    32
  0
VERTEX
  8
0
  5
3EAD
 10
96.5118
 20
95.8417
 30
0.000000
  70
    32
  0
VERTEX
  8
0
  5
3EAE
 10
96.5103
 20
95.8105
 30
0.000000
  70
    32
  0
VERTEX
  8
0
  5
3EAF
 10
96.5089
 20
95.7792
 30
0.000000
  70
    32
  0
VERTEX
  8
0
  5
3EB0
 10
96.5076
 20
95.7480
 30
0.000000
  70
    32
  0
VERTEX
  8
0
  5
3EB1
 10
96.5063
 20
95.7167
 30
0.000000
  70
    32
  0
VERTEX
  8
0
  5
3EB2
 10
96.5052
 20
95.6855
 30
0.000000
  70
    32
  0
VERTEX
  8
0
  5
3EB3
 10
96.5042
 20
95.6543
 30
0.000000
  70
    32
  0
VERTEX
  8
0
  5
3EB4
 10
96.5034
 20
95.6230
 30
0.000000
  70
    32
  0
VERTEX
  8
0
  5
3EB5
 10
96.5026
 20
95.5917
 30
0.000000
  70
    32
  0
VERTEX
  8
0
  5
3EB6
 10
96.5019
 20
95.5605
 30
0.000000
  70
    32
  0
VERTEX
  8
0
  5
3EB7
 10
96.5013
 20
95.5292
 30
0.000000
  70
    32
  0
VERTEX
  8
0
  5
3EB8
 10
96.5008
 20
95.4979
 30
0.000000
  70
    32
  0
VERTEX
  8
0
  5
3EB9
 10
96.5005
 20
95.4667
 30
0.000000
  70
    32
  0
VERTEX
  8
0
  5
3EBA
 10
96.5002
 20
95.4354
 30
0.000000
  70
    32
  0
VERTEX
  8
0
  5
3EBB
 10
96.5001
 20
95.4041
 30
0.000000
  70
    32
  0
VERTEX
  8
0
  5
3EBC
 10
96.5000
 20
95.3729
 30
0.000000
  70
    32
  0
SEQEND
  8
0
  5
3EBD
  0
POLYLINE
  5
3692
  8
0
 10
98.276119401158255
 20
100.75039004748587
 30
0.0
 66
     1
 70
     8
  0
VERTEX
  8
0
  5
3EBE
 10
98.2761
 20
100.750
 30
0.000000
  70
    32
  0
VERTEX
  8
0
  5
3EBF
 10
98.2677
 20
100.739
 30
0.000000
  70
    32
  0
VERTEX
  8
0
  5
3EC0
 10
98.2592
 20
100.728
 30
0.000000
  70
    32
  0
VERTEX
  8
0
  5
3EC1
 10
98.2508
 20
100.717
 30
0.000000
  70
    32
  0
VERTEX
  8
0
  5
3EC2
 10
98.2423
 20
100.706
 30
0.000000
  70
    32
  0
VERTEX
  8
0
  5
3EC3
 10
98.2340
 20
100.695
 30
0.000000
  70
    32
  0
VERTEX
  8
0
  5
3EC4
 10
98.2256
 20
100.684
 30
0.000000
  70
    32
  0
VERTEX
  8
0
  5
3EC5
 10
98.2172
 20
100.673
 30
0.000000
  70
    32
  0
VERTEX
  8
0
  5
3EC6
 10
98.2089
 20
100.662
 30
0.000000
  70
    32
  0
VERTEX
  8
0
  5
3EC7
 10
98.2005
 20
100.651
 30
0.000000
  70
    32
  0
VERTEX
  8
0
  5
3EC8
 10
98.1922
 20
100.640
 30
0.000000
  70
    32
  0
VERTEX
  8
0
  5
3EC9
 10
98.1839
 20
100.629
 30
0.000000
  70
    32
  0
VERTEX
  8
0
  5
3ECA
 10
98.1756
 20
100.617
 30
0.000000
  70
    32
  0
VERTEX
  8
0
  5
3ECB
 10
98.1674
 20
100.606
 30
0.000000
  70
    32
  0
VERTEX
  8
0
  5
3ECC
 10
98.1591
 20
100.595
 30
0.000000
  70
    32
  0
VERTEX
  8
0
  5
3ECD
 10
98.1509
 20
100.584
 30
0.000000
  70
    32
  0
VERTEX
  8
0
  5
3ECE
 10
98.1427
 20
100.573
 30
0.000000
  70
    32
  0
VERTEX
  8
0
  5
3ECF
 10
98.1345
 20
100.561
 30
0.000000
  70
    32
  0
VERTEX
  8
0
  5
3ED0
 10
98.1264
 20
100.550
 30
0.000000
  70
    32
  0
VERTEX
  8
0
  5
3ED1
 10
98.1182
 20
100.539
 30
0.000000
  70
    32
  0
VERTEX
  8
0
  5
3ED2
 10
98.1101
 20
100.528
 30
0.000000
  70
    32
  0
VERTEX
  8
0
  5
3ED3
 10
98.1020
 20
100.516
 30
0.000000
  70
    32
  0
VERTEX
  8
0
  5
3ED4
 10
98.0939
 20
100.505
 30
0.000000
  70
    32
  0
VERTEX
  8
0
  5
3ED5
 10
98.0858
 20
100.493
 30
0.000000
  70
    32
  0
VERTEX
  8
0
  5
3ED6
 10
98.0777
 20
100.482
 30
0.000000
  70
    32
  0
VERTEX
  8
0
  5
3ED7
 10
98.0697
 20
100.471
 30
0.000000
  70
    32
  0
VERTEX
  8
0
  5
3ED8
 10
98.0616
 20
100.459
 30
0.000000
  70
    32
  0
VERTEX
  8
0
  5
3ED9
 10
98.0536
 20
100.448
 30
0.000000
  70
    32
  0
VERTEX
  8
0
  5
3EDA
 10
98.0456
 20
100.436
 30
0.000000
  70
    32
  0
VERTEX
  8
0
  5
3EDB
 10
98.0377
 20
100.425
 30
0.000000
  70
    32
  0
VERTEX
  8
0
  5
3EDC
 10
98.0297
 20
100.413
 30
0.000000
  70
    32
  0
VERTEX
  8
0
  5
3EDD
 10
98.0218
 20
100.402
 30
0.000000
  70
    32
  0
VERTEX
  8
0
  5
3EDE
 10
98.0139
 20
100.390
 30
0.000000
  70
    32
  0
VERTEX
  8
0
  5
3EDF
 10
98.0060
 20
100.379
 30
0.000000
  70
    32
  0
VERTEX
  8
0
  5
3EE0
 10
97.9981
 20
100.367
 30
0.000000
  70
    32
  0
VERTEX
  8
0
  5
3EE1
 10
97.9902
 20
100.356
 30
0.000000
  70
    32
  0
VERTEX
  8
0
  5
3EE2
 10
97.9824
 20
100.344
 30
0.000000
  70
    32
  0
VERTEX
  8
0
  5
3EE3
 10
97.9745
 20
100.333
 30
0.000000
  70
    32
  0
VERTEX
  8
0
  5
3EE4
 10
97.9667
 20
100.321
 30
0.000000
  70
    32
  0
VERTEX
  8
0
  5
3EE5
 10
97.9589
 20
100.309
 30
0.000000
  70
    32
  0
VERTEX
  8
0
  5
3EE6
 10
97.9512
 20
100.298
 30
0.000000
  70
    32
  0
VERTEX
  8
0
  5
3EE7
 10
97.9434
 20
100.286
 30
0.000000
  70
    32
  0
VERTEX
  8
0
  5
3EE8
 10
97.9357
 20
100.274
 30
0.000000
  70
    32
  0
VERTEX
  8
0
  5
3EE9
 10
97.9280
 20
100.263
 30
0.000000
  70
    32
  0
VERTEX
  8
0
  5
3EEA
 10
97.9203
 20
100.251
 30
0.000000
  70
    32
  0
VERTEX
  8
0
  5
3EEB
 10
97.9126
 20
100.239
 30
0.000000
  70
    32
  0
VERTEX
  8
0
  5
3EEC
 10
97.9049
 20
100.228
 30
0.000000
  70
    32
  0
VERTEX
  8
0
  5
3EED
 10
97.8973
 20
100.216
 30
0.000000
  70
    32
  0
VERTEX
  8
0
  5
3EEE
 10
97.8896
 20
100.204
 30
0.000000
  70
    32
  0
VERTEX
  8
0
  5
3EEF
 10
97.8820
 20
100.192
 30
0.000000
  70
    32
  0
VERTEX
  8
0
  5
3EF0
 10
97.8744
 20
100.180
 30
0.000000
  70
    32
  0
VERTEX
  8
0
  5
3EF1
 10
97.8669
 20
100.169
 30
0.000000
  70
    32
  0
VERTEX
  8
0
  5
3EF2
 10
97.8593
 20
100.157
 30
0.000000
  70
    32
  0
VERTEX
  8
0
  5
3EF3
 10
97.8518
 20
100.145
 30
0.000000
  70
    32
  0
VERTEX
  8
0
  5
3EF4
 10
97.8443
 20
100.133
 30
0.000000
  70
    32
  0
VERTEX
  8
0
  5
3EF5
 10
97.8368
 20
100.121
 30
0.000000
  70
    32
  0
VERTEX
  8
0
  5
3EF6
 10
97.8293
 20
100.109
 30
0.000000
  70
    32
  0
VERTEX
  8
0
  5
3EF7
 10
97.8219
 20
100.097
 30
0.000000
  70
    32
  0
VERTEX
  8
0
  5
3EF8
 10
97.8144
 20
100.085
 30
0.000000
  70
    32
  0
VERTEX
  8
0
  5
3EF9
 10
97.8070
 20
100.074
 30
0.000000
  70
    32
  0
VERTEX
  8
0
  5
3EFA
 10
97.7996
 20
100.062
 30
0.000000
  70
    32
  0
VERTEX
  8
0
  5
3EFB
 10
97.7922
 20
100.050
 30
0.000000
  70
    32
  0
VERTEX
  8
0
  5
3EFC
 10
97.7849
 20
100.038
 30
0.000000
  70
    32
  0
VERTEX
  8
0
  5
3EFD
 10
97.7775
 20
100.026
 30
0.000000
  70
    32
  0
VERTEX
  8
0
  5
3EFE
 10
97.7702
 20
100.014
 30
0.000000
  70
    32
  0
VERTEX
  8
0
  5
3EFF
 10
97.7629
 20
100.002
 30
0.000000
  70
    32
  0
VERTEX
  8
0
  5
3F00
 10
97.7556
 20
99.9895
 30
0.000000
  70
    32
  0
VERTEX
  8
0
  5
3F01
 10
97.7483
 20
99.9774
 30
0.000000
  70
    32
  0
VERTEX
  8
0
  5
3F02
 10
97.7411
 20
99.9653
 30
0.000000
  70
    32
  0
VERTEX
  8
0
  5
3F03
 10
97.7338
 20
99.9532
 30
0.000000
  70
    32
  0
VERTEX
  8
0
  5
3F04
 10
97.7266
 20
99.9411
 30
0.000000
  70
    32
  0
VERTEX
  8
0
  5
3F05
 10
97.7194
 20
99.9290
 30
0.000000
  70
    32
  0
VERTEX
  8
0
  5
3F06
 10
97.7123
 20
99.9169
 30
0.000000
  70
    32
  0
VERTEX
  8
0
  5
3F07
 10
97.7051
 20
99.9047
 30
0.000000
  70
    32
  0
VERTEX
  8
0
  5
3F08
 10
97.6980
 20
99.8925
 30
0.000000
  70
    32
  0
VERTEX
  8
0
  5
3F09
 10
97.6909
 20
99.8803
 30
0.000000
  70
    32
  0
VERTEX
  8
0
  5
3F0A
 10
97.6838
 20
99.8681
 30
0.000000
  70
    32
  0
VERTEX
  8
0
  5
3F0B
 10
97.6767
 20
99.8559
 30
0.000000
  70
    32
  0
VERTEX
  8
0
  5
3F0C
 10
97.6696
 20
99.8437
 30
0.000000
  70
    32
  0
VERTEX
  8
0
  5
3F0D
 10
97.6626
 20
99.8314
 30
0.000000
  70
    32
  0
VERTEX
  8
0
  5
3F0E
 10
97.6556
 20
99.8192
 30
0.000000
  70
    32
  0
VERTEX
  8
0
  5
3F0F
 10
97.6486
 20
99.8069
 30
0.000000
  70
    32
  0
VERTEX
  8
0
  5
3F10
 10
97.6416
 20
99.7946
 30
0.000000
  70
    32
  0
VERTEX
  8
0
  5
3F11
 10
97.6346
 20
99.7823
 30
0.000000
  70
    32
  0
VERTEX
  8
0
  5
3F12
 10
97.6277
 20
99.7700
 30
0.000000
  70
    32
  0
VERTEX
  8
0
  5
3F13
 10
97.6208
 20
99.7576
 30
0.000000
  70
    32
  0
VERTEX
  8
0
  5
3F14
 10
97.6139
 20
99.7453
 30
0.000000
  70
    32
  0
VERTEX
  8
0
  5
3F15
 10
97.6070
 20
99.7329
 30
0.000000
  70
    32
  0
VERTEX
  8
0
  5
3F16
 10
97.6001
 20
99.7205
 30
0.000000
  70
    32
  0
VERTEX
  8
0
  5
3F17
 10
97.5933
 20
99.7081
 30
0.000000
  70
    32
  0
VERTEX
  8
0
  5
3F18
 10
97.5865
 20
99.6957
 30
0.000000
  70
    32
  0
VERTEX
  8
0
  5
3F19
 10
97.5797
 20
99.6833
 30
0.000000
  70
    32
  0
VERTEX
  8
0
  5
3F1A
 10
97.5729
 20
99.6709
 30
0.000000
  70
    32
  0
VERTEX
  8
0
  5
3F1B
 10
97.5661
 20
99.6584
 30
0.000000
  70
    32
  0
VERTEX
  8
0
  5
3F1C
 10
97.5594
 20
99.6459
 30
0.000000
  70
    32
  0
VERTEX
  8
0
  5
3F1D
 10
97.5526
 20
99.6335
 30
0.000000
  70
    32
  0
VERTEX
  8
0
  5
3F1E
 10
97.5459
 20
99.6210
 30
0.000000
  70
    32
  0
VERTEX
  8
0
  5
3F1F
 10
97.5392
 20
99.6085
 30
0.000000
  70
    32
  0
VERTEX
  8
0
  5
3F20
 10
97.5326
 20
99.5959
 30
0.000000
  70
    32
  0
VERTEX
  8
0
  5
3F21
 10
97.5259
 20
99.5834
 30
0.000000
  70
    32
  0
VERTEX
  8
0
  5
3F22
 10
97.5193
 20
99.5709
 30
0.000000
  70
    32
  0
VERTEX
  8
0
  5
3F23
 10
97.5127
 20
99.5583
 30
0.000000
  70
    32
  0
VERTEX
  8
0
  5
3F24
 10
97.5061
 20
99.5457
 30
0.000000
  70
    32
  0
VERTEX
  8
0
  5
3F25
 10
97.4995
 20
99.5331
 30
0.000000
  70
    32
  0
VERTEX
  8
0
  5
3F26
 10
97.4930
 20
99.5205
 30
0.000000
  70
    32
  0
VERTEX
  8
0
  5
3F27
 10
97.4865
 20
99.5079
 30
0.000000
  70
    32
  0
VERTEX
  8
0
  5
3F28
 10
97.4799
 20
99.4953
 30
0.000000
  70
    32
  0
VERTEX
  8
0
  5
3F29
 10
97.4735
 20
99.4826
 30
0.000000
  70
    32
  0
VERTEX
  8
0
  5
3F2A
 10
97.4670
 20
99.4700
 30
0.000000
  70
    32
  0
VERTEX
  8
0
  5
3F2B
 10
97.4605
 20
99.4573
 30
0.000000
  70
    32
  0
VERTEX
  8
0
  5
3F2C
 10
97.4541
 20
99.4446
 30
0.000000
  70
    32
  0
VERTEX
  8
0
  5
3F2D
 10
97.4477
 20
99.4319
 30
0.000000
  70
    32
  0
VERTEX
  8
0
  5
3F2E
 10
97.4413
 20
99.4192
 30
0.000000
  70
    32
  0
VERTEX
  8
0
  5
3F2F
 10
97.4349
 20
99.4064
 30
0.000000
  70
    32
  0
VERTEX
  8
0
  5
3F30
 10
97.4286
 20
99.3937
 30
0.000000
  70
    32
  0
VERTEX
  8
0
  5
3F31
 10
97.4223
 20
99.3810
 30
0.000000
  70
    32
  0
VERTEX
  8
0
  5
3F32
 10
97.4160
 20
99.3682
 30
0.000000
  70
    32
  0
VERTEX
  8
0
  5
3F33
 10
97.4097
 20
99.3554
 30
0.000000
  70
    32
  0
VERTEX
  8
0
  5
3F34
 10
97.4034
 20
99.3426
 30
0.000000
  70
    32
  0
VERTEX
  8
0
  5
3F35
 10
97.3972
 20
99.3298
 30
0.000000
  70
    32
  0
VERTEX
  8
0
  5
3F36
 10
97.3909
 20
99.3170
 30
0.000000
  70
    32
  0
VERTEX
  8
0
  5
3F37
 10
97.3847
 20
99.3041
 30
0.000000
  70
    32
  0
VERTEX
  8
0
  5
3F38
 10
97.3785
 20
99.2913
 30
0.000000
  70
    32
  0
VERTEX
  8
0
  5
3F39
 10
97.3724
 20
99.2784
 30
0.000000
  70
    32
  0
VERTEX
  8
0
  5
3F3A
 10
97.3662
 20
99.2656
 30
0.000000
  70
    32
  0
VERTEX
  8
0
  5
3F3B
 10
97.3601
 20
99.2527
 30
0.000000
  70
    32
  0
VERTEX
  8
0
  5
3F3C
 10
97.3540
 20
99.2398
 30
0.000000
  70
    32
  0
VERTEX
  8
0
  5
3F3D
 10
97.3479
 20
99.2269
 30
0.000000
  70
    32
  0
VERTEX
  8
0
  5
3F3E
 10
97.3418
 20
99.2140
 30
0.000000
  70
    32
  0
SEQEND
  8
0
  5
3F3F
  0
POLYLINE
  5
3693
  8
0
 10
98.276119412288466
 20
100.75039003602888
 30
0.0
 66
     1
 70
     8
  0
VERTEX
  8
0
  5
3F40
 10
98.2761
 20
100.750
 30
0.000000
  70
    32
  0
VERTEX
  8
0
  5
3F41
 10
98.8969
 20
101.583
 30
0.000000
  70
    32
  0
VERTEX
  8
0
  5
3F42
 10
99.4914
 20
102.441
 30
0.000000
  70
    32
  0
VERTEX
  8
0
  5
3F43
 10
100.059
 20
103.324
 30
0.000000
  70
    32
  0
VERTEX
  8
0
  5
3F44
 10
100.598
 20
104.229
 30
0.000000
  70
    32
  0
VERTEX
  8
0
  5
3F45
 10
101.109
 20
105.156
 30
0.000000
  70
    32
  0
VERTEX
  8
0
  5
3F46
 10
101.591
 20
106.103
 30
0.000000
  70
    32
  0
VERTEX
  8
0
  5
3F47
 10
102.043
 20
107.070
 30
0.000000
  70
    32
  0
VERTEX
  8
0
  5
3F48
 10
102.465
 20
108.055
 30
0.000000
  70
    32
  0
VERTEX
  8
0
  5
3F49
 10
102.856
 20
109.057
 30
0.000000
  70
    32
  0
VERTEX
  8
0
  5
3F4A
 10
103.215
 20
110.074
 30
0.000000
  70
    32
  0
VERTEX
  8
0
  5
3F4B
 10
103.543
 20
111.106
 30
0.000000
  70
    32
  0
VERTEX
  8
0
  5
3F4C
 10
103.838
 20
112.150
 30
0.000000
  70
    32
  0
VERTEX
  8
0
  5
3F4D
 10
104.100
 20
113.206
 30
0.000000
  70
    32
  0
VERTEX
  8
0
  5
3F4E
 10
104.330
 20
114.272
 30
0.000000
  70
    32
  0
VERTEX
  8
0
  5
3F4F
 10
104.526
 20
115.347
 30
0.000000
  70
    32
  0
VERTEX
  8
0
  5
3F50
 10
104.688
 20
116.430
 30
0.000000
  70
    32
  0
VERTEX
  8
0
  5
3F51
 10
104.817
 20
117.518
 30
0.000000
  70
    32
  0
VERTEX
  8
0
  5
3F52
 10
104.912
 20
118.612
 30
0.000000
  70
    32
  0
VERTEX
  8
0
  5
3F53
 10
104.972
 20
119.708
 30
0.000000
  70
    32
  0
VERTEX
  8
0
  5
3F54
 10
104.999
 20
120.806
 30
0.000000
  70
    32
  0
VERTEX
  8
0
  5
3F55
 10
104.991
 20
121.905
 30
0.000000
  70
    32
  0
VERTEX
  8
0
  5
3F56
 10
104.949
 20
123.002
 30
0.000000
  70
    32
  0
VERTEX
  8
0
  5
3F57
 10
104.873
 20
124.098
 30
0.000000
  70
    32
  0
VERTEX
  8
0
  5
3F58
 10
104.763
 20
125.189
 30
0.000000
  70
    32
  0
VERTEX
  8
0
  5
3F59
 10
104.619
 20
126.275
 30
0.000000
  70
    32
  0
VERTEX
  8
0
  5
3F5A
 10
104.441
 20
127.354
 30
0.000000
  70
    32
  0
VERTEX
  8
0
  5
3F5B
 10
104.230
 20
128.425
 30
0.000000
  70
    32
  0
VERTEX
  8
0
  5
3F5C
 10
103.986
 20
129.487
 30
0.000000
  70
    32
  0
VERTEX
  8
0
  5
3F5D
 10
103.709
 20
130.538
 30
0.000000
  70
    32
  0
VERTEX
  8
0
  5
3F5E
 10
103.399
 20
131.577
 30
0.000000
  70
    32
  0
VERTEX
  8
0
  5
3F5F
 10
103.057
 20
132.603
 30
0.000000
  70
    32
  0
VERTEX
  8
0
  5
3F60
 10
102.684
 20
133.613
 30
0.000000
  70
    32
  0
VERTEX
  8
0
  5
3F61
 10
102.279
 20
134.607
 30
0.000000
  70
    32
  0
VERTEX
  8
0
  5
3F62
 10
101.843
 20
135.584
 30
0.000000
  70
    32
  0
VERTEX
  8
0
  5
3F63
 10
101.378
 20
136.543
 30
0.000000
  70
    32
  0
VERTEX
  8
0
  5
3F64
 10
100.883
 20
137.481
 30
0.000000
  70
    32
  0
VERTEX
  8
0
  5
3F65
 10
100.359
 20
138.398
 30
0.000000
  70
    32
  0
VERTEX
  8
0
  5
3F66
 10
99.8066
 20
139.293
 30
0.000000
  70
    32
  0
VERTEX
  8
0
  5
3F67
 10
99.2269
 20
140.165
 30
0.000000
  70
    32
  0
VERTEX
  8
0
  5
3F68
 10
98.6205
 20
141.011
 30
0.000000
  70
    32
  0
VERTEX
  8
0
  5
3F69
 10
97.9881
 20
141.833
 30
0.000000
  70
    32
  0
VERTEX
  8
0
  5
3F6A
 10
97.3306
 20
142.627
 30
0.000000
  70
    32
  0
VERTEX
  8
0
  5
3F6B
 10
96.6488
 20
143.394
 30
0.000000
  70
    32
  0
VERTEX
  8
0
  5
3F6C
 10
95.9435
 20
144.132
 30
0.000000
  70
    32
  0
VERTEX
  8
0
  5
3F6D
 10
95.2157
 20
144.840
 30
0.000000
  70
    32
  0
VERTEX
  8
0
  5
3F6E
 10
94.4664
 20
145.517
 30
0.000000
  70
    32
  0
VERTEX
  8
0
  5
3F6F
 10
93.6965
 20
146.163
 30
0.000000
  70
    32
  0
VERTEX
  8
0
  5
3F70
 10
92.9069
 20
146.777
 30
0.000000
  70
    32
  0
VERTEX
  8
0
  5
3F71
 10
92.0988
 20
147.358
 30
0.000000
  70
    32
  0
VERTEX
  8
0
  5
3F72
 10
91.2731
 20
147.905
 30
0.000000
  70
    32
  0
VERTEX
  8
0
  5
3F73
 10
90.4309
 20
148.417
 30
0.000000
  70
    32
  0
VERTEX
  8
0
  5
3F74
 10
89.5734
 20
148.894
 30
0.000000
  70
    32
  0
VERTEX
  8
0
  5
3F75
 10
88.7015
 20
149.335
 30
0.000000
  70
    32
  0
VERTEX
  8
0
  5
3F76
 10
87.8165
 20
149.739
 30
0.000000
  70
    32
  0
VERTEX
  8
0
  5
3F77
 10
86.9194
 20
150.107
 30
0.000000
  70
    32
  0
VERTEX
  8
0
  5
3F78
 10
86.0115
 20
150.437
 30
0.000000
  70
    32
  0
VERTEX
  8
0
  5
3F79
 10
85.0939
 20
150.730
 30
0.000000
  70
    32
  0
VERTEX
  8
0
  5
3F7A
 10
84.1678
 20
150.984
 30
0.000000
  70
    32
  0
VERTEX
  8
0
  5
3F7B
 10
83.2344
 20
151.200
 30
0.000000
  70
    32
  0
VERTEX
  8
0
  5
3F7C
 10
82.2949
 20
151.377
 30
0.000000
  70
    32
  0
VERTEX
  8
0
  5
3F7D
 10
81.3505
 20
151.514
 30
0.000000
  70
    32
  0
VERTEX
  8
0
  5
3F7E
 10
80.4023
 20
151.613
 30
0.000000
  70
    32
  0
VERTEX
  8
0
  5
3F7F
 10
79.4518
 20
151.672
 30
0.000000
  70
    32
  0
VERTEX
  8
0
  5
3F80
 10
78.5000
 20
151.692
 30
0.000000
  70
    32
  0
VERTEX
  8
0
  5
3F81
 10
77.5482
 20
151.672
 30
0.000000
  70
    32
  0
VERTEX
  8
0
  5
3F82
 10
76.5977
 20
151.613
 30
0.000000
  70
    32
  0
VERTEX
  8
0
  5
3F83
 10
75.6495
 20
151.514
 30
0.000000
  70
    32
  0
VERTEX
  8
0
  5
3F84
 10
74.7051
 20
151.377
 30
0.000000
  70
    32
  0
VERTEX
  8
0
  5
3F85
 10
73.7656
 20
151.200
 30
0.000000
  70
    32
  0
VERTEX
  8
0
  5
3F86
 10
72.8322
 20
150.984
 30
0.000000
  70
    32
  0
VERTEX
  8
0
  5
3F87
 10
71.9061
 20
150.730
 30
0.000000
  70
    32
  0
VERTEX
  8
0
  5
3F88
 10
70.9885
 20
150.437
 30
0.000000
  70
    32
  0
VERTEX
  8
0
  5
3F89
 10
70.0806
 20
150.107
 30
0.000000
  70
    32
  0
VERTEX
  8
0
  5
3F8A
 10
69.1835
 20
149.739
 30
0.000000
  70
    32
  0
VERTEX
  8
0
  5
3F8B
 10
68.2985
 20
149.335
 30
0.000000
  70
    32
  0
VERTEX
  8
0
  5
3F8C
 10
67.4266
 20
148.894
 30
0.000000
  70
    32
  0
VERTEX
  8
0
  5
3F8D
 10
66.5691
 20
148.417
 30
0.000000
  70
    32
  0
VERTEX
  8
0
  5
3F8E
 10
65.7269
 20
147.905
 30
0.000000
  70
    32
  0
VERTEX
  8
0
  5
3F8F
 10
64.9012
 20
147.358
 30
0.000000
  70
    32
  0
VERTEX
  8
0
  5
3F90
 10
64.0931
 20
146.777
 30
0.000000
  70
    32
  0
VERTEX
  8
0
  5
3F91
 10
63.3035
 20
146.163
 30
0.000000
  70
    32
  0
VERTEX
  8
0
  5
3F92
 10
62.5336
 20
145.517
 30
0.000000
  70
    32
  0
VERTEX
  8
0
  5
3F93
 10
61.7843
 20
144.840
 30
0.000000
  70
    32
  0
VERTEX
  8
0
  5
3F94
 10
61.0565
 20
144.132
 30
0.000000
  70
    32
  0
VERTEX
  8
0
  5
3F95
 10
60.3512
 20
143.394
 30
0.000000
  70
    32
  0
VERTEX
  8
0
  5
3F96
 10
59.6694
 20
142.627
 30
0.000000
  70
    32
  0
VERTEX
  8
0
  5
3F97
 10
59.0119
 20
141.833
 30
0.000000
  70
    32
  0
VERTEX
  8
0
  5
3F98
 10
58.3795
 20
141.011
 30
0.000000
  70
    32
  0
VERTEX
  8
0
  5
3F99
 10
57.7731
 20
140.165
 30
0.000000
  70
    32
  0
VERTEX
  8
0
  5
3F9A
 10
57.1934
 20
139.293
 30
0.000000
  70
    32
  0
VERTEX
  8
0
  5
3F9B
 10
56.6412
 20
138.398
 30
0.000000
  70
    32
  0
VERTEX
  8
0
  5
3F9C
 10
56.1172
 20
137.481
 30
0.000000
  70
    32
  0
VERTEX
  8
0
  5
3F9D
 10
55.6221
 20
136.543
 30
0.000000
  70
    32
  0
VERTEX
  8
0
  5
3F9E
 10
55.1566
 20
135.584
 30
0.000000
  70
    32
  0
VERTEX
  8
0
  5
3F9F
 10
54.7211
 20
134.607
 30
0.000000
  70
    32
  0
VERTEX
  8
0
  5
3FA0
 10
54.3163
 20
133.613
 30
0.000000
  70
    32
  0
VERTEX
  8
0
  5
3FA1
 10
53.9428
 20
132.603
 30
0.000000
  70
    32
  0
VERTEX
  8
0
  5
3FA2
 10
53.6009
 20
131.577
 30
0.000000
  70
    32
  0
VERTEX
  8
0
  5
3FA3
 10
53.2912
 20
130.538
 30
0.000000
  70
    32
  0
VERTEX
  8
0
  5
3FA4
 10
53.0140
 20
129.487
 30
0.000000
  70
    32
  0
VERTEX
  8
0
  5
3FA5
 10
52.7696
 20
128.425
 30
0.000000
  70
    32
  0
VERTEX
  8
0
  5
3FA6
 10
52.5585
 20
127.354
 30
0.000000
  70
    32
  0
VERTEX
  8
0
  5
3FA7
 10
52.3809
 20
126.275
 30
0.000000
  70
    32
  0
VERTEX
  8
0
  5
3FA8
 10
52.2369
 20
125.189
 30
0.000000
  70
    32
  0
VERTEX
  8
0
  5
3FA9
 10
52.1269
 20
124.098
 30
0.000000
  70
    32
  0
VERTEX
  8
0
  5
3FAA
 10
52.0509
 20
123.002
 30
0.000000
  70
    32
  0
VERTEX
  8
0
  5
3FAB
 10
52.0090
 20
121.905
 30
0.000000
  70
    32
  0
VERTEX
  8
0
  5
3FAC
 10
52.0013
 20
120.806
 30
0.000000
  70
    32
  0
VERTEX
  8
0
  5
3FAD
 10
52.0278
 20
119.708
 30
0.000000
  70
    32
  0
VERTEX
  8
0
  5
3FAE
 10
52.0884
 20
118.612
 30
0.000000
  70
    32
  0
VERTEX
  8
0
  5
3FAF
 10
52.1832
 20
117.518
 30
0.000000
  70
    32
  0
VERTEX
  8
0
  5
3FB0
 10
52.3119
 20
116.430
 30
0.000000
  70
    32
  0
VERTEX
  8
0
  5
3FB1
 10
52.4744
 20
115.347
 30
0.000000
  70
    32
  0
VERTEX
  8
0
  5
3FB2
 10
52.6704
 20
114.272
 30
0.000000
  70
    32
  0
VERTEX
  8
0
  5
3FB3
 10
52.8998
 20
113.206
 30
0.000000
  70
    32
  0
VERTEX
  8
0
  5
3FB4
 10
53.1623
 20
112.150
 30
0.000000
  70
    32
  0
VERTEX
  8
0
  5
3FB5
 10
53.4574
 20
111.106
 30
0.000000
  70
    32
  0
VERTEX
  8
0
  5
3FB6
 10
53.7849
 20
110.074
 30
0.000000
  70
    32
  0
VERTEX
  8
0
  5
3FB7
 10
54.1442
 20
109.057
 30
0.000000
  70
    32
  0
VERTEX
  8
0
  5
3FB8
 10
54.5350
 20
108.055
 30
0.000000
  70
    32
  0
VERTEX
  8
0
  5
3FB9
 10
54.9567
 20
107.070
 30
0.000000
  70
    32
  0
VERTEX
  8
0
  5
3FBA
 10
55.4087
 20
106.103
 30
0.000000
  70
    32
  0
VERTEX
  8
0
  5
3FBB
 10
55.8906
 20
105.156
 30
0.000000
  70
    32
  0
VERTEX
  8
0
  5
3FBC
 10
56.4017
 20
104.229
 30
0.000000
  70
    32
  0
VERTEX
  8
0
  5
3FBD
 10
56.9412
 20
103.324
 30
0.000000
  70
    32
  0
VERTEX
  8
0
  5
3FBE
 10
57.5086
 20
102.441
 30
0.000000
  70
    32
  0
VERTEX
  8
0
  5
3FBF
 10
58.1031
 20
101.583
 30
0.000000
  70
    32
  0
VERTEX
  8
0
  5
3FC0
 10
58.7239
 20
100.750
 30
0.000000
  70
    32
  0
SEQEND
  8
0
  5
3FC1
  0
POLYLINE
  5
3694
  8
0
 10
59.658159040919571
 20
99.213951170000115
 30
0.0
 66
     1
 70
     8
  0
VERTEX
  8
0
  5
3FC2
 10
59.6582
 20
99.2140
 30
0.000000
  70
    32
  0
VERTEX
  8
0
  5
3FC3
 10
59.6521
 20
99.2269
 30
0.000000
  70
    32
  0
VERTEX
  8
0
  5
3FC4
 10
59.6460
 20
99.2398
 30
0.000000
  70
    32
  0
VERTEX
  8
0
  5
3FC5
 10
59.6399
 20
99.2527
 30
0.000000
  70
    32
  0
VERTEX
  8
0
  5
3FC6
 10
59.6338
 20
99.2656
 30
0.000000
  70
    32
  0
VERTEX
  8
0
  5
3FC7
 10
59.6276
 20
99.2784
 30
0.000000
  70
    32
  0
VERTEX
  8
0
  5
3FC8
 10
59.6215
 20
99.2913
 30
0.000000
  70
    32
  0
VERTEX
  8
0
  5
3FC9
 10
59.6153
 20
99.3041
 30
0.000000
  70
    32
  0
VERTEX
  8
0
  5
3FCA
 10
59.6091
 20
99.3170
 30
0.000000
  70
    32
  0
VERTEX
  8
0
  5
3FCB
 10
59.6028
 20
99.3298
 30
0.000000
  70
    32
  0
VERTEX
  8
0
  5
3FCC
 10
59.5966
 20
99.3426
 30
0.000000
  70
    32
  0
VERTEX
  8
0
  5
3FCD
 10
59.5903
 20
99.3554
 30
0.000000
  70
    32
  0
VERTEX
  8
0
  5
3FCE
 10
59.5840
 20
99.3682
 30
0.000000
  70
    32
  0
VERTEX
  8
0
  5
3FCF
 10
59.5777
 20
99.3810
 30
0.000000
  70
    32
  0
VERTEX
  8
0
  5
3FD0
 10
59.5714
 20
99.3937
 30
0.000000
  70
    32
  0
VERTEX
  8
0
  5
3FD1
 10
59.5651
 20
99.4064
 30
0.000000
  70
    32
  0
VERTEX
  8
0
  5
3FD2
 10
59.5587
 20
99.4192
 30
0.000000
  70
    32
  0
VERTEX
  8
0
  5
3FD3
 10
59.5523
 20
99.4319
 30
0.000000
  70
    32
  0
VERTEX
  8
0
  5
3FD4
 10
59.5459
 20
99.4446
 30
0.000000
  70
    32
  0
VERTEX
  8
0
  5
3FD5
 10
59.5395
 20
99.4573
 30
0.000000
  70
    32
  0
VERTEX
  8
0
  5
3FD6
 10
59.5330
 20
99.4700
 30
0.000000
  70
    32
  0
VERTEX
  8
0
  5
3FD7
 10
59.5265
 20
99.4826
 30
0.000000
  70
    32
  0
VERTEX
  8
0
  5
3FD8
 10
59.5201
 20
99.4953
 30
0.000000
  70
    32
  0
VERTEX
  8
0
  5
3FD9
 10
59.5135
 20
99.5079
 30
0.000000
  70
    32
  0
VERTEX
  8
0
  5
3FDA
 10
59.5070
 20
99.5205
 30
0.000000
  70
    32
  0
VERTEX
  8
0
  5
3FDB
 10
59.5005
 20
99.5331
 30
0.000000
  70
    32
  0
VERTEX
  8
0
  5
3FDC
 10
59.4939
 20
99.5457
 30
0.000000
  70
    32
  0
VERTEX
  8
0
  5
3FDD
 10
59.4873
 20
99.5583
 30
0.000000
  70
    32
  0
VERTEX
  8
0
  5
3FDE
 10
59.4807
 20
99.5709
 30
0.000000
  70
    32
  0
VERTEX
  8
0
  5
3FDF
 10
59.4741
 20
99.5834
 30
0.000000
  70
    32
  0
VERTEX
  8
0
  5
3FE0
 10
59.4674
 20
99.5959
 30
0.000000
  70
    32
  0
VERTEX
  8
0
  5
3FE1
 10
59.4608
 20
99.6085
 30
0.000000
  70
    32
  0
VERTEX
  8
0
  5
3FE2
 10
59.4541
 20
99.6210
 30
0.000000
  70
    32
  0
VERTEX
  8
0
  5
3FE3
 10
59.4474
 20
99.6335
 30
0.000000
  70
    32
  0
VERTEX
  8
0
  5
3FE4
 10
59.4406
 20
99.6459
 30
0.000000
  70
    32
  0
VERTEX
  8
0
  5
3FE5
 10
59.4339
 20
99.6584
 30
0.000000
  70
    32
  0
VERTEX
  8
0
  5
3FE6
 10
59.4271
 20
99.6709
 30
0.000000
  70
    32
  0
VERTEX
  8
0
  5
3FE7
 10
59.4203
 20
99.6833
 30
0.000000
  70
    32
  0
VERTEX
  8
0
  5
3FE8
 10
59.4135
 20
99.6957
 30
0.000000
  70
    32
  0
VERTEX
  8
0
  5
3FE9
 10
59.4067
 20
99.7081
 30
0.000000
  70
    32
  0
VERTEX
  8
0
  5
3FEA
 10
59.3999
 20
99.7205
 30
0.000000
  70
    32
  0
VERTEX
  8
0
  5
3FEB
 10
59.3930
 20
99.7329
 30
0.000000
  70
    32
  0
VERTEX
  8
0
  5
3FEC
 10
59.3861
 20
99.7453
 30
0.000000
  70
    32
  0
VERTEX
  8
0
  5
3FED
 10
59.3792
 20
99.7576
 30
0.000000
  70
    32
  0
VERTEX
  8
0
  5
3FEE
 10
59.3723
 20
99.7700
 30
0.000000
  70
    32
  0
VERTEX
  8
0
  5
3FEF
 10
59.3654
 20
99.7823
 30
0.000000
  70
    32
  0
VERTEX
  8
0
  5
3FF0
 10
59.3584
 20
99.7946
 30
0.000000
  70
    32
  0
VERTEX
  8
0
  5
3FF1
 10
59.3514
 20
99.8069
 30
0.000000
  70
    32
  0
VERTEX
  8
0
  5
3FF2
 10
59.3444
 20
99.8192
 30
0.000000
  70
    32
  0
VERTEX
  8
0
  5
3FF3
 10
59.3374
 20
99.8314
 30
0.000000
  70
    32
  0
VERTEX
  8
0
  5
3FF4
 10
59.3304
 20
99.8437
 30
0.000000
  70
    32
  0
VERTEX
  8
0
  5
3FF5
 10
59.3233
 20
99.8559
 30
0.000000
  70
    32
  0
VERTEX
  8
0
  5
3FF6
 10
59.3162
 20
99.8681
 30
0.000000
  70
    32
  0
VERTEX
  8
0
  5
3FF7
 10
59.3091
 20
99.8803
 30
0.000000
  70
    32
  0
VERTEX
  8
0
  5
3FF8
 10
59.3020
 20
99.8925
 30
0.000000
  70
    32
  0
VERTEX
  8
0
  5
3FF9
 10
59.2949
 20
99.9047
 30
0.000000
  70
    32
  0
VERTEX
  8
0
  5
3FFA
 10
59.2877
 20
99.9169
 30
0.000000
  70
    32
  0
VERTEX
  8
0
  5
3FFB
 10
59.2806
 20
99.9290
 30
0.000000
  70
    32
  0
VERTEX
  8
0
  5
3FFC
 10
59.2734
 20
99.9411
 30
0.000000
  70
    32
  0
VERTEX
  8
0
  5
3FFD
 10
59.2662
 20
99.9532
 30
0.000000
  70
    32
  0
VERTEX
  8
0
  5
3FFE
 10
59.2589
 20
99.9653
 30
0.000000
  70
    32
  0
VERTEX
  8
0
  5
3FFF
 10
59.2517
 20
99.9774
 30
0.000000
  70
    32
  0
VERTEX
  8
0
  5
4000
 10
59.2444
 20
99.9895
 30
0.000000
  70
    32
  0
VERTEX
  8
0
  5
4001
 10
59.2371
 20
100.002
 30
0.000000
  70
    32
  0
VERTEX
  8
0
  5
4002
 10
59.2298
 20
100.014
 30
0.000000
  70
    32
  0
VERTEX
  8
0
  5
4003
 10
59.2225
 20
100.026
 30
0.000000
  70
    32
  0
VERTEX
  8
0
  5
4004
 10
59.2151
 20
100.038
 30
0.000000
  70
    32
  0
VERTEX
  8
0
  5
4005
 10
59.2078
 20
100.050
 30
0.000000
  70
    32
  0
VERTEX
  8
0
  5
4006
 10
59.2004
 20
100.062
 30
0.000000
  70
    32
  0
VERTEX
  8
0
  5
4007
 10
59.1930
 20
100.074
 30
0.000000
  70
    32
  0
VERTEX
  8
0
  5
4008
 10
59.1856
 20
100.085
 30
0.000000
  70
    32
  0
VERTEX
  8
0
  5
4009
 10
59.1781
 20
100.097
 30
0.000000
  70
    32
  0
VERTEX
  8
0
  5
400A
 10
59.1707
 20
100.109
 30
0.000000
  70
    32
  0
VERTEX
  8
0
  5
400B
 10
59.1632
 20
100.121
 30
0.000000
  70
    32
  0
VERTEX
  8
0
  5
400C
 10
59.1557
 20
100.133
 30
0.000000
  70
    32
  0
VERTEX
  8
0
  5
400D
 10
59.1482
 20
100.145
 30
0.000000
  70
    32
  0
VERTEX
  8
0
  5
400E
 10
59.1407
 20
100.157
 30
0.000000
  70
    32
  0
VERTEX
  8
0
  5
400F
 10
59.1331
 20
100.169
 30
0.000000
  70
    32
  0
VERTEX
  8
0
  5
4010
 10
59.1256
 20
100.180
 30
0.000000
  70
    32
  0
VERTEX
  8
0
  5
4011
 10
59.1180
 20
100.192
 30
0.000000
  70
    32
  0
VERTEX
  8
0
  5
4012
 10
59.1104
 20
100.204
 30
0.000000
  70
    32
  0
VERTEX
  8
0
  5
4013
 10
59.1027
 20
100.216
 30
0.000000
  70
    32
  0
VERTEX
  8
0
  5
4014
 10
59.0951
 20
100.228
 30
0.000000
  70
    32
  0
VERTEX
  8
0
  5
4015
 10
59.0874
 20
100.239
 30
0.000000
  70
    32
  0
VERTEX
  8
0
  5
4016
 10
59.0797
 20
100.251
 30
0.000000
  70
    32
  0
VERTEX
  8
0
  5
4017
 10
59.0720
 20
100.263
 30
0.000000
  70
    32
  0
VERTEX
  8
0
  5
4018
 10
59.0643
 20
100.274
 30
0.000000
  70
    32
  0
VERTEX
  8
0
  5
4019
 10
59.0566
 20
100.286
 30
0.000000
  70
    32
  0
VERTEX
  8
0
  5
401A
 10
59.0488
 20
100.298
 30
0.000000
  70
    32
  0
VERTEX
  8
0
  5
401B
 10
59.0411
 20
100.309
 30
0.000000
  70
    32
  0
VERTEX
  8
0
  5
401C
 10
59.0333
 20
100.321
 30
0.000000
  70
    32
  0
VERTEX
  8
0
  5
401D
 10
59.0255
 20
100.333
 30
0.000000
  70
    32
  0
VERTEX
  8
0
  5
401E
 10
59.0176
 20
100.344
 30
0.000000
  70
    32
  0
VERTEX
  8
0
  5
401F
 10
59.0098
 20
100.356
 30
0.000000
  70
    32
  0
VERTEX
  8
0
  5
4020
 10
59.0019
 20
100.367
 30
0.000000
  70
    32
  0
VERTEX
  8
0
  5
4021
 10
58.9940
 20
100.379
 30
0.000000
  70
    32
  0
VERTEX
  8
0
  5
4022
 10
58.9861
 20
100.390
 30
0.000000
  70
    32
  0
VERTEX
  8
0
  5
4023
 10
58.9782
 20
100.402
 30
0.000000
  70
    32
  0
VERTEX
  8
0
  5
4024
 10
58.9703
 20
100.413
 30
0.000000
  70
    32
  0
VERTEX
  8
0
  5
4025
 10
58.9623
 20
100.425
 30
0.000000
  70
    32
  0
VERTEX
  8
0
  5
4026
 10
58.9544
 20
100.436
 30
0.000000
  70
    32
  0
VERTEX
  8
0
  5
4027
 10
58.9464
 20
100.448
 30
0.000000
  70
    32
  0
VERTEX
  8
0
  5
4028
 10
58.9384
 20
100.459
 30
0.000000
  70
    32
  0
VERTEX
  8
0
  5
4029
 10
58.9303
 20
100.471
 30
0.000000
  70
    32
  0
VERTEX
  8
0
  5
402A
 10
58.9223
 20
100.482
 30
0.000000
  70
    32
  0
VERTEX
  8
0
  5
402B
 10
58.9142
 20
100.493
 30
0.000000
  70
    32
  0
VERTEX
  8
0
  5
402C
 10
58.9061
 20
100.505
 30
0.000000
  70
    32
  0
VERTEX
  8
0
  5
402D
 10
58.8980
 20
100.516
 30
0.000000
  70
    32
  0
VERTEX
  8
0
  5
402E
 10
58.8899
 20
100.528
 30
0.000000
  70
    32
  0
VERTEX
  8
0
  5
402F
 10
58.8818
 20
100.539
 30
0.000000
  70
    32
  0
VERTEX
  8
0
  5
4030
 10
58.8736
 20
100.550
 30
0.000000
  70
    32
  0
VERTEX
  8
0
  5
4031
 10
58.8655
 20
100.561
 30
0.000000
  70
    32
  0
VERTEX
  8
0
  5
4032
 10
58.8573
 20
100.573
 30
0.000000
  70
    32
  0
VERTEX
  8
0
  5
4033
 10
58.8491
 20
100.584
 30
0.000000
  70
    32
  0
VERTEX
  8
0
  5
4034
 10
58.8409
 20
100.595
 30
0.000000
  70
    32
  0
VERTEX
  8
0
  5
4035
 10
58.8326
 20
100.606
 30
0.000000
  70
    32
  0
VERTEX
  8
0
  5
4036
 10
58.8244
 20
100.617
 30
0.000000
  70
    32
  0
VERTEX
  8
0
  5
4037
 10
58.8161
 20
100.629
 30
0.000000
  70
    32
  0
VERTEX
  8
0
  5
4038
 10
58.8078
 20
100.640
 30
0.000000
  70
    32
  0
VERTEX
  8
0
  5
4039
 10
58.7995
 20
100.651
 30
0.000000
  70
    32
  0
VERTEX
  8
0
  5
403A
 10
58.7911
 20
100.662
 30
0.000000
  70
    32
  0
VERTEX
  8
0
  5
403B
 10
58.7828
 20
100.673
 30
0.000000
  70
    32
  0
VERTEX
  8
0
  5
403C
 10
58.7744
 20
100.684
 30
0.000000
  70
    32
  0
VERTEX
  8
0
  5
403D
 10
58.7660
 20
100.695
 30
0.000000
  70
    32
  0
VERTEX
  8
0
  5
403E
 10
58.7577
 20
100.706
 30
0.000000
  70
    32
  0
VERTEX
  8
0
  5
403F
 10
58.7492
 20
100.717
 30
0.000000
  70
    32
  0
VERTEX
  8
0
  5
4040
 10
58.7408
 20
100.728
 30
0.000000
  70
    32
  0
VERTEX
  8
0
  5
4041
 10
58.7323
 20
100.739
 30
0.000000
  70
    32
  0
VERTEX
  8
0
  5
4042
 10
58.7239
 20
100.750
 30
0.000000
  70
    32
  0
SEQEND
  8
0
  5
4043
  0
POLYLINE
  5
3695
  8
0
 10
60.500000010000072
 20
95.372853930774468
 30
0.0
 66
     1
 70
     8
  0
VERTEX
  8
0
  5
4044
 10
60.5000
 20
95.3729
 30
0.000000
  70
    32
  0
VERTEX
  8
0
  5
4045
 10
60.4999
 20
95.4041
 30
0.000000
  70
    32
  0
VERTEX
  8
0
  5
4046
 10
60.4998
 20
95.4354
 30
0.000000
  70
    32
  0
VERTEX
  8
0
  5
4047
 10
60.4995
 20
95.4667
 30
0.000000
  70
    32
  0
VERTEX
  8
0
  5
4048
 10
60.4992
 20
95.4979
 30
0.000000
  70
    32
  0
VERTEX
  8
0
  5
4049
 10
60.4987
 20
95.5292
 30
0.000000
  70
    32
  0
VERTEX
  8
0
  5
404A
 10
60.4981
 20
95.5605
 30
0.000000
  70
    32
  0
VERTEX
  8
0
  5
404B
 10
60.4974
 20
95.5917
 30
0.000000
  70
    32
  0
VERTEX
  8
0
  5
404C
 10
60.4966
 20
95.6230
 30
0.000000
  70
    32
  0
VERTEX
  8
0
  5
404D
 10
60.4958
 20
95.6543
 30
0.000000
  70
    32
  0
VERTEX
  8
0
  5
404E
 10
60.4948
 20
95.6855
 30
0.000000
  70
    32
  0
VERTEX
  8
0
  5
404F
 10
60.4937
 20
95.7167
 30
0.000000
  70
    32
  0
VERTEX
  8
0
  5
4050
 10
60.4924
 20
95.7480
 30
0.000000
  70
    32
  0
VERTEX
  8
0
  5
4051
 10
60.4911
 20
95.7792
 30
0.000000
  70
    32
  0
VERTEX
  8
0
  5
4052
 10
60.4897
 20
95.8105
 30
0.000000
  70
    32
  0
VERTEX
  8
0
  5
4053
 10
60.4882
 20
95.8417
 30
0.000000
  70
    32
  0
VERTEX
  8
0
  5
4054
 10
60.4866
 20
95.8729
 30
0.000000
  70
    32
  0
VERTEX
  8
0
  5
4055
 10
60.4848
 20
95.9041
 30
0.000000
  70
    32
  0
VERTEX
  8
0
  5
4056
 10
60.4830
 20
95.9353
 30
0.000000
  70
    32
  0
VERTEX
  8
0
  5
4057
 10
60.4811
 20
95.9665
 30
0.000000
  70
    32
  0
VERTEX
  8
0
  5
4058
 10
60.4790
 20
95.9977
 30
0.000000
  70
    32
  0
VERTEX
  8
0
  5
4059
 10
60.4769
 20
96.0289
 30
0.000000
  70
    32
  0
VERTEX
  8
0
  5
405A
 10
60.4746
 20
96.0600
 30
0.000000
  70
    32
  0
VERTEX
  8
0
  5
405B
 10
60.4723
 20
96.0912
 30
0.000000
  70
    32
  0
VERTEX
  8
0
  5
405C
 10
60.4698
 20
96.1223
 30
0.000000
  70
    32
  0
VERTEX
  8
0
  5
405D
 10
60.4672
 20
96.1534
 30
0.000000
  70
    32
  0
VERTEX
  8
0
  5
405E
 10
60.4646
 20
96.1846
 30
0.000000
  70
    32
  0
VERTEX
  8
0
  5
405F
 10
60.4618
 20
96.2157
 30
0.000000
  70
    32
  0
VERTEX
  8
0
  5
4060
 10
60.4589
 20
96.2468
 30
0.000000
  70
    32
  0
VERTEX
  8
0
  5
4061
 10
60.4559
 20
96.2779
 30
0.000000
  70
    32
  0
VERTEX
  8
0
  5
4062
 10
60.4529
 20
96.3089
 30
0.000000
  70
    32
  0
VERTEX
  8
0
  5
4063
 10
60.4497
 20
96.3400
 30
0.000000
  70
    32
  0
VERTEX
  8
0
  5
4064
 10
60.4464
 20
96.3710
 30
0.000000
  70
    32
  0
VERTEX
  8
0
  5
4065
 10
60.4430
 20
96.4020
 30
0.000000
  70
    32
  0
VERTEX
  8
0
  5
4066
 10
60.4395
 20
96.4331
 30
0.000000
  70
    32
  0
VERTEX
  8
0
  5
4067
 10
60.4359
 20
96.4640
 30
0.000000
  70
    32
  0
VERTEX
  8
0
  5
4068
 10
60.4321
 20
96.4950
 30
0.000000
  70
    32
  0
VERTEX
  8
0
  5
4069
 10
60.4283
 20
96.5260
 30
0.000000
  70
    32
  0
VERTEX
  8
0
  5
406A
 10
60.4244
 20
96.5569
 30
0.000000
  70
    32
  0
VERTEX
  8
0
  5
406B
 10
60.4204
 20
96.5879
 30
0.000000
  70
    32
  0
VERTEX
  8
0
  5
406C
 10
60.4163
 20
96.6188
 30
0.000000
  70
    32
  0
VERTEX
  8
0
  5
406D
 10
60.4120
 20
96.6497
 30
0.000000
  70
    32
  0
VERTEX
  8
0
  5
406E
 10
60.4077
 20
96.6805
 30
0.000000
  70
    32
  0
VERTEX
  8
0
  5
406F
 10
60.4033
 20
96.7114
 30
0.000000
  70
    32
  0
VERTEX
  8
0
  5
4070
 10
60.3987
 20
96.7422
 30
0.000000
  70
    32
  0
VERTEX
  8
0
  5
4071
 10
60.3941
 20
96.7730
 30
0.000000
  70
    32
  0
VERTEX
  8
0
  5
4072
 10
60.3893
 20
96.8038
 30
0.000000
  70
    32
  0
VERTEX
  8
0
  5
4073
 10
60.3845
 20
96.8346
 30
0.000000
  70
    32
  0
VERTEX
  8
0
  5
4074
 10
60.3795
 20
96.8653
 30
0.000000
  70
    32
  0
VERTEX
  8
0
  5
4075
 10
60.3745
 20
96.8960
 30
0.000000
  70
    32
  0
VERTEX
  8
0
  5
4076
 10
60.3693
 20
96.9267
 30
0.000000
  70
    32
  0
VERTEX
  8
0
  5
4077
 10
60.3640
 20
96.9574
 30
0.000000
  70
    32
  0
VERTEX
  8
0
  5
4078
 10
60.3587
 20
96.9881
 30
0.000000
  70
    32
  0
VERTEX
  8
0
  5
4079
 10
60.3532
 20
97.0187
 30
0.000000
  70
    32
  0
VERTEX
  8
0
  5
407A
 10
60.3476
 20
97.0493
 30
0.000000
  70
    32
  0
VERTEX
  8
0
  5
407B
 10
60.3419
 20
97.0799
 30
0.000000
  70
    32
  0
VERTEX
  8
0
  5
407C
 10
60.3362
 20
97.1104
 30
0.000000
  70
    32
  0
VERTEX
  8
0
  5
407D
 10
60.3303
 20
97.1410
 30
0.000000
  70
    32
  0
VERTEX
  8
0
  5
407E
 10
60.3243
 20
97.1715
 30
0.000000
  70
    32
  0
VERTEX
  8
0
  5
407F
 10
60.3182
 20
97.2019
 30
0.000000
  70
    32
  0
VERTEX
  8
0
  5
4080
 10
60.3120
 20
97.2324
 30
0.000000
  70
    32
  0
VERTEX
  8
0
  5
4081
 10
60.3058
 20
97.2628
 30
0.000000
  70
    32
  0
VERTEX
  8
0
  5
4082
 10
60.2994
 20
97.2932
 30
0.000000
  70
    32
  0
VERTEX
  8
0
  5
4083
 10
60.2929
 20
97.3236
 30
0.000000
  70
    32
  0
VERTEX
  8
0
  5
4084
 10
60.2863
 20
97.3539
 30
0.000000
  70
    32
  0
VERTEX
  8
0
  5
4085
 10
60.2796
 20
97.3842
 30
0.000000
  70
    32
  0
VERTEX
  8
0
  5
4086
 10
60.2728
 20
97.4145
 30
0.000000
  70
    32
  0
VERTEX
  8
0
  5
4087
 10
60.2659
 20
97.4447
 30
0.000000
  70
    32
  0
VERTEX
  8
0
  5
4088
 10
60.2589
 20
97.4749
 30
0.000000
  70
    32
  0
VERTEX
  8
0
  5
4089
 10
60.2518
 20
97.5051
 30
0.000000
  70
    32
  0
VERTEX
  8
0
  5
408A
 10
60.2446
 20
97.5352
 30
0.000000
  70
    32
  0
VERTEX
  8
0
  5
408B
 10
60.2373
 20
97.5654
 30
0.000000
  70
    32
  0
VERTEX
  8
0
  5
408C
 10
60.2299
 20
97.5954
 30
0.000000
  70
    32
  0
VERTEX
  8
0
  5
408D
 10
60.2224
 20
97.6255
 30
0.000000
  70
    32
  0
VERTEX
  8
0
  5
408E
 10
60.2148
 20
97.6555
 30
0.000000
  70
    32
  0
VERTEX
  8
0
  5
408F
 10
60.2071
 20
97.6855
 30
0.000000
  70
    32
  0
VERTEX
  8
0
  5
4090
 10
60.1992
 20
97.7154
 30
0.000000
  70
    32
  0
VERTEX
  8
0
  5
4091
 10
60.1913
 20
97.7453
 30
0.000000
  70
    32
  0
VERTEX
  8
0
  5
4092
 10
60.1833
 20
97.7752
 30
0.000000
  70
    32
  0
VERTEX
  8
0
  5
4093
 10
60.1752
 20
97.8051
 30
0.000000
  70
    32
  0
VERTEX
  8
0
  5
4094
 10
60.1670
 20
97.8349
 30
0.000000
  70
    32
  0
VERTEX
  8
0
  5
4095
 10
60.1587
 20
97.8646
 30
0.000000
  70
    32
  0
VERTEX
  8
0
  5
4096
 10
60.1503
 20
97.8944
 30
0.000000
  70
    32
  0
VERTEX
  8
0
  5
4097
 10
60.1418
 20
97.9240
 30
0.000000
  70
    32
  0
VERTEX
  8
0
  5
4098
 10
60.1332
 20
97.9537
 30
0.000000
  70
    32
  0
VERTEX
  8
0
  5
4099
 10
60.1245
 20
97.9833
 30
0.000000
  70
    32
  0
VERTEX
  8
0
  5
409A
 10
60.1157
 20
98.0129
 30
0.000000
  70
    32
  0
VERTEX
  8
0
  5
409B
 10
60.1068
 20
98.0424
 30
0.000000
  70
    32
  0
VERTEX
  8
0
  5
409C
 10
60.0978
 20
98.0719
 30
0.000000
  70
    32
  0
VERTEX
  8
0
  5
409D
 10
60.0887
 20
98.1014
 30
0.000000
  70
    32
  0
VERTEX
  8
0
  5
409E
 10
60.0795
 20
98.1308
 30
0.000000
  70
    32
  0
VERTEX
  8
0
  5
409F
 10
60.0702
 20
98.1602
 30
0.000000
  70
    32
  0
VERTEX
  8
0
  5
40A0
 10
60.0608
 20
98.1895
 30
0.000000
  70
    32
  0
VERTEX
  8
0
  5
40A1
 10
60.0513
 20
98.2188
 30
0.000000
  70
    32
  0
VERTEX
  8
0
  5
40A2
 10
60.0417
 20
98.2480
 30
0.000000
  70
    32
  0
VERTEX
  8
0
  5
40A3
 10
60.0320
 20
98.2772
 30
0.000000
  70
    32
  0
VERTEX
  8
0
  5
40A4
 10
60.0222
 20
98.3064
 30
0.000000
  70
    32
  0
VERTEX
  8
0
  5
40A5
 10
60.0123
 20
98.3355
 30
0.000000
  70
    32
  0
VERTEX
  8
0
  5
40A6
 10
60.0023
 20
98.3646
 30
0.000000
  70
    32
  0
VERTEX
  8
0
  5
40A7
 10
59.9922
 20
98.3936
 30
0.000000
  70
    32
  0
VERTEX
  8
0
  5
40A8
 10
59.9821
 20
98.4226
 30
0.000000
  70
    32
  0
VERTEX
  8
0
  5
40A9
 10
59.9718
 20
98.4515
 30
0.000000
  70
    32
  0
VERTEX
  8
0
  5
40AA
 10
59.9614
 20
98.4804
 30
0.000000
  70
    32
  0
VERTEX
  8
0
  5
40AB
 10
59.9509
 20
98.5093
 30
0.000000
  70
    32
  0
VERTEX
  8
0
  5
40AC
 10
59.9404
 20
98.5381
 30
0.000000
  70
    32
  0
VERTEX
  8
0
  5
40AD
 10
59.9297
 20
98.5668
 30
0.000000
  70
    32
  0
VERTEX
  8
0
  5
40AE
 10
59.9189
 20
98.5955
 30
0.000000
  70
    32
  0
VERTEX
  8
0
  5
40AF
 10
59.9081
 20
98.6242
 30
0.000000
  70
    32
  0
VERTEX
  8
0
  5
40B0
 10
59.8971
 20
98.6528
 30
0.000000
  70
    32
  0
VERTEX
  8
0
  5
40B1
 10
59.8861
 20
98.6813
 30
0.000000
  70
    32
  0
VERTEX
  8
0
  5
40B2
 10
59.8749
 20
98.7098
 30
0.000000
  70
    32
  0
VERTEX
  8
0
  5
40B3
 10
59.8637
 20
98.7383
 30
0.000000
  70
    32
  0
VERTEX
  8
0
  5
40B4
 10
59.8524
 20
98.7667
 30
0.000000
  70
    32
  0
VERTEX
  8
0
  5
40B5
 10
59.8409
 20
98.7950
 30
0.000000
  70
    32
  0
VERTEX
  8
0
  5
40B6
 10
59.8294
 20
98.8233
 30
0.000000
  70
    32
  0
VERTEX
  8
0
  5
40B7
 10
59.8178
 20
98.8516
 30
0.000000
  70
    32
  0
VERTEX
  8
0
  5
40B8
 10
59.8061
 20
98.8798
 30
0.000000
  70
    32
  0
VERTEX
  8
0
  5
40B9
 10
59.7943
 20
98.9079
 30
0.000000
  70
    32
  0
VERTEX
  8
0
  5
40BA
 10
59.7823
 20
98.9360
 30
0.000000
  70
    32
  0
VERTEX
  8
0
  5
40BB
 10
59.7704
 20
98.9641
 30
0.000000
  70
    32
  0
VERTEX
  8
0
  5
40BC
 10
59.7583
 20
98.9921
 30
0.000000
  70
    32
  0
VERTEX
  8
0
  5
40BD
 10
59.7461
 20
99.0200
 30
0.000000
  70
    32
  0
VERTEX
  8
0
  5
40BE
 10
59.7338
 20
99.0479
 30
0.000000
  70
    32
  0
VERTEX
  8
0
  5
40BF
 10
59.7214
 20
99.0757
 30
0.000000
  70
    32
  0
VERTEX
  8
0
  5
40C0
 10
59.7090
 20
99.1034
 30
0.000000
  70
    32
  0
VERTEX
  8
0
  5
40C1
 10
59.6964
 20
99.1312
 30
0.000000
  70
    32
  0
VERTEX
  8
0
  5
40C2
 10
59.6837
 20
99.1588
 30
0.000000
  70
    32
  0
VERTEX
  8
0
  5
40C3
 10
59.6710
 20
99.1864
 30
0.000000
  70
    32
  0
VERTEX
  8
0
  5
40C4
 10
59.6582
 20
99.2140
 30
0.000000
  70
    32
  0
SEQEND
  8
0
  5
40C5
  0
LINE
  5
3697
  8
0
 10
58.500000009999887
 20
89.000000010000036
 30
0.0
 11
60.500000010000122
 21
89.000000010000036
 31
0.0
  0
LINE
  5
3698
  8
0
 10
58.500000009999887
 20
89.000000010000036
 30
0.0
 11
58.500000009999887
 21
95.372853930000019
 31
0.0
  0
LINE
  5
3699
  8
0
 10
96.499999999999886
 20
89.000000010000036
 30
0.0
 11
96.5
 21
143.55385497973981
 31
0.0
  0
LINE
  5
369A
  8
0
 10
60.500000009999901
 20
143.5538549583772
 30
0.0
 11
60.500000009999901
 21
89.000000010000036
 31
0.0
  0
LINE
  5
369B
  8
0
 10
96.5
 20
139.00000001000001
 30
0.0
 11
94.25
 21
139.00000001000001
 31
0.0
  0
LINE
  5
369C
  8
0
 10
62.750000001159151
 20
139.00000001000001
 30
0.0
 11
60.500000009999901
 21
139.00000001000001
 31
0.0
  0
LINE
  5
369D
  8
0
 10
96.5
 20
137.0
 30
0.0
 11
94.25
 21
137.0
 31
0.0
  0
LINE
  5
369E
  8
0
 10
62.750000001130282
 20
137.0
 30
0.0
 11
60.500000009999901
 21
137.0
 31
0.0
  0
LINE
  5
36A3
  8
0
 10
49.249999999954298
 20
175.32580634001869
 30
0.0
 11
107.7500000000195
 21
175.32580634001869
 31
0.0
  0
LINE
  5
36A4
  8
0
 10
49.146446610007388
 20
174.53924025000731
 30
0.0
 11
107.8535533899926
 21
174.53924025000731
 31
0.0
  0
LINE
  5
36A5
  8
0
 10
105.94038079998241
 20
176.3705904699695
 30
0.0
 11
51.059619199895003
 21
176.3705904699695
 31
0.0
  0
LINE
  5
36A9
  8
0
 10
542.32727555000042
 20
96.000000000000028
 30
0.0
 11
543.49999998000044
 21
96.000000000000028
 31
0.0
  0
LINE
  5
36AA
  8
0
 10
543.49999998000044
 20
104.0
 30
0.0
 11
542.32727555000042
 21
104.0
 31
0.0
  0
LINE
  5
36AB
  8
0
 10
498.26679999000021
 20
96.000000000000028
 30
0.0
 11
498.99999998995338
 21
96.000000000000028
 31
0.0
  0
LINE
  5
36AC
  8
0
 10
507.49999999000028
 20
96.000000000000028
 30
0.0
 11
508.67272443000752
 21
96.000000000000028
 31
0.0
  0
LINE
  5
36AD
  8
0
 10
508.67272442999291
 20
104.0
 30
0.0
 11
507.49999999000028
 21
104.0
 31
0.0
  0
LINE
  5
36AE
  8
0
 10
498.99999998995338
 20
104.0
 30
0.0
 11
498.26679999000021
 21
104.0
 31
0.0
  0
LINE
  5
36AF
  8
0
 10
498.26679999000021
 20
104.0000000000129
 30
0.0
 11
497.49999998998032
 21
103.23319999999281
 31
0.0
  0
LINE
  5
36B0
  8
0
 10
497.49999998998032
 20
96.76680000000718
 30
0.0
 11
498.26679999000021
 21
95.999999999987153
 31
0.0
  0
ARC
  5
36B1
  8
0
 10
525.49999999000033
 20
89.999999939799878
 30
0.0
 40
39.999999939799899
 50
255.9843155532991
 51
284.01568444672768
  0
ARC
  5
36B2
  8
0
 10
533.24999999920033
 20
58.952657113200019
 30
0.0
 40
7.9999999908075958
 50
284.0156843739183
 51
0.0
  0
ARC
  5
36B3
  8
0
 10
517.74999998080034
 20
58.952657113200019
 30
0.0
 40
7.9999999908075763
 50
180.0
 51
255.9843156262294
  0
ARC
  5
36B4
  8
0
 10
42.46860809607255
 20
95.68718541681514
 30
0.0
 40
499.9999926059279
 50
355.99893642251709
 51
358.63768596537039
  0
ARC
  5
36B5
  8
0
 10
42.46860809607255
 20
104.3128145831849
 30
0.0
 40
499.99999260592779
 50
1.3623056426624121
 51
3.7483487868279171
  0
ARC
  5
36B6
  8
0
 10
1008.531391883468
 20
95.687185416790697
 30
0.0
 40
499.99999260546792
 50
181.36230564269741
 51
184.00102799155701
  0
ARC
  5
36B7
  8
0
 10
1008.531391883468
 20
104.3128145832093
 30
0.0
 40
499.99999260546792
 50
176.25165121317201
 51
178.6376859653345
  0
ARC
  5
36B8
  8
0
 10
496.4999999872004
 20
174.89279363989999
 30
0.0
 40
0.4999999971000609
 50
119.9999998282925
 51
225.0000002187723
  0
ARC
  5
36B9
  8
0
 10
554.49999999280021
 20
174.89279363989999
 30
0.0
 40
0.4999999970999804
 50
314.99999978121861
 51
60.000000171722448
  0
LINE
  5
36BA
  8
0
 10
496.14644659999311
 20
174.53924025000731
 30
0.0
 11
497.18568685000048
 21
173.5
 31
0.0
  0
LINE
  5
36BB
  8
0
 10
553.81431313000053
 20
173.5
 30
0.0
 11
554.8535533800075
 21
174.53924025000731
 31
0.0
  0
LINE
  5
36BC
  8
0
 10
554.74999999001989
 20
175.32580634001869
 30
0.0
 11
552.94038079010511
 21
176.3705904699695
 31
0.0
  0
LINE
  5
36BD
  8
0
 10
498.0596191898955
 20
176.3705904699695
 30
0.0
 11
496.24999998998072
 21
175.32580634001869
 31
0.0
  0
ARC
  5
36BE
  8
0
 10
497.5766563243007
 20
177.20710672569999
 30
0.0
 40
0.9659257609999267
 50
299.9999989874986
 51
330.00000101219962
  0
ARC
  5
36BF
  8
0
 10
553.42334365570025
 20
177.20710672569999
 30
0.0
 40
0.9659257609999267
 50
209.9999989877999
 51
240.0000010125014
  0
LINE
  5
36C0
  8
0
 10
552.58682739999006
 20
176.72414385998249
 30
0.0
 11
550.98418610998499
 21
179.49999998999121
 31
0.0
  0
LINE
  5
36C1
  8
0
 10
500.01581387001562
 20
179.49999998999121
 30
0.0
 11
498.41317258001038
 21
176.72414385998249
 31
0.0
  0
LINE
  5
36C2
  8
0
 10
501.49999999000028
 20
173.5
 30
0.0
 11
501.49999999000028
 21
172.0
 31
0.0
  0
LINE
  5
36C3
  8
0
 10
549.49999999000033
 20
172.0
 30
0.0
 11
549.49999999000033
 21
173.5
 31
0.0
  0
LINE
  5
36C4
  8
0
 10
496.99999999000028
 20
182.5
 30
0.0
 11
496.99999999000028
 21
179.5
 31
0.0
  0
LINE
  5
36C5
  8
0
 10
553.99999999000033
 20
179.5
 30
0.0
 11
553.99999999000033
 21
182.5
 31
0.0
  0
LINE
  5
36C6
  8
0
 10
553.99999998420037
 20
121.1082054424477
 30
0.0
 11
553.99999998420037
 21
172.0
 31
0.0
  0
LINE
  5
36C7
  8
0
 10
496.99999998580068
 20
172.0
 30
0.0
 11
496.99999998580068
 21
121.1082054424472
 31
0.0
  0
LINE
  5
36C8
  8
0
 10
499.39837167570818
 20
99.411686495513322
 30
0.0
 11
499.39837167572091
 21
100.58831350448671
 31
0.0
  0
LINE
  5
36C9
  8
0
 10
499.39837167572091
 20
100.58831350448671
 30
0.0
 11
505.1016283043129
 21
100.58831350450561
 31
0.0
  0
LINE
  5
36CA
  8
0
 10
505.1016283043129
 20
99.411686495494365
 30
0.0
 11
505.1016283043129
 21
100.58831350450561
 31
0.0
  0
LINE
  5
36CB
  8
0
 10
505.1016283043129
 20
99.411686495494365
 30
0.0
 11
499.39837167570818
 21
99.411686495513322
 31
0.0
  0
ARC
  5
36CD
  8
0
 10
508.63701714406318
 20
103.3317065682256
 30
0.0
 40
9.6373635187168407
 50
180.48576538545879
 51
196.53865748652751
  0
ARC
  5
36CE
  8
0
 10
508.64465030334691
 20
96.667150985278312
 30
0.0
 40
9.6450061496545541
 50
163.46774449335231
 51
179.50783263521151
  0
LINE
  5
36CF
  8
0
 10
505.4999999900657
 20
103.2499999999562
 30
0.0
 11
505.10162830432569
 21
100.5883135045068
 31
0.0
  0
LINE
  5
36D0
  8
0
 10
505.10162830432569
 20
99.411686495493228
 30
0.0
 11
505.4999999900657
 21
96.750000000043812
 31
0.0
  0
ARC
  5
36D1
  8
0
 10
508.64465030055072
 20
103.1671509854514
 30
0.0
 40
9.6450061468562858
 50
163.4677444901539
 51
179.50783263662171
  0
LINE
  5
36D2
  8
0
 10
505.1016283043129
 20
105.9116864954067
 30
0.0
 11
499.39837167574768
 21
105.9116864954067
 31
0.0
  0
ARC
  5
36D3
  8
0
 10
495.85534967699073
 20
103.16715098521981
 30
0.0
 40
9.6450061493371244
 50
0.4921673646281261
 51
16.532255506908381
  0
ARC
  5
36D4
  8
0
 10
495.86298283546301
 20
96.831706568360104
 30
0.0
 40
9.6373635192113962
 50
343.46134251417112
 51
359.51423461429289
  0
LINE
  5
36D5
  8
0
 10
499.39837167572091
 20
94.088313504574359
 30
0.0
 11
505.1016283043129
 21
94.088313504593273
 31
0.0
  0
ARC
  5
36D6
  8
0
 10
508.63701714406642
 20
96.831706568313734
 30
0.0
 40
9.6373635187197948
 50
180.48576538545791
 51
196.53865748652569
  0
LINE
  5
36D8
  8
0
 10
499.39837167575092
 20
106.5
 30
0.0
 11
499.39837167574768
 21
105.9116864954067
 31
0.0
  0
LINE
  5
36D9
  8
0
 10
498.9999999899544
 20
106.4999999999993
 30
0.0
 11
498.9999999899544
 21
93.499999999990024
 31
0.0
  0
LINE
  5
36DA
  8
0
 10
505.1016283043129
 20
105.9116864954067
 30
0.0
 11
505.1016283043129
 21
106.5
 31
0.0
  0
LINE
  5
36DB
  8
0
 10
505.4999999900657
 20
106.5
 30
0.0
 11
498.9999999899544
 21
106.5
 31
0.0
  0
LINE
  5
36DC
  8
0
 10
505.1016283043129
 20
93.500000000000028
 30
0.0
 11
505.1016283043129
 21
94.088313504593273
 31
0.0
  0
LINE
  5
36DD
  8
0
 10
498.9999999899544
 20
93.499999999990024
 30
0.0
 11
505.49999999006633
 21
93.500000000000682
 31
0.0
  0
LINE
  5
36DE
  8
0
 10
499.39837167570818
 20
93.500000000000028
 30
0.0
 11
499.39837167572091
 21
94.088313504574359
 31
0.0
  0
LINE
  5
36E3
  8
0
 10
545.49999999000033
 20
100.58831350450571
 30
0.0
 11
550.4016283043386
 21
100.588313504545
 31
0.0
  0
LINE
  5
36E4
  8
0
 10
550.4016283043386
 20
100.588313504545
 30
0.0
 11
550.40162830433815
 21
99.411686495455726
 31
0.0
  0
LINE
  5
36E5
  8
0
 10
550.40162830433815
 20
99.411686495455726
 30
0.0
 11
545.49999999000033
 21
99.411686495494322
 31
0.0
  0
ARC
  5
36E6
  8
0
 10
541.15534967597534
 20
103.3328490147869
 30
0.0
 40
9.6450061503507385
 50
343.46774449453829
 51
359.5078326348613
  0
ARC
  5
36E8
  8
0
 10
541.16298283447372
 20
96.668293431637068
 30
0.0
 40
9.6373635201989352
 50
0.4857653861997388
 51
16.538657484404581
  0
LINE
  5
36E9
  8
0
 10
550.40162830433815
 20
105.9116864953681
 30
0.0
 11
545.49999999000033
 21
105.9116864954067
 31
0.0
  0
ARC
  5
36EA
  8
0
 10
541.16298283447088
 20
103.168293431549
 30
0.0
 40
9.6373635202016636
 50
0.4857653861981105
 51
16.53865748440279
  0
ARC
  5
36EB
  8
0
 10
541.15534967597591
 20
96.832849014874427
 30
0.0
 40
9.6450061503501647
 50
343.46774449453829
 51
359.50783263486539
  0
LINE
  5
36EC
  8
0
 10
545.49999999000033
 20
94.088313504593316
 30
0.0
 11
550.4016283043386
 21
94.08831350463268
 31
0.0
  0
LINE
  5
36ED
  8
0
 10
550.4016283043386
 20
106.5
 30
0.0
 11
550.40162830433815
 21
105.9116864953681
 31
0.0
  0
LINE
  5
36F0
  8
0
 10
550.4016283043386
 20
94.08831350463268
 30
0.0
 11
550.40162830433815
 21
93.500000000000028
 31
0.0
  0
LINE
  5
36F2
  8
0
 10
550.79999999006372
 20
93.500000000000682
 30
0.0
 11
550.79999999006372
 21
106.5
 31
0.0
  0
LINE
  5
36F3
  8
0
 10
550.79999999006395
 20
93.500000000000028
 30
0.0
 11
545.49999999000033
 21
93.500000000000028
 31
0.0
  0
LINE
  5
36F4
  8
0
 10
545.49999999000033
 20
106.5
 30
0.0
 11
550.79999999006372
 21
106.5
 31
0.0
  0
LINE
  5
36F5
  8
0
 10
498.26679999000021
 20
104.0
 30
0.0
 11
498.26679999000021
 21
96.000000000000028
 31
0.0
  0
LINE
  5
36F6
  8
0
 10
497.49999998998032
 20
103.23319999999281
 30
0.0
 11
497.49999998998032
 21
96.76680000000718
 31
0.0
  0
LINE
  5
36F7
  8
0
 10
541.24999999000033
 20
58.952657120000033
 30
0.0
 11
541.24999998887017
 21
137.0
 31
0.0
  0
LINE
  5
36F8
  8
0
 10
509.74999999000028
 20
137.0
 30
0.0
 11
509.74999999000028
 21
58.952657119986043
 31
0.0
  0
LINE
  5
36F9
  8
0
 10
542.32727555000042
 20
83.799999999999997
 30
0.0
 11
542.32727555000042
 21
116.2
 31
0.0
  0
LINE
  5
36FA
  8
0
 10
508.67272442997069
 20
116.20000000031339
 30
0.0
 11
508.6727244300302
 21
83.799999999686634
 31
0.0
  0
LINE
  5
36FB
  8
0
 10
545.49999999000033
 20
182.5
 30
0.0
 11
545.49999999000033
 21
179.5
 31
0.0
  0
LINE
  5
3702
  8
0
 10
505.49999999000028
 20
182.5
 30
0.0
 11
505.49999999000028
 21
179.5
 31
0.0
  0
LINE
  5
3705
  8
0
 10
497.18568685000048
 20
173.5
 30
0.0
 11
553.81431313000053
 21
173.5
 31
0.0
  0
LINE
  5
370C
  8
0
 10
496.99999999000028
 20
179.5
 30
0.0
 11
553.99999999000033
 21
179.5
 31
0.0
  0
LINE
  5
370D
  8
0
 10
496.99999999000028
 20
182.5
 30
0.0
 11
553.99999999000033
 21
182.5
 31
0.0
  0
LINE
  5
3714
  8
0
 10
540.49999999000033
 20
117.5
 30
0.0
 11
540.49999999000033
 21
137.6034317118866
 31
0.0
  0
LINE
  5
3715
  8
0
 10
540.49999999000033
 20
117.5
 30
0.0
 11
510.49999999000028
 21
117.5
 31
0.0
  0
LINE
  5
3716
  8
0
 10
510.49999999000028
 20
124.5
 30
0.0
 11
540.49999999000033
 21
124.5
 31
0.0
  0
LINE
  5
3717
  8
0
 10
510.49999999000028
 20
117.5
 30
0.0
 11
510.49999999000028
 21
137.6034317118866
 31
0.0
  0
LINE
  5
371A
  8
0
 10
510.49999999000028
 20
137.6034317118866
 30
0.0
 11
540.49999999000033
 21
137.6034317118866
 31
0.0
  0
LINE
  5
371F
  8
0
 10
545.49999998000044
 20
158.42132425
 30
0.0
 11
505.49999999000028
 21
158.42132425
 31
0.0
  0
LINE
  5
3721
  8
0
 10
545.49999998000044
 20
137.0
 30
0.0
 11
540.49999999000033
 21
137.0
 31
0.0
  0
LINE
  5
3722
  8
0
 10
510.49999999000028
 20
137.0
 30
0.0
 11
505.49999999000028
 21
137.0
 31
0.0
  0
LINE
  5
3725
  8
0
 10
545.49999998000044
 20
168.0
 30
0.0
 11
505.49999999000028
 21
168.0
 31
0.0
  0
LINE
  5
3729
  8
0
 10
543.49999998000044
 20
89.000000010000036
 30
0.0
 11
543.49999998000044
 21
137.0
 31
0.0
  0
LINE
  5
372C
  8
0
 10
507.49999999000028
 20
137.0
 30
0.0
 11
507.49999999000028
 21
89.000000010000036
 31
0.0
  0
LINE
  5
372E
  8
0
 10
545.49999998000044
 20
89.000000010000036
 30
0.0
 11
543.49999998000044
 21
89.000000010000036
 31
0.0
  0
LINE
  5
3731
  8
0
 10
545.49999998000044
 20
172.0
 30
0.0
 11
545.49999998000044
 21
89.000000010000036
 31
0.0
  0
LINE
  5
3733
  8
0
 10
507.49999999000028
 20
89.000000010000036
 30
0.0
 11
505.49999999000028
 21
89.000000010000036
 31
0.0
  0
LINE
  5
3735
  8
0
 10
505.49999999000028
 20
89.000000010000036
 30
0.0
 11
505.49999999000028
 21
172.0
 31
0.0
  0
POLYLINE
  5
373F
  8
0
 10
550.79999999006418
 20
105.96531307152389
 30
0.0
 66
     1
 70
     8
  0
VERTEX
  8
0
  5
40C6
 10
550.800
 20
105.965
 30
0.000000
  70
    32
  0
VERTEX
  8
0
  5
40C7
 10
550.849
 20
106.075
 30
0.000000
  70
    32
  0
VERTEX
  8
0
  5
40C8
 10
550.897
 20
106.184
 30
0.000000
  70
    32
  0
VERTEX
  8
0
  5
40C9
 10
550.946
 20
106.294
 30
0.000000
  70
    32
  0
VERTEX
  8
0
  5
40CA
 10
550.993
 20
106.404
 30
0.000000
  70
    32
  0
VERTEX
  8
0
  5
40CB
 10
551.041
 20
106.514
 30
0.000000
  70
    32
  0
VERTEX
  8
0
  5
40CC
 10
551.088
 20
106.624
 30
0.000000
  70
    32
  0
VERTEX
  8
0
  5
40CD
 10
551.135
 20
106.734
 30
0.000000
  70
    32
  0
VERTEX
  8
0
  5
40CE
 10
551.181
 20
106.845
 30
0.000000
  70
    32
  0
VERTEX
  8
0
  5
40CF
 10
551.227
 20
106.956
 30
0.000000
  70
    32
  0
VERTEX
  8
0
  5
40D0
 10
551.273
 20
107.067
 30
0.000000
  70
    32
  0
VERTEX
  8
0
  5
40D1
 10
551.318
 20
107.178
 30
0.000000
  70
    32
  0
VERTEX
  8
0
  5
40D2
 10
551.363
 20
107.290
 30
0.000000
  70
    32
  0
VERTEX
  8
0
  5
40D3
 10
551.407
 20
107.401
 30
0.000000
  70
    32
  0
VERTEX
  8
0
  5
40D4
 10
551.452
 20
107.513
 30
0.000000
  70
    32
  0
VERTEX
  8
0
  5
40D5
 10
551.496
 20
107.625
 30
0.000000
  70
    32
  0
VERTEX
  8
0
  5
40D6
 10
551.539
 20
107.738
 30
0.000000
  70
    32
  0
VERTEX
  8
0
  5
40D7
 10
551.582
 20
107.850
 30
0.000000
  70
    32
  0
VERTEX
  8
0
  5
40D8
 10
551.625
 20
107.963
 30
0.000000
  70
    32
  0
VERTEX
  8
0
  5
40D9
 10
551.667
 20
108.075
 30
0.000000
  70
    32
  0
VERTEX
  8
0
  5
40DA
 10
551.709
 20
108.188
 30
0.000000
  70
    32
  0
VERTEX
  8
0
  5
40DB
 10
551.751
 20
108.301
 30
0.000000
  70
    32
  0
VERTEX
  8
0
  5
40DC
 10
551.792
 20
108.415
 30
0.000000
  70
    32
  0
VERTEX
  8
0
  5
40DD
 10
551.833
 20
108.528
 30
0.000000
  70
    32
  0
VERTEX
  8
0
  5
40DE
 10
551.874
 20
108.642
 30
0.000000
  70
    32
  0
VERTEX
  8
0
  5
40DF
 10
551.914
 20
108.756
 30
0.000000
  70
    32
  0
VERTEX
  8
0
  5
40E0
 10
551.954
 20
108.870
 30
0.000000
  70
    32
  0
VERTEX
  8
0
  5
40E1
 10
551.993
 20
108.984
 30
0.000000
  70
    32
  0
VERTEX
  8
0
  5
40E2
 10
552.032
 20
109.098
 30
0.000000
  70
    32
  0
VERTEX
  8
0
  5
40E3
 10
552.071
 20
109.213
 30
0.000000
  70
    32
  0
VERTEX
  8
0
  5
40E4
 10
552.109
 20
109.328
 30
0.000000
  70
    32
  0
VERTEX
  8
0
  5
40E5
 10
552.147
 20
109.443
 30
0.000000
  70
    32
  0
VERTEX
  8
0
  5
40E6
 10
552.185
 20
109.558
 30
0.000000
  70
    32
  0
VERTEX
  8
0
  5
40E7
 10
552.222
 20
109.673
 30
0.000000
  70
    32
  0
VERTEX
  8
0
  5
40E8
 10
552.259
 20
109.788
 30
0.000000
  70
    32
  0
VERTEX
  8
0
  5
40E9
 10
552.295
 20
109.904
 30
0.000000
  70
    32
  0
VERTEX
  8
0
  5
40EA
 10
552.332
 20
110.019
 30
0.000000
  70
    32
  0
VERTEX
  8
0
  5
40EB
 10
552.367
 20
110.135
 30
0.000000
  70
    32
  0
VERTEX
  8
0
  5
40EC
 10
552.403
 20
110.251
 30
0.000000
  70
    32
  0
VERTEX
  8
0
  5
40ED
 10
552.438
 20
110.367
 30
0.000000
  70
    32
  0
VERTEX
  8
0
  5
40EE
 10
552.472
 20
110.483
 30
0.000000
  70
    32
  0
VERTEX
  8
0
  5
40EF
 10
552.506
 20
110.600
 30
0.000000
  70
    32
  0
VERTEX
  8
0
  5
40F0
 10
552.540
 20
110.716
 30
0.000000
  70
    32
  0
VERTEX
  8
0
  5
40F1
 10
552.574
 20
110.833
 30
0.000000
  70
    32
  0
VERTEX
  8
0
  5
40F2
 10
552.607
 20
110.950
 30
0.000000
  70
    32
  0
VERTEX
  8
0
  5
40F3
 10
552.639
 20
111.067
 30
0.000000
  70
    32
  0
VERTEX
  8
0
  5
40F4
 10
552.672
 20
111.184
 30
0.000000
  70
    32
  0
VERTEX
  8
0
  5
40F5
 10
552.704
 20
111.301
 30
0.000000
  70
    32
  0
VERTEX
  8
0
  5
40F6
 10
552.735
 20
111.419
 30
0.000000
  70
    32
  0
VERTEX
  8
0
  5
40F7
 10
552.767
 20
111.536
 30
0.000000
  70
    32
  0
VERTEX
  8
0
  5
40F8
 10
552.797
 20
111.654
 30
0.000000
  70
    32
  0
VERTEX
  8
0
  5
40F9
 10
552.828
 20
111.772
 30
0.000000
  70
    32
  0
VERTEX
  8
0
  5
40FA
 10
552.858
 20
111.890
 30
0.000000
  70
    32
  0
VERTEX
  8
0
  5
40FB
 10
552.887
 20
112.008
 30
0.000000
  70
    32
  0
VERTEX
  8
0
  5
40FC
 10
552.917
 20
112.126
 30
0.000000
  70
    32
  0
VERTEX
  8
0
  5
40FD
 10
552.946
 20
112.244
 30
0.000000
  70
    32
  0
VERTEX
  8
0
  5
40FE
 10
552.974
 20
112.363
 30
0.000000
  70
    32
  0
VERTEX
  8
0
  5
40FF
 10
553.002
 20
112.482
 30
0.000000
  70
    32
  0
VERTEX
  8
0
  5
4100
 10
553.030
 20
112.600
 30
0.000000
  70
    32
  0
VERTEX
  8
0
  5
4101
 10
553.057
 20
112.719
 30
0.000000
  70
    32
  0
VERTEX
  8
0
  5
4102
 10
553.084
 20
112.838
 30
0.000000
  70
    32
  0
VERTEX
  8
0
  5
4103
 10
553.111
 20
112.957
 30
0.000000
  70
    32
  0
VERTEX
  8
0
  5
4104
 10
553.137
 20
113.076
 30
0.000000
  70
    32
  0
VERTEX
  8
0
  5
4105
 10
553.163
 20
113.195
 30
0.000000
  70
    32
  0
VERTEX
  8
0
  5
4106
 10
553.188
 20
113.315
 30
0.000000
  70
    32
  0
VERTEX
  8
0
  5
4107
 10
553.213
 20
113.434
 30
0.000000
  70
    32
  0
VERTEX
  8
0
  5
4108
 10
553.238
 20
113.554
 30
0.000000
  70
    32
  0
VERTEX
  8
0
  5
4109
 10
553.262
 20
113.674
 30
0.000000
  70
    32
  0
VERTEX
  8
0
  5
410A
 10
553.286
 20
113.793
 30
0.000000
  70
    32
  0
VERTEX
  8
0
  5
410B
 10
553.310
 20
113.913
 30
0.000000
  70
    32
  0
VERTEX
  8
0
  5
410C
 10
553.333
 20
114.033
 30
0.000000
  70
    32
  0
VERTEX
  8
0
  5
410D
 10
553.356
 20
114.153
 30
0.000000
  70
    32
  0
VERTEX
  8
0
  5
410E
 10
553.378
 20
114.274
 30
0.000000
  70
    32
  0
VERTEX
  8
0
  5
410F
 10
553.400
 20
114.394
 30
0.000000
  70
    32
  0
VERTEX
  8
0
  5
4110
 10
553.421
 20
114.514
 30
0.000000
  70
    32
  0
VERTEX
  8
0
  5
4111
 10
553.443
 20
114.635
 30
0.000000
  70
    32
  0
VERTEX
  8
0
  5
4112
 10
553.463
 20
114.755
 30
0.000000
  70
    32
  0
VERTEX
  8
0
  5
4113
 10
553.484
 20
114.876
 30
0.000000
  70
    32
  0
VERTEX
  8
0
  5
4114
 10
553.504
 20
114.997
 30
0.000000
  70
    32
  0
VERTEX
  8
0
  5
4115
 10
553.523
 20
115.118
 30
0.000000
  70
    32
  0
VERTEX
  8
0
  5
4116
 10
553.543
 20
115.239
 30
0.000000
  70
    32
  0
VERTEX
  8
0
  5
4117
 10
553.561
 20
115.360
 30
0.000000
  70
    32
  0
VERTEX
  8
0
  5
4118
 10
553.580
 20
115.481
 30
0.000000
  70
    32
  0
VERTEX
  8
0
  5
4119
 10
553.598
 20
115.602
 30
0.000000
  70
    32
  0
VERTEX
  8
0
  5
411A
 10
553.615
 20
115.723
 30
0.000000
  70
    32
  0
VERTEX
  8
0
  5
411B
 10
553.633
 20
115.844
 30
0.000000
  70
    32
  0
VERTEX
  8
0
  5
411C
 10
553.650
 20
115.966
 30
0.000000
  70
    32
  0
VERTEX
  8
0
  5
411D
 10
553.666
 20
116.087
 30
0.000000
  70
    32
  0
VERTEX
  8
0
  5
411E
 10
553.682
 20
116.209
 30
0.000000
  70
    32
  0
VERTEX
  8
0
  5
411F
 10
553.698
 20
116.330
 30
0.000000
  70
    32
  0
VERTEX
  8
0
  5
4120
 10
553.713
 20
116.452
 30
0.000000
  70
    32
  0
VERTEX
  8
0
  5
4121
 10
553.728
 20
116.574
 30
0.000000
  70
    32
  0
VERTEX
  8
0
  5
4122
 10
553.742
 20
116.696
 30
0.000000
  70
    32
  0
VERTEX
  8
0
  5
4123
 10
553.756
 20
116.818
 30
0.000000
  70
    32
  0
VERTEX
  8
0
  5
4124
 10
553.770
 20
116.939
 30
0.000000
  70
    32
  0
VERTEX
  8
0
  5
4125
 10
553.783
 20
117.061
 30
0.000000
  70
    32
  0
VERTEX
  8
0
  5
4126
 10
553.796
 20
117.183
 30
0.000000
  70
    32
  0
VERTEX
  8
0
  5
4127
 10
553.809
 20
117.306
 30
0.000000
  70
    32
  0
VERTEX
  8
0
  5
4128
 10
553.821
 20
117.428
 30
0.000000
  70
    32
  0
VERTEX
  8
0
  5
4129
 10
553.833
 20
117.550
 30
0.000000
  70
    32
  0
VERTEX
  8
0
  5
412A
 10
553.844
 20
117.672
 30
0.000000
  70
    32
  0
VERTEX
  8
0
  5
412B
 10
553.855
 20
117.794
 30
0.000000
  70
    32
  0
VERTEX
  8
0
  5
412C
 10
553.866
 20
117.917
 30
0.000000
  70
    32
  0
VERTEX
  8
0
  5
412D
 10
553.876
 20
118.039
 30
0.000000
  70
    32
  0
VERTEX
  8
0
  5
412E
 10
553.885
 20
118.162
 30
0.000000
  70
    32
  0
VERTEX
  8
0
  5
412F
 10
553.895
 20
118.284
 30
0.000000
  70
    32
  0
VERTEX
  8
0
  5
4130
 10
553.904
 20
118.407
 30
0.000000
  70
    32
  0
VERTEX
  8
0
  5
4131
 10
553.912
 20
118.529
 30
0.000000
  70
    32
  0
VERTEX
  8
0
  5
4132
 10
553.920
 20
118.652
 30
0.000000
  70
    32
  0
VERTEX
  8
0
  5
4133
 10
553.928
 20
118.774
 30
0.000000
  70
    32
  0
VERTEX
  8
0
  5
4134
 10
553.936
 20
118.897
 30
0.000000
  70
    32
  0
VERTEX
  8
0
  5
4135
 10
553.942
 20
119.020
 30
0.000000
  70
    32
  0
VERTEX
  8
0
  5
4136
 10
553.949
 20
119.142
 30
0.000000
  70
    32
  0
VERTEX
  8
0
  5
4137
 10
553.955
 20
119.265
 30
0.000000
  70
    32
  0
VERTEX
  8
0
  5
4138
 10
553.961
 20
119.388
 30
0.000000
  70
    32
  0
VERTEX
  8
0
  5
4139
 10
553.966
 20
119.511
 30
0.000000
  70
    32
  0
VERTEX
  8
0
  5
413A
 10
553.971
 20
119.633
 30
0.000000
  70
    32
  0
VERTEX
  8
0
  5
413B
 10
553.976
 20
119.756
 30
0.000000
  70
    32
  0
VERTEX
  8
0
  5
413C
 10
553.980
 20
119.879
 30
0.000000
  70
    32
  0
VERTEX
  8
0
  5
413D
 10
553.984
 20
120.002
 30
0.000000
  70
    32
  0
VERTEX
  8
0
  5
413E
 10
553.987
 20
120.125
 30
0.000000
  70
    32
  0
VERTEX
  8
0
  5
413F
 10
553.990
 20
120.248
 30
0.000000
  70
    32
  0
VERTEX
  8
0
  5
4140
 10
553.993
 20
120.371
 30
0.000000
  70
    32
  0
VERTEX
  8
0
  5
4141
 10
553.995
 20
120.494
 30
0.000000
  70
    32
  0
VERTEX
  8
0
  5
4142
 10
553.997
 20
120.616
 30
0.000000
  70
    32
  0
VERTEX
  8
0
  5
4143
 10
553.998
 20
120.739
 30
0.000000
  70
    32
  0
VERTEX
  8
0
  5
4144
 10
553.999
 20
120.862
 30
0.000000
  70
    32
  0
VERTEX
  8
0
  5
4145
 10
554.000
 20
120.985
 30
0.000000
  70
    32
  0
VERTEX
  8
0
  5
4146
 10
554.000
 20
121.108
 30
0.000000
  70
    32
  0
SEQEND
  8
0
  5
4147
  0
POLYLINE
  5
3740
  8
0
 10
496.99999998580051
 20
121.10820544244723
 30
0.0
 66
     1
 70
     8
  0
VERTEX
  8
0
  5
4148
 10
497.000
 20
121.108
 30
0.000000
  70
    32
  0
VERTEX
  8
0
  5
4149
 10
497.000
 20
120.990
 30
0.000000
  70
    32
  0
VERTEX
  8
0
  5
414A
 10
497.001
 20
120.872
 30
0.000000
  70
    32
  0
VERTEX
  8
0
  5
414B
 10
497.002
 20
120.753
 30
0.000000
  70
    32
  0
VERTEX
  8
0
  5
414C
 10
497.003
 20
120.635
 30
0.000000
  70
    32
  0
VERTEX
  8
0
  5
414D
 10
497.005
 20
120.517
 30
0.000000
  70
    32
  0
VERTEX
  8
0
  5
414E
 10
497.007
 20
120.399
 30
0.000000
  70
    32
  0
VERTEX
  8
0
  5
414F
 10
497.009
 20
120.280
 30
0.000000
  70
    32
  0
VERTEX
  8
0
  5
4150
 10
497.012
 20
120.162
 30
0.000000
  70
    32
  0
VERTEX
  8
0
  5
4151
 10
497.015
 20
120.044
 30
0.000000
  70
    32
  0
VERTEX
  8
0
  5
4152
 10
497.018
 20
119.926
 30
0.000000
  70
    32
  0
VERTEX
  8
0
  5
4153
 10
497.022
 20
119.808
 30
0.000000
  70
    32
  0
VERTEX
  8
0
  5
4154
 10
497.027
 20
119.690
 30
0.000000
  70
    32
  0
VERTEX
  8
0
  5
4155
 10
497.031
 20
119.571
 30
0.000000
  70
    32
  0
VERTEX
  8
0
  5
4156
 10
497.036
 20
119.453
 30
0.000000
  70
    32
  0
VERTEX
  8
0
  5
4157
 10
497.041
 20
119.335
 30
0.000000
  70
    32
  0
VERTEX
  8
0
  5
4158
 10
497.047
 20
119.217
 30
0.000000
  70
    32
  0
VERTEX
  8
0
  5
4159
 10
497.053
 20
119.099
 30
0.000000
  70
    32
  0
VERTEX
  8
0
  5
415A
 10
497.060
 20
118.981
 30
0.000000
  70
    32
  0
VERTEX
  8
0
  5
415B
 10
497.066
 20
118.863
 30
0.000000
  70
    32
  0
VERTEX
  8
0
  5
415C
 10
497.074
 20
118.745
 30
0.000000
  70
    32
  0
VERTEX
  8
0
  5
415D
 10
497.081
 20
118.627
 30
0.000000
  70
    32
  0
VERTEX
  8
0
  5
415E
 10
497.089
 20
118.509
 30
0.000000
  70
    32
  0
VERTEX
  8
0
  5
415F
 10
497.097
 20
118.391
 30
0.000000
  70
    32
  0
VERTEX
  8
0
  5
4160
 10
497.106
 20
118.274
 30
0.000000
  70
    32
  0
VERTEX
  8
0
  5
4161
 10
497.115
 20
118.156
 30
0.000000
  70
    32
  0
VERTEX
  8
0
  5
4162
 10
497.124
 20
118.038
 30
0.000000
  70
    32
  0
VERTEX
  8
0
  5
4163
 10
497.134
 20
117.920
 30
0.000000
  70
    32
  0
VERTEX
  8
0
  5
4164
 10
497.144
 20
117.803
 30
0.000000
  70
    32
  0
VERTEX
  8
0
  5
4165
 10
497.155
 20
117.685
 30
0.000000
  70
    32
  0
VERTEX
  8
0
  5
4166
 10
497.166
 20
117.567
 30
0.000000
  70
    32
  0
VERTEX
  8
0
  5
4167
 10
497.177
 20
117.450
 30
0.000000
  70
    32
  0
VERTEX
  8
0
  5
4168
 10
497.188
 20
117.332
 30
0.000000
  70
    32
  0
VERTEX
  8
0
  5
4169
 10
497.200
 20
117.215
 30
0.000000
  70
    32
  0
VERTEX
  8
0
  5
416A
 10
497.213
 20
117.097
 30
0.000000
  70
    32
  0
VERTEX
  8
0
  5
416B
 10
497.225
 20
116.980
 30
0.000000
  70
    32
  0
VERTEX
  8
0
  5
416C
 10
497.238
 20
116.863
 30
0.000000
  70
    32
  0
VERTEX
  8
0
  5
416D
 10
497.252
 20
116.746
 30
0.000000
  70
    32
  0
VERTEX
  8
0
  5
416E
 10
497.266
 20
116.628
 30
0.000000
  70
    32
  0
VERTEX
  8
0
  5
416F
 10
497.280
 20
116.511
 30
0.000000
  70
    32
  0
VERTEX
  8
0
  5
4170
 10
497.294
 20
116.394
 30
0.000000
  70
    32
  0
VERTEX
  8
0
  5
4171
 10
497.309
 20
116.277
 30
0.000000
  70
    32
  0
VERTEX
  8
0
  5
4172
 10
497.324
 20
116.160
 30
0.000000
  70
    32
  0
VERTEX
  8
0
  5
4173
 10
497.340
 20
116.043
 30
0.000000
  70
    32
  0
VERTEX
  8
0
  5
4174
 10
497.356
 20
115.927
 30
0.000000
  70
    32
  0
VERTEX
  8
0
  5
4175
 10
497.372
 20
115.810
 30
0.000000
  70
    32
  0
VERTEX
  8
0
  5
4176
 10
497.389
 20
115.693
 30
0.000000
  70
    32
  0
VERTEX
  8
0
  5
4177
 10
497.406
 20
115.577
 30
0.000000
  70
    32
  0
VERTEX
  8
0
  5
4178
 10
497.423
 20
115.460
 30
0.000000
  70
    32
  0
VERTEX
  8
0
  5
4179
 10
497.441
 20
115.344
 30
0.000000
  70
    32
  0
VERTEX
  8
0
  5
417A
 10
497.459
 20
115.227
 30
0.000000
  70
    32
  0
VERTEX
  8
0
  5
417B
 10
497.478
 20
115.111
 30
0.000000
  70
    32
  0
VERTEX
  8
0
  5
417C
 10
497.497
 20
114.995
 30
0.000000
  70
    32
  0
VERTEX
  8
0
  5
417D
 10
497.516
 20
114.878
 30
0.000000
  70
    32
  0
VERTEX
  8
0
  5
417E
 10
497.535
 20
114.762
 30
0.000000
  70
    32
  0
VERTEX
  8
0
  5
417F
 10
497.555
 20
114.646
 30
0.000000
  70
    32
  0
VERTEX
  8
0
  5
4180
 10
497.576
 20
114.530
 30
0.000000
  70
    32
  0
VERTEX
  8
0
  5
4181
 10
497.596
 20
114.415
 30
0.000000
  70
    32
  0
VERTEX
  8
0
  5
4182
 10
497.617
 20
114.299
 30
0.000000
  70
    32
  0
VERTEX
  8
0
  5
4183
 10
497.639
 20
114.183
 30
0.000000
  70
    32
  0
VERTEX
  8
0
  5
4184
 10
497.661
 20
114.068
 30
0.000000
  70
    32
  0
VERTEX
  8
0
  5
4185
 10
497.683
 20
113.952
 30
0.000000
  70
    32
  0
VERTEX
  8
0
  5
4186
 10
497.705
 20
113.837
 30
0.000000
  70
    32
  0
VERTEX
  8
0
  5
4187
 10
497.728
 20
113.722
 30
0.000000
  70
    32
  0
VERTEX
  8
0
  5
4188
 10
497.751
 20
113.606
 30
0.000000
  70
    32
  0
VERTEX
  8
0
  5
4189
 10
497.775
 20
113.491
 30
0.000000
  70
    32
  0
VERTEX
  8
0
  5
418A
 10
497.799
 20
113.376
 30
0.000000
  70
    32
  0
VERTEX
  8
0
  5
418B
 10
497.823
 20
113.261
 30
0.000000
  70
    32
  0
VERTEX
  8
0
  5
418C
 10
497.848
 20
113.147
 30
0.000000
  70
    32
  0
VERTEX
  8
0
  5
418D
 10
497.872
 20
113.032
 30
0.000000
  70
    32
  0
VERTEX
  8
0
  5
418E
 10
497.898
 20
112.917
 30
0.000000
  70
    32
  0
VERTEX
  8
0
  5
418F
 10
497.924
 20
112.803
 30
0.000000
  70
    32
  0
VERTEX
  8
0
  5
4190
 10
497.950
 20
112.688
 30
0.000000
  70
    32
  0
VERTEX
  8
0
  5
4191
 10
497.976
 20
112.574
 30
0.000000
  70
    32
  0
VERTEX
  8
0
  5
4192
 10
498.003
 20
112.460
 30
0.000000
  70
    32
  0
VERTEX
  8
0
  5
4193
 10
498.030
 20
112.346
 30
0.000000
  70
    32
  0
VERTEX
  8
0
  5
4194
 10
498.057
 20
112.232
 30
0.000000
  70
    32
  0
VERTEX
  8
0
  5
4195
 10
498.085
 20
112.118
 30
0.000000
  70
    32
  0
VERTEX
  8
0
  5
4196
 10
498.113
 20
112.005
 30
0.000000
  70
    32
  0
VERTEX
  8
0
  5
4197
 10
498.142
 20
111.891
 30
0.000000
  70
    32
  0
VERTEX
  8
0
  5
4198
 10
498.171
 20
111.778
 30
0.000000
  70
    32
  0
VERTEX
  8
0
  5
4199
 10
498.200
 20
111.664
 30
0.000000
  70
    32
  0
VERTEX
  8
0
  5
419A
 10
498.230
 20
111.551
 30
0.000000
  70
    32
  0
VERTEX
  8
0
  5
419B
 10
498.260
 20
111.438
 30
0.000000
  70
    32
  0
VERTEX
  8
0
  5
419C
 10
498.290
 20
111.325
 30
0.000000
  70
    32
  0
VERTEX
  8
0
  5
419D
 10
498.321
 20
111.212
 30
0.000000
  70
    32
  0
VERTEX
  8
0
  5
419E
 10
498.352
 20
111.099
 30
0.000000
  70
    32
  0
VERTEX
  8
0
  5
419F
 10
498.383
 20
110.987
 30
0.000000
  70
    32
  0
VERTEX
  8
0
  5
41A0
 10
498.415
 20
110.874
 30
0.000000
  70
    32
  0
VERTEX
  8
0
  5
41A1
 10
498.447
 20
110.762
 30
0.000000
  70
    32
  0
VERTEX
  8
0
  5
41A2
 10
498.479
 20
110.650
 30
0.000000
  70
    32
  0
VERTEX
  8
0
  5
41A3
 10
498.512
 20
110.538
 30
0.000000
  70
    32
  0
VERTEX
  8
0
  5
41A4
 10
498.545
 20
110.426
 30
0.000000
  70
    32
  0
VERTEX
  8
0
  5
41A5
 10
498.578
 20
110.314
 30
0.000000
  70
    32
  0
VERTEX
  8
0
  5
41A6
 10
498.612
 20
110.202
 30
0.000000
  70
    32
  0
VERTEX
  8
0
  5
41A7
 10
498.646
 20
110.091
 30
0.000000
  70
    32
  0
VERTEX
  8
0
  5
41A8
 10
498.681
 20
109.980
 30
0.000000
  70
    32
  0
VERTEX
  8
0
  5
41A9
 10
498.716
 20
109.868
 30
0.000000
  70
    32
  0
VERTEX
  8
0
  5
41AA
 10
498.751
 20
109.757
 30
0.000000
  70
    32
  0
VERTEX
  8
0
  5
41AB
 10
498.786
 20
109.646
 30
0.000000
  70
    32
  0
VERTEX
  8
0
  5
41AC
 10
498.822
 20
109.536
 30
0.000000
  70
    32
  0
VERTEX
  8
0
  5
41AD
 10
498.858
 20
109.425
 30
0.000000
  70
    32
  0
VERTEX
  8
0
  5
41AE
 10
498.895
 20
109.315
 30
0.000000
  70
    32
  0
VERTEX
  8
0
  5
41AF
 10
498.932
 20
109.204
 30
0.000000
  70
    32
  0
VERTEX
  8
0
  5
41B0
 10
498.969
 20
109.094
 30
0.000000
  70
    32
  0
VERTEX
  8
0
  5
41B1
 10
499.007
 20
108.984
 30
0.000000
  70
    32
  0
VERTEX
  8
0
  5
41B2
 10
499.045
 20
108.874
 30
0.000000
  70
    32
  0
VERTEX
  8
0
  5
41B3
 10
499.083
 20
108.765
 30
0.000000
  70
    32
  0
VERTEX
  8
0
  5
41B4
 10
499.122
 20
108.655
 30
0.000000
  70
    32
  0
VERTEX
  8
0
  5
41B5
 10
499.161
 20
108.546
 30
0.000000
  70
    32
  0
VERTEX
  8
0
  5
41B6
 10
499.200
 20
108.436
 30
0.000000
  70
    32
  0
VERTEX
  8
0
  5
41B7
 10
499.240
 20
108.327
 30
0.000000
  70
    32
  0
VERTEX
  8
0
  5
41B8
 10
499.280
 20
108.218
 30
0.000000
  70
    32
  0
VERTEX
  8
0
  5
41B9
 10
499.320
 20
108.110
 30
0.000000
  70
    32
  0
VERTEX
  8
0
  5
41BA
 10
499.361
 20
108.001
 30
0.000000
  70
    32
  0
VERTEX
  8
0
  5
41BB
 10
499.402
 20
107.893
 30
0.000000
  70
    32
  0
VERTEX
  8
0
  5
41BC
 10
499.443
 20
107.785
 30
0.000000
  70
    32
  0
VERTEX
  8
0
  5
41BD
 10
499.485
 20
107.677
 30
0.000000
  70
    32
  0
VERTEX
  8
0
  5
41BE
 10
499.527
 20
107.569
 30
0.000000
  70
    32
  0
VERTEX
  8
0
  5
41BF
 10
499.569
 20
107.461
 30
0.000000
  70
    32
  0
VERTEX
  8
0
  5
41C0
 10
499.612
 20
107.354
 30
0.000000
  70
    32
  0
VERTEX
  8
0
  5
41C1
 10
499.655
 20
107.246
 30
0.000000
  70
    32
  0
VERTEX
  8
0
  5
41C2
 10
499.698
 20
107.139
 30
0.000000
  70
    32
  0
VERTEX
  8
0
  5
41C3
 10
499.742
 20
107.032
 30
0.000000
  70
    32
  0
VERTEX
  8
0
  5
41C4
 10
499.786
 20
106.925
 30
0.000000
  70
    32
  0
VERTEX
  8
0
  5
41C5
 10
499.830
 20
106.819
 30
0.000000
  70
    32
  0
VERTEX
  8
0
  5
41C6
 10
499.875
 20
106.712
 30
0.000000
  70
    32
  0
VERTEX
  8
0
  5
41C7
 10
499.920
 20
106.606
 30
0.000000
  70
    32
  0
VERTEX
  8
0
  5
41C8
 10
499.965
 20
106.500
 30
0.000000
  70
    32
  0
SEQEND
  8
0
  5
41C9
  0
LINE
  5
3741
  8
0
 10
496.9999999858004
 20
172.0
 30
0.0
 11
553.99999998420037
 21
172.0
 31
0.0
  0
LINE
  5
3745
  8
0
 10
496.24999998998072
 20
175.32580634001869
 30
0.0
 11
554.74999999004626
 21
175.32580634001869
 31
0.0
  0
LINE
  5
3746
  8
0
 10
496.14644660000772
 20
174.53924025000731
 30
0.0
 11
554.85355337999295
 21
174.53924025000731
 31
0.0
  0
LINE
  5
3747
  8
0
 10
552.94038079010511
 20
176.3705904699695
 30
0.0
 11
498.05961919001828
 21
176.3705904699695
 31
0.0
  0
CIRCLE
  5
3790
  8
0
 10
307.0
 20
100.0000000000001
 30
0.0
 40
6.5000228690189736
  0
CIRCLE
  5
37DA
  8
0
 10
307.0
 20
100.0000000000001
 30
0.0
 40
4.0
  0
CIRCLE
  5
37DB
  8
3
 10
307.0
 20
100.0000000000001
 30
0.0
 40
3.3235000000000001
  0
LINE
  5
3933
  8
3
 10
303.67649999999998
 20
284.09029999988718
 30
0.0
 11
303.67649999999998
 21
285.49999999985442
 31
0.0
  0
LINE
  5
3934
  8
3
 10
310.32350000000002
 20
284.09029999988718
 30
0.0
 11
310.32350000000002
 21
285.49999999985403
 31
0.0
  0
LINE
  5
3936
  8
3
 10
60.500000009999901
 20
103.3235000000001
 30
0.0
 11
61.672724439999911
 21
103.3235000000001
 31
0.0
  0
LINE
  5
3937
  8
3
 10
60.500000009999901
 20
96.676500000000075
 30
0.0
 11
61.672724439999911
 21
96.676500000000075
 31
0.0
  0
LINE
  5
397E
  8
3
 10
95.327275559993836
 20
96.676500000000075
 30
0.0
 11
96.499999999999886
 21
96.676500000000075
 31
0.0
  0
LINE
  5
397F
  8
3
 10
95.327275560006115
 20
103.3235000000001
 30
0.0
 11
96.499999999999886
 21
103.3235000000001
 31
0.0
  0
LINE
  5
3980
  8
3
 10
105.0000000000464
 20
103.3235000000001
 30
0.0
 11
106.40970000001271
 21
103.3235000000001
 31
0.0
  0
LINE
  5
3981
  8
3
 10
105.0000000000464
 20
96.676500000000075
 30
0.0
 11
106.4097000000129
 21
96.676500000000075
 31
0.0
  0
LINE
  5
3982
  8
3
 10
497.59029998998739
 20
96.676500000000075
 30
0.0
 11
498.9999999899544
 21
96.676500000000075
 31
0.0
  0
LINE
  5
3983
  8
3
 10
497.59029998998739
 20
103.3235000000001
 30
0.0
 11
498.9999999899544
 21
103.3235000000001
 31
0.0
  0
LINE
  5
3984
  8
3
 10
507.49999999000028
 20
96.676500000000075
 30
0.0
 11
508.67272443000661
 21
96.676500000000075
 31
0.0
  0
LINE
  5
3985
  8
3
 10
507.49999999000028
 20
103.3235000000001
 30
0.0
 11
508.67272442999428
 21
103.3235000000001
 31
0.0
  0
LINE
  5
3986
  8
3
 10
542.32727555000042
 20
96.676500000000075
 30
0.0
 11
543.49999998000044
 21
96.676500000000075
 31
0.0
  0
LINE
  5
3987
  8
3
 10
542.32727555000042
 20
103.3235000000001
 30
0.0
 11
543.49999998000044
 21
103.3235000000001
 31
0.0
  0
LINE
  5
39CB
  8
1
 10
307.0
 20
39.999999999999993
 30
0.0
 11
307.0
 21
159.9989201336943
 31
0.0
  0
LINE
  5
39CC
  8
1
 10
78.499999999996135
 20
40.0
 30
0.0
 11
78.499999999996135
 21
192.5
 31
0.0
  0
LINE
  5
39CD
  8
1
 10
525.49999999000033
 20
40.0
 30
0.0
 11
525.49999999000033
 21
192.5
 31
0.0
  0
LINE
  5
39CE
  8
1
 10
266.99999999999977
 20
167.0
 30
0.0
 11
267.0
 21
187.5
 31
0.0
  0
LINE
  5
39D6
  8
1
 10
267.0
 20
277.5
 30
0.0
 11
267.0
 21
346.49999999980008
 31
0.0
  0
LINE
  5
39D7
  8
1
 10
197.0
 20
312.0000000048995
 30
0.0
 11
406.99999998999732
 21
312.0000000048995
 31
0.0
  0
LINE
  5
39DB
  8
1
 10
555.79999999006372
 20
100.0000000000001
 30
0.0
 11
495.19999998993688
 21
100.0000000000001
 31
0.0
  0
LINE
  5
39E0
  8
1
 10
366.99991542500862
 20
100.0000000000001
 30
0.0
 11
247.00099529271711
 21
100.0000000000001
 31
0.0
  0
LINE
  5
39E1
  8
1
 10
108.80000000005541
 20
100.0000000000001
 30
0.0
 11
48.199999999936828
 21
100.0000000000001
 31
0.0
  0
LINE
  5
3A25
  8
1
 10
307.0
 20
321.24999999990013
 30
0.0
 11
307.0
 21
302.74999999990013
 31
0.0
  0
LINE
  5
3A26
  8
1
 10
227.0
 20
321.24999999990013
 30
0.0
 11
227.0
 21
302.74999999990013
 31
0.0
  0
ENDSEC
  0
EOF
