  0
SECTION
  2
HEADER
  9
$ACADVER
  1
AC1009
  9
$INSBASE
 10
0.0
 20
0.0
 30
0.0
  9
$EXTMIN
 10
0.0
 20
-2.960436562073669
 30
0.0
  9
$EXTMAX
 10
266.30156611839169
 20
201.28094509968449
 30
0.0
  9
$LIMMIN
 10
0.0
 20
0.0
  9
$LIMMAX
 10
375.0
 20
270.0
  9
$ORTHOMODE
 70
     1
  9
$REGENMODE
 70
     1
  9
$FILLMODE
 70
     1
  9
$QTEXTMODE
 70
     0
  9
$MIRRTEXT
 70
     0
  9
$DRAGMODE
 70
     2
  9
$LTSCALE
 40
5.0
  9
$OSMODE
 70
    55
  9
$ATTMODE
 70
     1
  9
$TEXTSIZE
 40
0.2
  9
$TRACEWID
 40
0.05
  9
$TEXTSTYLE
  7
STANDARD
  9
$CLAYER
  8
0
  9
$CELTYPE
  6
BYLAYER
  9
$CECOLOR
 62
   256
  9
$DIMSCALE
 40
1.0
  9
$DIMASZ
 40
3.0
  9
$DIMEXO
 40
2.0
  9
$DIMDLI
 40
0.38
  9
$DIMRND
 40
0.0
  9
$DIMDLE
 40
0.0
  9
$DIMEXE
 40
2.0
  9
$DIMTP
 40
0.0
  9
$DIMTM
 40
0.0
  9
$DIMTXT
 40
3.2000000000000002
  9
$DIMCEN
 40
0.0
  9
$DIMTSZ
 40
0.0
  9
$DIMTOL
 70
     0
  9
$DIMLIM
 70
     0
  9
$DIMTIH
 70
     0
  9
$DIMTOH
 70
     0
  9
$DIMSE1
 70
     0
  9
$DIMSE2
 70
     0
  9
$DIMTAD
 70
     1
  9
$DIMZIN
 70
     0
  9
$DIMBLK
  1

  9
$DIMASO
 70
     1
  9
$DIMSHO
 70
     0
  9
$DIMPOST
  1

  9
$DIMAPOST
  1

  9
$DIMALT
 70
     0
  9
$DIMALTD
 70
     2
  9
$DIMALTF
 40
25.399999999999999
  9
$DIMLFAC
 40
1.0
  9
$DIMTOFL
 70
     0
  9
$DIMTVP
 40
1.6000000000000001
  9
$DIMTIX
 70
     1
  9
$DIMSOXD
 70
     0
  9
$DIMSAH
 70
     0
  9
$DIMBLK1
  1

  9
$DIMBLK2
  1

  9
$DIMSTYLE
  2
STANDARD
  9
$DIMCLRD
 70
     0
  9
$DIMCLRE
 70
     0
  9
$DIMCLRT
 70
     0
  9
$DIMTFAC
 40
1.0
  9
$DIMGAP
 40
0.09
  9
$LUNITS
 70
     2
  9
$LUPREC
 70
     4
  9
$SKETCHINC
 40
0.1
  9
$FILLETRAD
 40
2.0
  9
$AUNITS
 70
     0
  9
$AUPREC
 70
     0
  9
$MENU
  1
E:\r13\win\SUPPORT\ACAD
  9
$ELEVATION
 40
0.0
  9
$PELEVATION
 40
0.0
  9
$THICKNESS
 40
0.0
  9
$LIMCHECK
 70
     0
  9
$BLIPMODE
 70
     0
  9
$CHAMFERA
 40
0.0
  9
$CHAMFERB
 40
0.0
  9
$SKPOLY
 70
     0
  9
$TDCREATE
 40
2449840.6070023151
  9
$TDUPDATE
 40
2456598.4782841671
  9
$TDINDWG
 40
0.0074743519
  9
$TDUSRTIMER
 40
0.0074743519
  9
$USRTIMER
 70
     1
  9
$ANGBASE
 50
0.0
  9
$ANGDIR
 70
     0
  9
$PDMODE
 70
     0
  9
$PDSIZE
 40
0.0
  9
$PLINEWID
 40
0.0
  9
$COORDS
 70
     1
  9
$SPLFRAME
 70
     0
  9
$SPLINETYPE
 70
     6
  9
$SPLINESEGS
 70
     8
  9
$ATTDIA
 70
     0
  9
$ATTREQ
 70
     1
  9
$HANDLING
 70
     1
  9
$HANDSEED
  5
665
  9
$SURFTAB1
 70
     6
  9
$SURFTAB2
 70
     6
  9
$SURFTYPE
 70
     6
  9
$SURFU
 70
     6
  9
$SURFV
 70
     6
  9
$UCSNAME
  2

  9
$UCSORG
 10
0.0
 20
0.0
 30
0.0
  9
$UCSXDIR
 10
1.0
 20
0.0
 30
0.0
  9
$UCSYDIR
 10
0.0
 20
1.0
 30
0.0
  9
$PUCSNAME
  2

  9
$PUCSORG
 10
0.0
 20
0.0
 30
0.0
  9
$PUCSXDIR
 10
1.0
 20
0.0
 30
0.0
  9
$PUCSYDIR
 10
0.0
 20
1.0
 30
0.0
  9
$USERI1
 70
     0
  9
$USERI2
 70
     1
  9
$USERI3
 70
     1
  9
$USERI4
 70
     0
  9
$USERI5
 70
     0
  9
$USERR1
 40
0.0
  9
$USERR2
 40
0.0
  9
$USERR3
 40
0.0
  9
$USERR4
 40
0.0
  9
$USERR5
 40
0.0
  9
$WORLDVIEW
 70
     1
  9
$SHADEDGE
 70
     3
  9
$SHADEDIF
 70
    70
  9
$TILEMODE
 70
     1
  9
$MAXACTVP
 70
    16
  9
$PLIMCHECK
 70
     0
  9
$PEXTMIN
 10
1.0000000000000000E+020
 20
1.0000000000000000E+020
 30
1.0000000000000000E+020
  9
$PEXTMAX
 10
-1.0000000000000000E+020
 20
-1.0000000000000000E+020
 30
-1.0000000000000000E+020
  9
$PLIMMIN
 10
0.0
 20
0.0
  9
$PLIMMAX
 10
12.0
 20
9.0
  9
$UNITMODE
 70
     0
  9
$VISRETAIN
 70
     0
  9
$PLINEGEN
 70
     0
  9
$PSLTSCALE
 70
     0
  0
ENDSEC
  0
SECTION
  2
TABLES
  0
TABLE
  2
VPORT
 70
     1
  0
VPORT
  2
*ACTIVE
 70
     0
 10
0.0
 20
0.0
 11
1.0
 21
1.0
 12
187.49427839065231
 22
194.785247995265
 13
0.0
 23
0.0
 14
10.0
 24
10.0
 15
10.0
 25
10.0
 16
0.0
 26
0.0
 36
1.0
 17
0.0
 27
0.0
 37
0.0
 40
399.3463374158577
 41
1.7807262569832401
 42
50.0
 43
0.0
 44
0.0
 50
0.0
 51
0.0
 71
     0
 72
   500
 73
     1
 74
     0
 75
     0
 76
     0
 77
     0
 78
     1
  0
ENDTAB
  0
TABLE
  2
LTYPE
 70
     4
  0
LTYPE
  2
CONTINUOUS
 70
     0
  3
Solid Line
 72
    65
 73
     0
 40
0.0
  0
LTYPE
  2
CENTER
 70
     0
  3
____ _ ____ _ ____ _ ____ _ ____ _ ____ _ ____
 72
    65
 73
     4
 40
2.0
 49
1.25
 49
-0.25
 49
0.25
 49
-0.25
  0
LTYPE
  2
HIDDEN
 70
     0
  3
_ _ _ _ _ _ _ _ _ _ _ _ _ _ _ _ _ _ _ _ _ _ _
 72
    65
 73
     2
 40
0.375
 49
0.25
 49
-0.125
  0
LTYPE
  2
PHANTOM2
 70
     0
  3
___ _ _ ___ _ _ ___ _ _ ___ _ _
 72
    65
 73
     6
 40
1.25
 49
0.625
 49
-0.125
 49
0.125
 49
-0.125
 49
0.125
 49
-0.125
  0
ENDTAB
  0
TABLE
  2
LAYER
 70
     5
  0
LAYER
  2
0
 70
     0
 62
     7
  6
CONTINUOUS
  0
LAYER
  2
1
 70
     0
 62
     1
  6
CENTER
  0
LAYER
  2
2
 70
     0
 62
     2
  6
HIDDEN
  0
LAYER
  2
3
 70
     0
 62
     3
  6
CONTINUOUS
  0
LAYER
  2
DEFPOINTS
 70
     0
 62
     7
  6
CONTINUOUS
  0
ENDTAB
  0
TABLE
  2
STYLE
 70
     2
  0
STYLE
  2
STANDARD
 70
     0
 40
0.0
 41
1.0
 50
0.0
 71
     0
 42
0.2
  3
simplex.shx
  4
bigfont.shx
  0
STYLE
  2
STANDARD1
 70
     0
 40
0.0
 41
1.0
 50
0.0
 71
     0
 42
3.0
  3
txt
  4

  0
ENDTAB
  0
TABLE
  2
VIEW
 70
     1
  0
VIEW
  2
ALL
 70
     0
 40
270.0
 10
213.25689075630251
 20
135.0
 41
0.0
 11
0.0
 21
0.0
 31
1.0
 12
0.0
 22
0.0
 32
0.0
 42
0.0
 43
0.0
 44
0.0
 50
0.0
 71
     0
  0
ENDTAB
  0
TABLE
  2
UCS
 70
     0
  0
ENDTAB
  0
TABLE
  2
APPID
 70
    28
  0
APPID
  2
ACAD
 70
     0
  0
APPID
  2
DCO15
 70
     0
  0
APPID
  2
GENIUS_GENOREF_13
 70
     0
  0
APPID
  2
GENIUS_GENOENT_13
 70
     0
  0
APPID
  2
GENIUS_GENBH_13
 70
     0
  0
APPID
  2
GENIUS_GENOBJ_13
 70
     0
  0
APPID
  2
GENIUS_GENODEF_13
 70
     0
  0
APPID
  2
GENIUS_GENOLIS_13
 70
     0
  0
APPID
  2
GENIUS_GENOBJ-NBEHI-BHF_13
 70
     0
  0
APPID
  2
GENIUS_GENOBJ-NBEHI-BHB_13
 70
     0
  0
APPID
  2
GENIUS_GENOBJ-F-PART_13
 70
     0
  0
APPID
  2
GENIUS_GEFSTDP_13
 70
     0
  0
APPID
  2
GENIUS_GENOBJ-N-RSSYM_13
 70
     0
  0
APPID
  2
GENIUS_GENSYMENT_13
 70
     0
  0
APPID
  2
GENIUS_GENOBJ-N-TIT_13
 70
     0
  0
APPID
  2
GENIUS_GENTITLE_13
 70
     0
  0
APPID
  2
GENIUS_GENZVEED_13
 70
     0
  0
APPID
  2
GENIUS_GENOBJ-N-LEADER_13
 70
     0
  0
APPID
  2
GENIUS_GENOBJ-N-FIL_13
 70
     0
  0
APPID
  2
GENIUS_GENOBJ-N-SEC_13
 70
     0
  0
APPID
  2
GENIUS_GENOBJ-N-CRS_13
 70
     0
  0
APPID
  2
GENIUS_GENOBJ-N-ZOO_13
 70
     0
  0
APPID
  2
GENIUS_GENZOO_13
 70
     0
  0
APPID
  2
GENIUS_GENOBJ-F-TOL_13
 70
     0
  0
APPID
  2
GENIUS_GENFIL_13
 70
     0
  0
APPID
  2
GENIUS_GENOBJ-N-CHA_13
 70
     0
  0
APPID
  2
ACAD_MLEADERVER
 70
     0
  0
APPID
  2
ACAD_NAV_VCDISPLAY
 70
     0
  0
ENDTAB
  0
TABLE
  2
DIMSTYLE
 70
     1
  0
DIMSTYLE
  2
STANDARD
 70
     0
  3

  4

  5

  6

  7

 40
1.0
 41
0.18
 42
0.0625
 43
0.38
 44
0.18
 45
0.0
 46
0.0
 47
0.0
 48
0.0
140
0.18
141
0.09
142
0.0
143
25.399999999999999
144
1.0
145
0.0
146
1.0
147
0.09
 71
     0
 72
     0
 73
     1
 74
     1
 75
     0
 76
     0
 77
     0
 78
     0
170
     0
171
     2
172
     0
173
     0
174
     0
175
     0
176
     0
177
     0
178
     0
  0
ENDTAB
  0
ENDSEC
  0
SECTION
  2
BLOCKS
  0
BLOCK
  8
0
  2
$MODEL_SPACE
 70
     0
 10
0.0
 20
0.0
 30
0.0
  3
$MODEL_SPACE
  1

  0
ENDBLK
  5
162
  8
0
  0
BLOCK
 67
     1
  8
0
  2
$PAPER_SPACE
 70
     0
 10
0.0
 20
0.0
 30
0.0
  3
$PAPER_SPACE
  1

  0
ENDBLK
  5
160
 67
     1
  8
0
  0
ENDSEC
  0
SECTION
  2
ENTITIES
  0
CIRCLE
  5
2DC
  8
0
 10
111.8016065348988
 20
49.280945099684708
 30
0.0
 40
8.4852813742385802
  0
CIRCLE
  5
2DD
  8
0
 10
191.8016065348987
 20
49.280945099684452
 30
0.0
 40
3.3235000000000001
  0
CIRCLE
  5
2DE
  8
3
 10
191.8016065348987
 20
49.280945099684452
 30
0.0
 40
4.0
  0
CIRCLE
  5
2DF
  8
0
 10
111.8016065348987
 20
49.280945099684487
 30
0.0
 40
13.0
  0
ARC
  5
2E0
  8
0
 10
191.8016065348987
 20
49.280945099684679
 30
0.0
 40
8.0
 50
241.02895785522671
 51
118.97104214477299
  0
ARC
  5
2E1
  8
0
 10
111.8016065348987
 20
49.280945099684708
 30
0.0
 40
14.5
 50
52.148328620649472
 51
307.85167137935048
  0
LINE
  5
2E2
  8
0
 10
183.63489756564891
 20
43.272247240419567
 30
0.0
 11
127.43728922168761
 21
40.340198109431867
 31
0.0
  0
ARC
  5
2E3
  8
0
 10
128.0625257729555
 20
28.356497543456499
 30
0.0
 40
12.0
 50
92.986636990473741
 51
127.8516858611503
  0
ARC
  5
2E4
  8
0
 10
184.05172193316079
 20
35.283113529769253
 30
0.0
 40
8.0
 50
61.02894012433957
 51
92.986636990473542
  0
ARC
  5
2E5
  8
0
 10
184.05172193316079
 20
63.278776669600127
 30
0.0
 40
8.0
 50
267.01336300952647
 51
298.97105987566027
  0
ARC
  5
2E6
  8
0
 10
128.0625257729555
 20
70.205392655912874
 30
0.0
 40
12.0
 50
232.14831413884971
 51
267.01336300952619
  0
LINE
  5
2E7
  8
0
 10
183.63489756564891
 20
55.289642958949791
 30
0.0
 11
127.43728922168761
 21
58.221692089937498
 31
0.0
  0
ARC
  5
2E9
  8
2
 10
191.8016065348987
 20
49.280945099684679
 30
0.0
 40
8.0
 50
118.97104214477299
 51
241.02895785522671
  0
LINE
  5
2EA
  8
1
 10
191.8016065348987
 20
62.280945099684679
 30
0.0
 11
191.8016065348987
 21
36.280945099684693
 31
0.0
  0
LINE
  5
2EB
  8
1
 10
111.8016065348987
 20
68.780945099684686
 30
0.0
 11
111.8016065348987
 21
29.78094509968469
 31
0.0
  0
LINE
  5
2EC
  8
1
 10
204.8016065348987
 20
49.280945099684679
 30
0.0
 11
92.301606534898724
 21
49.280945099684679
 31
0.0
  0
ARC
  5
2FB
  8
0
 10
96.301606534898838
 20
119.6276331682257
 30
0.0
 40
2.5
 50
0.0
 51
39.715137231825537
  0
ARC
  5
2FC
  8
0
 10
99.887392972525731
 20
124.2809450996845
 30
0.0
 40
2.5
 50
89.999999999999986
 51
160.52877936551391
  0
ARC
  5
2FD
  8
0
 10
101.3016065348988
 20
123.7809450996847
 30
0.0
 40
4.0
 50
160.52877936551391
 51
219.71513723182559
  0
LINE
  5
2FE
  8
2
 10
187.8016065348987
 20
133.25744509968459
 30
0.0
 11
187.8016065348987
 21
120.7809450996846
 31
0.0
1001
ACAD
1000
ASC_BOUNDS
1002
{
1070
    19
1005
0
1005
0
1002
}
  0
LINE
  5
2FF
  8
2
 10
195.8016065348987
 20
133.25744509968411
 30
0.0
 11
195.8016065348987
 21
120.7809450996846
 31
0.0
1001
ACAD
1000
ASC_BOUNDS
1002
{
1070
    19
1005
0
1005
0
1002
}
  0
LINE
  5
300
  8
2
 10
195.1251065348988
 20
132.5809450996843
 30
0.0
 11
195.1251065348988
 21
120.7809450996846
 31
0.0
  0
LINE
  5
301
  8
2
 10
188.4781065348987
 20
132.58094509968461
 30
0.0
 11
188.4781065348987
 21
120.7809450996846
 31
0.0
  0
LINE
  5
302
  8
2
 10
188.4781065348987
 20
132.58094509968461
 30
0.0
 11
187.27810653489871
 21
133.7809450996846
 31
0.0
1001
ACAD
1000
ASC_BOUNDS
1002
{
1070
    19
1005
0
1005
0
1002
}
  0
LINE
  5
303
  8
2
 10
195.1251065348988
 20
132.58094509968441
 30
0.0
 11
196.32510653489879
 21
133.78094509968449
 31
0.0
1001
ACAD
1000
ASC_BOUNDS
1002
{
1070
    19
1005
0
1005
0
1002
}
  0
ARC
  5
304
  8
0
 10
181.8016065348987
 20
128.7809450996844
 30
0.0
 40
2.0
 50
270.0
 51
0.0
  0
ARC
  5
305
  8
0
 10
127.3016065348988
 20
118.2809450996842
 30
0.0
 40
2.5
 50
90.000000000000398
 51
178.2108448862393
  0
ARC
  5
306
  8
0
 10
198.3016065348987
 20
122.2809450996847
 30
0.0
 40
1.5
 50
270.0
 51
0.0
  0
LINE
  5
307
  8
0
 10
199.8016065348987
 20
133.78094509968449
 30
0.0
 11
199.8016065348987
 21
122.2809450996846
 31
0.0
  0
LINE
  5
308
  8
0
 10
183.8016065348987
 20
133.78094509968449
 30
0.0
 11
183.8016065348987
 21
128.7809450996844
 31
0.0
  0
LINE
  5
309
  8
0
 10
198.3016065348987
 20
120.7809450996846
 30
0.0
 11
98.801606534898724
 21
120.780945099684
 31
0.0
1001
ACAD
1000
ASC_BOUNDS
1002
{
1070
    19
1005
0
1005
0
1005
0
1005
0
1005
0
1005
0
1002
}
  0
LINE
  5
30A
  8
0
 10
98.801606534898724
 20
119.6276331682256
 30
0.0
 11
98.801606534898724
 21
118.3582953688742
 31
0.0
  0
LINE
  5
30B
  8
0
 10
185.92666423403
 20
126.7809450996844
 30
0.0
 11
99.887392972525618
 21
126.7809450996844
 31
0.0
  0
LINE
  5
30C
  8
1
 10
111.8016065348987
 20
131.7809450996844
 30
0.0
 11
111.8016065348987
 21
98.7809450996847
 31
0.0
  0
LINE
  5
30D
  8
1
 10
191.8016065348987
 20
138.78094509968449
 30
0.0
 11
191.80160653489881
 21
115.7809450996845
 31
0.0
  0
CIRCLE
  5
3CE
  8
0
 10
111.8016065348987
 20
49.280945099684708
 30
0.0
 40
12.0
  0
LINE
  5
3D5
  8
2
 10
120.2868879091338
 20
103.7809450996846
 30
0.0
 11
120.2868879091338
 21
126.7809450996844
 31
0.0
  0
LINE
  5
3D6
  8
2
 10
111.8016065348987
 20
103.7809450996846
 30
0.0
 11
111.8016065348987
 21
126.7809450996844
 31
0.0
  0
LINE
  5
3D7
  8
2
 10
103.31632516066369
 20
103.7809450996846
 30
0.0
 11
103.31632516066369
 21
126.7809450996844
 31
0.0
  0
LINE
  5
3D8
  8
0
 10
99.801606534898724
 20
104.7809450996847
 30
0.0
 11
99.801606534898838
 21
117.7809450996844
 31
0.0
  0
LINE
  5
3D9
  8
0
 10
99.801606534898724
 20
117.7809450996845
 30
0.0
 11
98.801606534898724
 21
118.3582953688742
 31
0.0
  0
LINE
  5
3DA
  8
0
 10
123.8016065348987
 20
117.7809450996845
 30
0.0
 11
124.80282531525511
 21
118.3589990320411
 31
0.0
  0
LINE
  5
3DB
  8
0
 10
123.8016065348986
 20
104.7809450996847
 30
0.0
 11
123.8016065348987
 21
117.7809450996844
 31
0.0
  0
ARC
  5
3FF
  8
2
 10
116.0442472220163
 20
101.37282819173041
 30
0.0
 40
4.8639610306722121
 50
29.277613190259149
 51
150.7223868097409
  0
ARC
  5
400
  8
2
 10
107.5589658477825
 20
101.37282819173041
 30
0.0
 40
4.8639610306722121
 50
29.2776131902591
 51
150.72238680974081
  0
LINE
  5
411
  8
0
 10
109.0290848905787
 20
43.568185369766063
 30
0.0
 11
111.5628701922912
 21
41.034400068053628
 31
0.0
  0
LINE
  5
412
  8
0
 10
106.08884680498041
 20
52.053466744005163
 30
0.0
 11
103.55506150326779
 21
49.51968144229226
 31
0.0
  0
LINE
  5
413
  8
0
 10
114.5741281792187
 20
43.568185369766063
 30
0.0
 11
112.04034287750621
 21
41.034400068053628
 31
0.0
  0
ARC
  5
414
  8
0
 10
111.8016065348987
 20
49.280945099684708
 30
0.0
 40
6.3499999999999988
 50
295.88826786279702
 51
334.1117321372023
  0
ARC
  5
415
  8
0
 10
111.8016065348987
 20
49.280945099684708
 30
0.0
 40
6.3499999999999988
 50
25.888267862797822
 51
64.11173213720167
  0
ARC
  5
416
  8
0
 10
111.8016065348987
 20
49.280945099684708
 30
0.0
 40
6.3499999999999988
 50
115.88826786279959
 51
154.1117321371986
  0
ARC
  5
417
  8
0
 10
111.8016065348987
 20
49.280945099684708
 30
0.0
 40
6.3499999999999988
 50
205.8882678627977
 51
244.11173213720289
  0
LINE
  5
418
  8
0
 10
111.562870192291
 20
57.527490131315737
 30
0.0
 11
109.0290848905783
 21
54.993704829602841
 31
0.0
  0
LINE
  5
419
  8
0
 10
112.0403428775064
 20
57.527490131315737
 30
0.0
 11
114.5741281792188
 21
54.993704829603082
 31
0.0
  0
LINE
  5
41A
  8
0
 10
103.55506150326779
 20
49.042208757077333
 30
0.0
 11
106.08884680498019
 21
46.508423455364657
 31
0.0
  0
LINE
  5
41F
  8
0
 10
117.5143662648171
 20
52.053466744004943
 30
0.0
 11
120.0481515665297
 21
49.519681442292487
 31
0.0
  0
LINE
  5
420
  8
0
 10
120.0481515665298
 20
49.042208757077333
 30
0.0
 11
117.5143662648172
 21
46.508423455364657
 31
0.0
  0
ARC
  5
429
  8
0
 10
111.8016065348987
 20
49.280945099684708
 30
0.0
 40
8.25
 50
358.34175822722381
 51
1.658241772779437
  0
ARC
  5
42A
  8
0
 10
111.8016065348987
 20
49.280945099684708
 30
0.0
 40
8.25
 50
88.341758227221774
 51
91.658241772778595
  0
ARC
  5
42B
  8
0
 10
111.8016065348987
 20
49.280945099684708
 30
0.0
 40
8.25
 50
268.34175822722261
 51
271.65824177277648
  0
ARC
  5
42C
  8
0
 10
111.8016065348987
 20
49.280945099684708
 30
0.0
 40
8.25
 50
178.34175822722051
 51
181.65824177277619
  0
LINE
  5
435
  8
2
 10
195.1251065348988
 20
132.58094509968461
 30
0.0
 11
188.4781065348987
 21
132.58094509968461
 31
0.0
  0
LINE
  5
436
  8
0
 10
199.8016065348987
 20
133.78094509968449
 30
0.0
 11
183.8016065348987
 21
133.78094509968449
 31
0.0
1001
ACAD
1000
ASC_BOUNDS
1002
{
1070
    19
1005
0
1005
0
1002
}
  0
LINE
  5
441
  8
0
 10
122.8016065348986
 20
103.7809450996847
 30
0.0
 11
100.8016065348987
 21
103.7809450996847
 31
0.0
1001
ACAD
1000
ASC_BOUNDS
1002
{
1070
    19
1005
0
1005
0
1005
0
1005
0
1002
}
  0
ARC
  5
442
  8
0
 10
100.8016065348988
 20
104.7809450996847
 30
0.0
 40
1.0
 50
180.0
 51
270.0
1001
ACAD
1000
ASC_BOUNDS
1002
{
1070
    19
1005
0
1005
0
1005
0
1005
0
1002
}
  0
ARC
  5
443
  8
0
 10
122.8016065348987
 20
104.7809450996847
 30
0.0
 40
1.0
 50
269.9999999999996
 51
0.0
1001
ACAD
1000
ASC_BOUNDS
1002
{
1070
    19
1005
0
1005
0
1005
0
1005
0
1002
}
  0
LINE
  5
493
  8
0
 10
123.8016065348987
 20
117.7809450996844
 30
0.0
 11
99.801606534898838
 21
117.7809450996844
 31
0.0
  0
LINE
  5
494
  8
0
 10
124.80282531525511
 20
118.3589990320411
 30
0.0
 11
98.801606534898724
 21
118.3582953688742
 31
0.0
  0
TEXT
  5
495
  8
0
 10
163.16204772685131
 20
46.783937630598182
 30
0.0
 40
5.0
  1
5
 41
0.75
 72
     1
 11
164.41204772685131
 21
46.783937630598182
 31
0.0
  0
LINE
  5
496
  8
0
 10
161.75124682266841
 20
49.280945099684921
 30
0.0
 11
157.75124682266841
 21
49.280945099684921
 31
0.0
  0
TEXT
  5
497
  8
0
 10
149.91358534229681
 20
46.614717122764937
 30
0.0
 40
5.0
  1
SC
 41
0.75
 72
     1
 11
153.03858534229681
 21
46.614717122764937
 31
0.0
  0
ARC
  5
49B
  8
0
 10
111.8016065348987
 20
181.78094509968449
 30
0.0
 40
8.25
 50
178.34175822722051
 51
181.65824177277619
  0
ARC
  5
49C
  8
0
 10
111.8016065348987
 20
181.78094509968449
 30
0.0
 40
8.25
 50
268.34175822722261
 51
271.65824177277648
  0
ARC
  5
49D
  8
0
 10
111.8016065348987
 20
181.78094509968449
 30
0.0
 40
8.25
 50
88.341758227221774
 51
91.658241772778595
  0
ARC
  5
49E
  8
0
 10
111.8016065348987
 20
181.78094509968449
 30
0.0
 40
8.25
 50
358.34175822722381
 51
1.658241772779437
  0
LINE
  5
49F
  8
0
 10
120.0481515665298
 20
181.54220875707711
 30
0.0
 11
117.5143662648172
 21
179.00842345536449
 31
0.0
  0
LINE
  5
4A0
  8
0
 10
117.5143662648171
 20
184.55346674400471
 30
0.0
 11
120.0481515665297
 21
182.0196814422923
 31
0.0
  0
LINE
  5
4A1
  8
0
 10
103.55506150326779
 20
181.54220875707711
 30
0.0
 11
106.08884680498019
 21
179.00842345536449
 31
0.0
  0
LINE
  5
4A2
  8
0
 10
112.0403428775064
 20
190.02749013131549
 30
0.0
 11
114.5741281792188
 21
187.4937048296029
 31
0.0
  0
LINE
  5
4A3
  8
0
 10
111.562870192291
 20
190.02749013131549
 30
0.0
 11
109.0290848905783
 21
187.49370482960259
 31
0.0
  0
ARC
  5
4A4
  8
0
 10
111.8016065348987
 20
181.78094509968449
 30
0.0
 40
6.3499999999999988
 50
205.8882678627977
 51
244.11173213720289
  0
ARC
  5
4A5
  8
0
 10
111.8016065348987
 20
181.78094509968449
 30
0.0
 40
6.3499999999999988
 50
115.88826786279959
 51
154.1117321371986
  0
ARC
  5
4A6
  8
0
 10
111.8016065348987
 20
181.78094509968449
 30
0.0
 40
6.3499999999999988
 50
25.888267862797822
 51
64.11173213720167
  0
ARC
  5
4A7
  8
0
 10
111.8016065348987
 20
181.78094509968449
 30
0.0
 40
6.3499999999999988
 50
295.88826786279702
 51
334.1117321372023
  0
LINE
  5
4A8
  8
0
 10
114.5741281792187
 20
176.0681853697659
 30
0.0
 11
112.04034287750621
 21
173.5344000680534
 31
0.0
  0
LINE
  5
4A9
  8
0
 10
106.08884680498041
 20
184.55346674400499
 30
0.0
 11
103.55506150326779
 21
182.0196814422921
 31
0.0
  0
LINE
  5
4AA
  8
0
 10
109.0290848905787
 20
176.0681853697659
 30
0.0
 11
111.5628701922912
 21
173.5344000680534
 31
0.0
  0
CIRCLE
  5
4AB
  8
2
 10
111.8016065348987
 20
181.78094509968449
 30
0.0
 40
12.0
  0
LINE
  5
4AC
  8
1
 10
204.8016065348987
 20
181.78094509968449
 30
0.0
 11
92.301606534898724
 21
181.78094509968449
 31
0.0
  0
LINE
  5
4AD
  8
1
 10
111.8016065348987
 20
201.28094509968449
 30
0.0
 11
111.8016065348987
 21
162.28094509968449
 31
0.0
  0
LINE
  5
4AE
  8
1
 10
191.8016065348987
 20
194.78094509968449
 30
0.0
 11
191.8016065348987
 21
168.78094509968449
 31
0.0
  0
LINE
  5
4B0
  8
0
 10
183.63489756564891
 20
187.7896429589496
 30
0.0
 11
127.43728922168761
 21
190.72169208993731
 31
0.0
  0
ARC
  5
4B1
  8
0
 10
128.0625257729555
 20
202.7053926559127
 30
0.0
 40
12.0
 50
232.14831413884971
 51
267.01336300952619
  0
ARC
  5
4B2
  8
0
 10
184.05172193316079
 20
195.77877666959989
 30
0.0
 40
8.0
 50
267.01336300952647
 51
298.97105987566027
  0
ARC
  5
4B3
  8
0
 10
184.05172193316079
 20
167.78311352976911
 30
0.0
 40
8.0
 50
61.02894012433957
 51
92.986636990473542
  0
ARC
  5
4B4
  8
0
 10
128.0625257729555
 20
160.8564975434563
 30
0.0
 40
12.0
 50
92.986636990473741
 51
127.8516858611503
  0
LINE
  5
4B5
  8
0
 10
183.63489756564891
 20
175.7722472404194
 30
0.0
 11
127.43728922168761
 21
172.8401981094317
 31
0.0
  0
ARC
  5
4B6
  8
0
 10
111.8016065348987
 20
181.78094509968449
 30
0.0
 40
14.5
 50
52.148328620649472
 51
307.85167137935048
  0
CIRCLE
  5
4B8
  8
2
 10
111.8016065348987
 20
181.78094509968429
 30
0.0
 40
13.0
  0
CIRCLE
  5
4B9
  8
3
 10
191.8016065348987
 20
181.78094509968429
 30
0.0
 40
4.0
  0
CIRCLE
  5
4BA
  8
0
 10
191.8016065348987
 20
181.78094509968429
 30
0.0
 40
3.3235000000000001
  0
CIRCLE
  5
4BB
  8
2
 10
111.8016065348988
 20
181.78094509968449
 30
0.0
 40
8.4852813742385802
  0
CIRCLE
  5
4BC
  8
0
 10
191.8016065348987
 20
181.78094509968449
 30
0.0
 40
8.0
  0
LINE
  5
4BD
  8
0
 10
64.802825315255177
 20
118.3589990320411
 30
0.0
 11
38.801606534898717
 21
118.3582953688742
 31
0.0
  0
LINE
  5
4BE
  8
0
 10
63.801606534898717
 20
117.7809450996844
 30
0.0
 11
39.801606534898838
 21
117.7809450996844
 31
0.0
  0
ARC
  5
4BF
  8
0
 10
62.801606534898717
 20
104.7809450996847
 30
0.0
 40
1.0
 50
269.9999999999996
 51
0.0
1001
ACAD
1000
ASC_BOUNDS
1002
{
1070
    19
1005
0
1005
0
1005
0
1005
0
1002
}
  0
ARC
  5
4C0
  8
0
 10
40.801606534898831
 20
104.7809450996847
 30
0.0
 40
1.0
 50
180.0
 51
270.0
1001
ACAD
1000
ASC_BOUNDS
1002
{
1070
    19
1005
0
1005
0
1005
0
1005
0
1002
}
  0
LINE
  5
4C1
  8
0
 10
62.80160653489861
 20
103.7809450996847
 30
0.0
 11
40.801606534898717
 21
103.7809450996847
 31
0.0
1001
ACAD
1000
ASC_BOUNDS
1002
{
1070
    19
1005
0
1005
0
1005
0
1005
0
1002
}
  0
LINE
  5
4C2
  8
0
 10
59.80160653489861
 20
133.78094509968449
 30
0.0
 11
43.80160653489861
 21
133.78094509968449
 31
0.0
1001
ACAD
1000
ASC_BOUNDS
1002
{
1070
    19
1005
0
1005
0
1002
}
  0
ARC
  5
4C4
  8
2
 10
47.558965847782467
 20
101.37282819173041
 30
0.0
 40
4.8639610306722121
 50
29.2776131902591
 51
150.72238680974081
  0
ARC
  5
4C5
  8
2
 10
56.044247222016338
 20
101.37282819173041
 30
0.0
 40
4.8639610306722121
 50
29.277613190259149
 51
150.7223868097409
  0
LINE
  5
4C6
  8
0
 10
63.80160653489861
 20
104.7809450996847
 30
0.0
 11
63.801606534898717
 21
117.7809450996844
 31
0.0
  0
LINE
  5
4C7
  8
0
 10
63.801606534898717
 20
117.7809450996845
 30
0.0
 11
64.802825315255177
 21
118.3589990320411
 31
0.0
  0
LINE
  5
4C8
  8
0
 10
39.801606534898731
 20
117.7809450996845
 30
0.0
 11
38.801606534898717
 21
118.3582953688742
 31
0.0
  0
LINE
  5
4C9
  8
0
 10
39.801606534898731
 20
104.7809450996847
 30
0.0
 11
39.801606534898838
 21
117.7809450996844
 31
0.0
  0
LINE
  5
4CA
  8
2
 10
43.316325160663723
 20
103.7809450996846
 30
0.0
 11
43.316325160663723
 21
126.7809450996844
 31
0.0
  0
LINE
  5
4CB
  8
2
 10
51.801606534898717
 20
103.7809450996846
 30
0.0
 11
51.801606534898717
 21
126.7809450996844
 31
0.0
  0
LINE
  5
4CC
  8
2
 10
60.286887909133839
 20
103.7809450996846
 30
0.0
 11
60.286887909133839
 21
126.7809450996844
 31
0.0
  0
LINE
  5
4CE
  8
1
 10
51.801606534898717
 20
138.78094509968449
 30
0.0
 11
51.801606534898717
 21
98.7809450996847
 31
0.0
  0
LINE
  5
4CF
  8
0
 10
63.715820097271717
 20
126.7809450996844
 30
0.0
 11
39.887392972525618
 21
126.7809450996844
 31
0.0
  0
LINE
  5
4D0
  8
0
 10
38.801606534898717
 20
119.6276331682256
 30
0.0
 11
38.801606534898717
 21
118.3582953688742
 31
0.0
  0
LINE
  5
4D2
  8
0
 10
43.80160653489861
 20
133.78094509968449
 30
0.0
 11
43.80160653489861
 21
126.7809450996844
 31
0.0
  0
LINE
  5
4D3
  8
0
 10
59.80160653489861
 20
133.78094509968449
 30
0.0
 11
59.80160653489861
 21
126.7809450996844
 31
0.0
  0
ARC
  5
4DD
  8
0
 10
41.301606534898831
 20
123.7809450996847
 30
0.0
 40
4.0
 50
160.52877936551391
 51
219.71513723182559
  0
ARC
  5
4DE
  8
0
 10
39.887392972525731
 20
124.2809450996845
 30
0.0
 40
2.5
 50
89.999999999999986
 51
160.52877936551391
  0
ARC
  5
4DF
  8
0
 10
36.301606534898838
 20
119.6276331682257
 30
0.0
 40
2.5
 50
0.0
 51
39.715137231825537
  0
ARC
  5
4E1
  8
0
 10
185.92666423403
 20
128.78094509968449
 30
0.0
 40
2.0
 50
270.0
 51
0.0
  0
ARC
  5
4E2
  8
0
 10
63.715820097271717
 20
124.2809450996845
 30
0.0
 40
2.5
 50
19.471220634486109
 51
90.000000000000028
  0
ARC
  5
4E3
  8
0
 10
67.30160653489861
 20
119.6276331682257
 30
0.0
 40
2.5
 50
140.28486276817441
 51
180.0
  0
ARC
  5
4E4
  8
0
 10
62.30160653489861
 20
123.7809450996847
 30
0.0
 40
4.0
 50
320.28486276817438
 51
19.471220634486109
  0
LINE
  5
4E5
  8
0
 10
64.801606534898724
 20
119.6276331682256
 30
0.0
 11
64.801606534898724
 21
118.3582953688742
 31
0.0
  0
LINE
  5
4E7
  8
0
 10
64.801606534898724
 20
120.7809450996842
 30
0.0
 11
38.801606534898717
 21
120.7809450996841
 31
0.0
  0
POLYLINE
  5
4E8
  8
0
 66
     1
 10
0.0
 20
0.0
 30
0.0
  0
VERTEX
  5
4E9
  8
0
 10
44.802691968615129
 20
126.7809450996844
 30
0.0
 42
0.2070360869581257
  0
VERTEX
  5
4EA
  8
0
 10
45.051458281155533
 20
126.8885653349632
 30
0.0
 42
0.0960651888582406
  0
VERTEX
  5
4EB
  8
0
 10
45.353010232674713
 20
127.3667315373113
 30
0.0
 42
0.0528726910443262
 70
     2
 50
68.737307701170579
  0
VERTEX
  5
4EC
  8
0
 10
45.537658855785253
 20
128.04590325738349
 30
0.0
 42
0.0505273611946769
 50
68.737307701170579
  0
VERTEX
  5
4ED
  8
0
 10
45.580959521268817
 20
128.7809450996844
 30
0.0
 42
0.039973763501143
  0
SEQEND
  5
4EE
  8
0
  0
POLYLINE
  5
4EF
  8
0
 66
     1
 10
0.0
 20
0.0
 30
0.0
  0
VERTEX
  5
4F0
  8
0
 10
58.800521101181971
 20
126.7809450996844
 30
0.0
 42
-0.2070360869581257
  0
VERTEX
  5
4F1
  8
0
 10
58.55175478864146
 20
126.8885653349632
 30
0.0
 42
-0.0960651888582406
  0
VERTEX
  5
4F2
  8
0
 10
58.250202837122288
 20
127.3667315373113
 30
0.0
 42
-0.0528726910443262
 70
     2
 50
111.26269229882941
  0
VERTEX
  5
4F3
  8
0
 10
58.065554214011847
 20
128.04590325738349
 30
0.0
 42
-0.0505273611946769
  0
VERTEX
  5
4F4
  8
0
 10
58.02225354852817
 20
128.7809450996844
 30
0.0
 42
-0.039973763501143
  0
SEQEND
  5
4F5
  8
0
  0
LINE
  5
504
  8
0
 10
264.80160653489889
 20
120.7809450996842
 30
0.0
 11
238.80160653489881
 21
120.7809450996842
 31
0.0
  0
LINE
  5
505
  8
0
 10
264.80160653489889
 20
119.6276331682257
 30
0.0
 11
264.80160653489889
 21
118.35829536887429
 31
0.0
  0
ARC
  5
506
  8
0
 10
262.30160653489872
 20
123.7809450996848
 30
0.0
 40
4.0
 50
320.28486276817438
 51
19.471220634486109
  0
ARC
  5
507
  8
0
 10
267.30160653489872
 20
119.6276331682257
 30
0.0
 40
2.5
 50
140.28486276817441
 51
180.0
  0
ARC
  5
508
  8
0
 10
263.71582009727177
 20
124.2809450996845
 30
0.0
 40
2.5
 50
19.471220634486109
 51
90.000000000000028
  0
ARC
  5
509
  8
0
 10
236.30160653489901
 20
119.6276331682257
 30
0.0
 40
2.5
 50
0.0
 51
39.715137231825537
  0
ARC
  5
50A
  8
0
 10
239.8873929725259
 20
124.2809450996845
 30
0.0
 40
2.5
 50
89.999999999999986
 51
160.52877936551391
  0
ARC
  5
50B
  8
0
 10
241.30160653489901
 20
123.7809450996848
 30
0.0
 40
4.0
 50
160.52877936551391
 51
219.71513723182559
  0
ARC
  5
50C
  8
0
 10
258.30160653489872
 20
122.2809450996847
 30
0.0
 40
1.5
 50
270.0
 51
0.0
  0
LINE
  5
50D
  8
0
 10
259.80160653489872
 20
133.78094509968449
 30
0.0
 11
259.80160653489872
 21
122.2809450996847
 31
0.0
  0
LINE
  5
50E
  8
0
 10
243.8016065348987
 20
133.78094509968449
 30
0.0
 11
243.8016065348987
 21
122.2809450996847
 31
0.0
  0
LINE
  5
50F
  8
0
 10
238.80160653489881
 20
119.6276331682257
 30
0.0
 11
238.80160653489881
 21
118.35829536887429
 31
0.0
  0
LINE
  5
510
  8
0
 10
263.71582009727177
 20
126.7809450996845
 30
0.0
 11
259.80160653489872
 21
126.7809450996845
 31
0.0
  0
LINE
  5
511
  8
1
 10
251.80160653489881
 20
138.78094509968449
 30
0.0
 11
251.80160653489881
 21
98.780945099684743
 31
0.0
  0
LINE
  5
512
  8
2
 10
260.28688790913401
 20
103.7809450996846
 30
0.0
 11
260.28688790913401
 21
126.7809450996845
 31
0.0
  0
LINE
  5
513
  8
2
 10
251.80160653489881
 20
103.7809450996846
 30
0.0
 11
251.80160653489881
 21
126.7809450996845
 31
0.0
  0
LINE
  5
514
  8
2
 10
243.31632516066389
 20
103.7809450996846
 30
0.0
 11
243.31632516066389
 21
126.7809450996845
 31
0.0
  0
LINE
  5
515
  8
0
 10
239.80160653489889
 20
104.7809450996847
 30
0.0
 11
239.80160653489889
 21
117.7809450996845
 31
0.0
  0
LINE
  5
516
  8
0
 10
239.80160653489889
 20
117.7809450996846
 30
0.0
 11
238.80160653489881
 21
118.35829536887429
 31
0.0
  0
LINE
  5
517
  8
0
 10
263.80160653489878
 20
117.7809450996846
 30
0.0
 11
264.80282531525529
 21
118.3589990320411
 31
0.0
  0
LINE
  5
518
  8
0
 10
263.80160653489872
 20
104.7809450996847
 30
0.0
 11
263.80160653489878
 21
117.7809450996845
 31
0.0
  0
ARC
  5
519
  8
2
 10
256.04424722201639
 20
101.37282819173041
 30
0.0
 40
4.8639610306722121
 50
29.277613190259149
 51
150.7223868097409
  0
ARC
  5
51A
  8
2
 10
247.55896584778259
 20
101.37282819173041
 30
0.0
 40
4.8639610306722121
 50
29.2776131902591
 51
150.72238680974081
  0
LINE
  5
51B
  8
0
 10
259.80160653489872
 20
133.78094509968449
 30
0.0
 11
243.8016065348987
 21
133.78094509968449
 31
0.0
1001
ACAD
1000
ASC_BOUNDS
1002
{
1070
    19
1005
0
1005
0
1002
}
  0
LINE
  5
51C
  8
0
 10
262.80160653489872
 20
103.7809450996847
 30
0.0
 11
240.80160653489881
 21
103.7809450996847
 31
0.0
1001
ACAD
1000
ASC_BOUNDS
1002
{
1070
    19
1005
0
1005
0
1005
0
1005
0
1002
}
  0
ARC
  5
51D
  8
0
 10
240.80160653489901
 20
104.7809450996847
 30
0.0
 40
1.0
 50
180.0
 51
270.0
1001
ACAD
1000
ASC_BOUNDS
1002
{
1070
    19
1005
0
1005
0
1005
0
1005
0
1002
}
  0
ARC
  5
51E
  8
0
 10
262.80160653489889
 20
104.7809450996847
 30
0.0
 40
1.0
 50
269.9999999999996
 51
0.0
1001
ACAD
1000
ASC_BOUNDS
1002
{
1070
    19
1005
0
1005
0
1005
0
1005
0
1002
}
  0
LINE
  5
51F
  8
0
 10
263.80160653489878
 20
117.7809450996845
 30
0.0
 11
239.80160653489889
 21
117.7809450996845
 31
0.0
  0
LINE
  5
520
  8
0
 10
264.80282531525529
 20
118.3589990320411
 30
0.0
 11
238.80160653489881
 21
118.35829536887429
 31
0.0
  0
ARC
  5
521
  8
0
 10
245.3016065348987
 20
122.2809450996847
 30
0.0
 40
1.5
 50
180.0
 51
270.0
  0
LINE
  5
522
  8
0
 10
243.80160653489861
 20
126.7809450996845
 30
0.0
 11
239.8873929725257
 21
126.7809450996845
 31
0.0
  0
LINE
  5
523
  8
2
 10
259.80160653489872
 20
126.7809450996845
 30
0.0
 11
243.8016065348987
 21
126.7809450996845
 31
0.0
  0
TEXT
  5
5CF
  8
0
 62
     3
 10
0.0
 20
0.0
 30
0.0
 40
10.0
  1
SC5S
  7
STANDARD1
  0
ENDSEC
  0
EOF
