  0
SECTION
  2
HEADER
  9
$ACADVER
  1
AC1009
  9
$INSBASE
 10
0.0
 20
0.0
 30
0.0
  9
$EXTMIN
 10
0.0
 20
-2.960436562073669
 30
0.0
  9
$EXTMAX
 10
285.39477116261992
 20
229.31322327890811
 30
0.0
  9
$LIMMIN
 10
0.0
 20
0.0
  9
$LIMMAX
 10
375.0
 20
270.0
  9
$ORTHOMODE
 70
     0
  9
$REGENMODE
 70
     1
  9
$FILLMODE
 70
     1
  9
$QTEXTMODE
 70
     0
  9
$MIRRTEXT
 70
     0
  9
$DRAGMODE
 70
     2
  9
$LTSCALE
 40
5.0
  9
$OSMODE
 70
    55
  9
$ATTMODE
 70
     1
  9
$TEXTSIZE
 40
0.2
  9
$TRACEWID
 40
0.05
  9
$TEXTSTYLE
  7
STANDARD
  9
$CLAYER
  8
0
  9
$CELTYPE
  6
BYLAYER
  9
$CECOLOR
 62
   256
  9
$DIMSCALE
 40
1.0
  9
$DIMASZ
 40
3.0
  9
$DIMEXO
 40
2.0
  9
$DIMDLI
 40
0.38
  9
$DIMRND
 40
0.0
  9
$DIMDLE
 40
0.0
  9
$DIMEXE
 40
2.0
  9
$DIMTP
 40
0.0
  9
$DIMTM
 40
0.0
  9
$DIMTXT
 40
3.2000000000000002
  9
$DIMCEN
 40
0.0
  9
$DIMTSZ
 40
0.0
  9
$DIMTOL
 70
     0
  9
$DIMLIM
 70
     0
  9
$DIMTIH
 70
     0
  9
$DIMTOH
 70
     0
  9
$DIMSE1
 70
     0
  9
$DIMSE2
 70
     0
  9
$DIMTAD
 70
     1
  9
$DIMZIN
 70
     0
  9
$DIMBLK
  1

  9
$DIMASO
 70
     1
  9
$DIMSHO
 70
     0
  9
$DIMPOST
  1

  9
$DIMAPOST
  1

  9
$DIMALT
 70
     0
  9
$DIMALTD
 70
     2
  9
$DIMALTF
 40
25.399999999999999
  9
$DIMLFAC
 40
1.0
  9
$DIMTOFL
 70
     0
  9
$DIMTVP
 40
1.6000000000000001
  9
$DIMTIX
 70
     1
  9
$DIMSOXD
 70
     0
  9
$DIMSAH
 70
     0
  9
$DIMBLK1
  1

  9
$DIMBLK2
  1

  9
$DIMSTYLE
  2
STANDARD
  9
$DIMCLRD
 70
     0
  9
$DIMCLRE
 70
     0
  9
$DIMCLRT
 70
     0
  9
$DIMTFAC
 40
1.0
  9
$DIMGAP
 40
0.09
  9
$LUNITS
 70
     2
  9
$LUPREC
 70
     4
  9
$SKETCHINC
 40
0.1
  9
$FILLETRAD
 40
2.0
  9
$AUNITS
 70
     0
  9
$AUPREC
 70
     0
  9
$MENU
  1
E:\r13\win\SUPPORT\ACAD
  9
$ELEVATION
 40
0.0
  9
$PELEVATION
 40
0.0
  9
$THICKNESS
 40
0.0
  9
$LIMCHECK
 70
     0
  9
$BLIPMODE
 70
     0
  9
$CHAMFERA
 40
0.0
  9
$CHAMFERB
 40
0.0
  9
$SKPOLY
 70
     0
  9
$TDCREATE
 40
2449840.6065509259
  9
$TDUPDATE
 40
2456598.4782493981
  9
$TDINDWG
 40
0.0077132523
  9
$TDUSRTIMER
 40
0.0077132523
  9
$USRTIMER
 70
     1
  9
$ANGBASE
 50
0.0
  9
$ANGDIR
 70
     0
  9
$PDMODE
 70
     0
  9
$PDSIZE
 40
0.0
  9
$PLINEWID
 40
0.0
  9
$COORDS
 70
     1
  9
$SPLFRAME
 70
     0
  9
$SPLINETYPE
 70
     6
  9
$SPLINESEGS
 70
     8
  9
$ATTDIA
 70
     0
  9
$ATTREQ
 70
     1
  9
$HANDLING
 70
     1
  9
$HANDSEED
  5
5E7
  9
$SURFTAB1
 70
     6
  9
$SURFTAB2
 70
     6
  9
$SURFTYPE
 70
     6
  9
$SURFU
 70
     6
  9
$SURFV
 70
     6
  9
$UCSNAME
  2

  9
$UCSORG
 10
0.0
 20
0.0
 30
0.0
  9
$UCSXDIR
 10
1.0
 20
0.0
 30
0.0
  9
$UCSYDIR
 10
0.0
 20
1.0
 30
0.0
  9
$PUCSNAME
  2

  9
$PUCSORG
 10
0.0
 20
0.0
 30
0.0
  9
$PUCSXDIR
 10
1.0
 20
0.0
 30
0.0
  9
$PUCSYDIR
 10
0.0
 20
1.0
 30
0.0
  9
$USERI1
 70
     0
  9
$USERI2
 70
     1
  9
$USERI3
 70
     1
  9
$USERI4
 70
     0
  9
$USERI5
 70
     0
  9
$USERR1
 40
0.0
  9
$USERR2
 40
0.0
  9
$USERR3
 40
0.0
  9
$USERR4
 40
0.0
  9
$USERR5
 40
0.0
  9
$WORLDVIEW
 70
     1
  9
$SHADEDGE
 70
     3
  9
$SHADEDIF
 70
    70
  9
$TILEMODE
 70
     1
  9
$MAXACTVP
 70
    16
  9
$PLIMCHECK
 70
     0
  9
$PEXTMIN
 10
1.0000000000000000E+020
 20
1.0000000000000000E+020
 30
1.0000000000000000E+020
  9
$PEXTMAX
 10
-1.0000000000000000E+020
 20
-1.0000000000000000E+020
 30
-1.0000000000000000E+020
  9
$PLIMMIN
 10
0.0
 20
0.0
  9
$PLIMMAX
 10
12.0
 20
9.0
  9
$UNITMODE
 70
     0
  9
$VISRETAIN
 70
     0
  9
$PLINEGEN
 70
     0
  9
$PSLTSCALE
 70
     0
  0
ENDSEC
  0
SECTION
  2
TABLES
  0
TABLE
  2
VPORT
 70
     1
  0
VPORT
  2
*ACTIVE
 70
     0
 10
0.0
 20
0.0
 11
1.0
 21
1.0
 12
187.49427839065231
 22
194.785247995265
 13
0.0
 23
0.0
 14
10.0
 24
10.0
 15
10.0
 25
10.0
 16
0.0
 26
0.0
 36
1.0
 17
0.0
 27
0.0
 37
0.0
 40
399.3463374158577
 41
1.7807262569832401
 42
50.0
 43
0.0
 44
0.0
 50
0.0
 51
0.0
 71
     0
 72
   500
 73
     1
 74
     0
 75
     0
 76
     0
 77
     0
 78
     1
  0
ENDTAB
  0
TABLE
  2
LTYPE
 70
     4
  0
LTYPE
  2
CONTINUOUS
 70
     0
  3
Solid Line
 72
    65
 73
     0
 40
0.0
  0
LTYPE
  2
CENTER
 70
     0
  3
____ _ ____ _ ____ _ ____ _ ____ _ ____ _ ____
 72
    65
 73
     4
 40
2.0
 49
1.25
 49
-0.25
 49
0.25
 49
-0.25
  0
LTYPE
  2
HIDDEN
 70
     0
  3
_ _ _ _ _ _ _ _ _ _ _ _ _ _ _ _ _ _ _ _ _ _ _
 72
    65
 73
     2
 40
0.375
 49
0.25
 49
-0.125
  0
LTYPE
  2
PHANTOM2
 70
     0
  3
___ _ _ ___ _ _ ___ _ _ ___ _ _
 72
    65
 73
     6
 40
1.25
 49
0.625
 49
-0.125
 49
0.125
 49
-0.125
 49
0.125
 49
-0.125
  0
ENDTAB
  0
TABLE
  2
LAYER
 70
     5
  0
LAYER
  2
0
 70
     0
 62
     7
  6
CONTINUOUS
  0
LAYER
  2
1
 70
     0
 62
     1
  6
CENTER
  0
LAYER
  2
2
 70
     0
 62
     2
  6
HIDDEN
  0
LAYER
  2
3
 70
     0
 62
     3
  6
CONTINUOUS
  0
LAYER
  2
DEFPOINTS
 70
     0
 62
     7
  6
CONTINUOUS
  0
ENDTAB
  0
TABLE
  2
STYLE
 70
     2
  0
STYLE
  2
STANDARD
 70
     0
 40
0.0
 41
1.0
 50
0.0
 71
     0
 42
0.2
  3
simplex.shx
  4
bigfont.shx
  0
STYLE
  2
STANDARD1
 70
     0
 40
0.0
 41
1.0
 50
0.0
 71
     0
 42
3.0
  3
txt
  4

  0
ENDTAB
  0
TABLE
  2
VIEW
 70
     1
  0
VIEW
  2
ALL
 70
     0
 40
270.0
 10
220.99159663865549
 20
135.0
 41
0.0
 11
0.0
 21
0.0
 31
1.0
 12
0.0
 22
0.0
 32
0.0
 42
0.0
 43
0.0
 44
0.0
 50
0.0
 71
     0
  0
ENDTAB
  0
TABLE
  2
UCS
 70
     0
  0
ENDTAB
  0
TABLE
  2
APPID
 70
    28
  0
APPID
  2
ACAD
 70
     0
  0
APPID
  2
DCO15
 70
     0
  0
APPID
  2
GENIUS_GENOREF_13
 70
     0
  0
APPID
  2
GENIUS_GENOENT_13
 70
     0
  0
APPID
  2
GENIUS_GENBH_13
 70
     0
  0
APPID
  2
GENIUS_GENOBJ_13
 70
     0
  0
APPID
  2
GENIUS_GENODEF_13
 70
     0
  0
APPID
  2
GENIUS_GENOLIS_13
 70
     0
  0
APPID
  2
GENIUS_GENOBJ-NBEHI-BHF_13
 70
     0
  0
APPID
  2
GENIUS_GENOBJ-NBEHI-BHB_13
 70
     0
  0
APPID
  2
GENIUS_GENOBJ-F-PART_13
 70
     0
  0
APPID
  2
GENIUS_GEFSTDP_13
 70
     0
  0
APPID
  2
GENIUS_GENOBJ-N-RSSYM_13
 70
     0
  0
APPID
  2
GENIUS_GENSYMENT_13
 70
     0
  0
APPID
  2
GENIUS_GENOBJ-N-TIT_13
 70
     0
  0
APPID
  2
GENIUS_GENTITLE_13
 70
     0
  0
APPID
  2
GENIUS_GENZVEED_13
 70
     0
  0
APPID
  2
GENIUS_GENOBJ-N-LEADER_13
 70
     0
  0
APPID
  2
GENIUS_GENOBJ-N-FIL_13
 70
     0
  0
APPID
  2
GENIUS_GENOBJ-N-SEC_13
 70
     0
  0
APPID
  2
GENIUS_GENOBJ-N-CRS_13
 70
     0
  0
APPID
  2
GENIUS_GENOBJ-N-ZOO_13
 70
     0
  0
APPID
  2
GENIUS_GENZOO_13
 70
     0
  0
APPID
  2
GENIUS_GENOBJ-F-TOL_13
 70
     0
  0
APPID
  2
GENIUS_GENFIL_13
 70
     0
  0
APPID
  2
GENIUS_GENOBJ-N-CHA_13
 70
     0
  0
APPID
  2
ACAD_MLEADERVER
 70
     0
  0
APPID
  2
ACAD_NAV_VCDISPLAY
 70
     0
  0
ENDTAB
  0
TABLE
  2
DIMSTYLE
 70
     1
  0
DIMSTYLE
  2
STANDARD
 70
     0
  3

  4

  5

  6

  7

 40
1.0
 41
0.18
 42
0.0625
 43
0.38
 44
0.18
 45
0.0
 46
0.0
 47
0.0
 48
0.0
140
0.18
141
0.09
142
0.0
143
25.399999999999999
144
1.0
145
0.0
146
1.0
147
0.09
 71
     0
 72
     0
 73
     1
 74
     1
 75
     0
 76
     0
 77
     0
 78
     0
170
     0
171
     2
172
     0
173
     0
174
     0
175
     0
176
     0
177
     0
178
     0
  0
ENDTAB
  0
ENDSEC
  0
SECTION
  2
BLOCKS
  0
BLOCK
  8
0
  2
$MODEL_SPACE
 70
     0
 10
0.0
 20
0.0
 30
0.0
  3
$MODEL_SPACE
  1

  0
ENDBLK
  5
131
  8
0
  0
BLOCK
 67
     1
  8
0
  2
$PAPER_SPACE
 70
     0
 10
0.0
 20
0.0
 30
0.0
  3
$PAPER_SPACE
  1

  0
ENDBLK
  5
12F
 67
     1
  8
0
  0
ENDSEC
  0
SECTION
  2
ENTITIES
  0
CIRCLE
  5
296
  8
0
 10
120.8948115791268
 20
56.813223278907998
 30
0.0
 40
2.5358983848623771
  0
CIRCLE
  5
297
  8
0
 10
200.89481157912681
 20
56.813223278907962
 30
0.0
 40
3.3235000000000001
  0
CIRCLE
  5
298
  8
3
 10
200.89481157912681
 20
56.813223278907962
 30
0.0
 40
4.0
  0
ARC
  5
299
  8
0
 10
200.89481157912681
 20
56.813223278908197
 30
0.0
 40
8.0
 50
241.02895785522711
 51
118.9710421447725
  0
ARC
  5
29A
  8
0
 10
120.8948115791268
 20
56.813223278908218
 30
0.0
 40
14.5
 50
52.148328620650119
 51
307.85167137935002
  0
LINE
  5
29B
  8
0
 10
192.72810260987691
 20
50.804525419643092
 30
0.0
 11
136.53049426591559
 21
47.872476288655378
 31
0.0
  0
ARC
  5
29C
  8
0
 10
137.15573081718361
 20
35.888775722680037
 30
0.0
 40
12.0
 50
92.986636990473627
 51
127.8516858611498
  0
ARC
  5
29D
  8
0
 10
193.14492697738891
 20
42.815391708992792
 30
0.0
 40
8.0
 50
61.028940124339222
 51
92.9866369904734
  0
ARC
  5
29E
  8
0
 10
193.14492697738891
 20
70.811054848823659
 30
0.0
 40
8.0
 50
267.01336300952659
 51
298.97105987566079
  0
ARC
  5
29F
  8
0
 10
137.15573081718361
 20
77.737670835136299
 30
0.0
 40
12.0
 50
232.1483141388502
 51
267.01336300952642
  0
LINE
  5
2A0
  8
0
 10
192.72810260987691
 20
62.821921138173302
 30
0.0
 11
136.53049426591559
 21
65.753970269161016
 31
0.0
  0
ARC
  5
2A2
  8
2
 10
200.89481157912681
 20
56.813223278908197
 30
0.0
 40
8.0
 50
118.9710421447725
 51
241.02895785522711
  0
LINE
  5
2A3
  8
1
 10
200.89481157912681
 20
69.813223278908197
 30
0.0
 11
200.89481157912681
 21
43.813223278908197
 31
0.0
  0
LINE
  5
2A4
  8
1
 10
120.8948115791268
 20
76.313223278908197
 30
0.0
 11
120.8948115791268
 21
37.313223278908197
 31
0.0
  0
LINE
  5
2A5
  8
1
 10
213.89481157912681
 20
56.813223278908083
 30
0.0
 11
101.3948115791267
 21
56.813223278908197
 31
0.0
  0
ARC
  5
2A6
  8
0
 10
110.3948115791268
 20
142.3132232789082
 30
0.0
 40
4.0
 50
160.52877936551741
 51
219.71513723182551
  0
LINE
  5
2A7
  8
2
 10
196.89481157912681
 20
151.78972327890801
 30
0.0
 11
196.89481157912681
 21
139.313223278908
 31
0.0
  0
LINE
  5
2A8
  8
2
 10
204.89481157912681
 20
151.7897232789079
 30
0.0
 11
204.89481157912681
 21
139.313223278908
 31
0.0
  0
LINE
  5
2A9
  8
2
 10
204.21831157912669
 20
151.11322327890809
 30
0.0
 11
204.21831157912689
 21
139.313223278908
 31
0.0
  0
LINE
  5
2AA
  8
2
 10
197.57131157912681
 20
151.11322327890809
 30
0.0
 11
197.57131157912681
 21
139.313223278908
 31
0.0
  0
LINE
  5
2AB
  8
2
 10
197.57131157912681
 20
151.11322327890809
 30
0.0
 11
196.3713115791268
 21
152.31322327890811
 31
0.0
  0
LINE
  5
2AC
  8
2
 10
204.21831157912669
 20
151.11322327890809
 30
0.0
 11
205.41831157912691
 21
152.31322327890811
 31
0.0
  0
ARC
  5
2AD
  8
0
 10
190.8948115791267
 20
147.31322327890811
 30
0.0
 40
2.0
 50
270.0
 51
0.0
  0
LINE
  5
2AE
  8
2
 10
122.3948115791268
 20
121.9112994902615
 30
0.0
 11
123.19865915642021
 21
121.44719787512371
 31
0.0
  0
LINE
  5
2AF
  8
2
 10
119.3948115791268
 20
121.9112994902615
 30
0.0
 11
118.5909640018334
 21
121.44719787512371
 31
0.0
  0
ARC
  5
2B0
  8
2
 10
120.8948115791268
 20
119.3132232789082
 30
0.0
 40
3.0
 50
59.999999999999439
 51
120.0000000000005
  0
ARC
  5
2B1
  8
2
 10
123.69865915642021
 20
122.3132232789081
 30
0.0
 40
1.0
 50
239.9999999999996
 51
270.0
  0
ARC
  5
2B2
  8
2
 10
118.0909640018334
 20
122.3132232789081
 30
0.0
 40
1.0
 50
270.0
 51
300.00000000000051
  0
LINE
  5
2B3
  8
0
 10
208.89481157912689
 20
152.3132232789082
 30
0.0
 11
208.89481157912681
 21
140.813223278908
 31
0.0
  0
LINE
  5
2B4
  8
0
 10
192.89481157912681
 20
152.313223278908
 30
0.0
 11
192.89481157912681
 21
147.313223278908
 31
0.0
  0
LINE
  5
2B5
  8
0
 10
195.01987144415889
 20
145.313223278908
 30
0.0
 11
108.9805980167537
 21
145.313223278908
 31
0.0
  0
LINE
  5
2B6
  8
1
 10
120.8948115791268
 20
150.31322327890811
 30
0.0
 11
120.8948115791268
 21
116.3132232789082
 31
0.0
  0
LINE
  5
2B7
  8
1
 10
200.89481157912689
 20
157.31322327890811
 30
0.0
 11
200.89481157912681
 21
134.313223278908
 31
0.0
  0
LINE
  5
36C
  8
0
 10
132.39481157912681
 20
121.3132232789081
 30
0.0
 11
109.3948115791268
 21
121.3132232789081
 31
0.0
  0
CIRCLE
  5
39E
  8
0
 10
120.8948115791268
 20
56.813223278908218
 30
0.0
 40
12.5
  0
LINE
  5
3A2
  8
0
 10
107.8948115791268
 20
138.1599113474492
 30
0.0
 11
107.8948115791268
 21
122.8132232789081
 31
0.0
  0
LINE
  5
3A3
  8
0
 10
133.89481157912681
 20
136.81322327890791
 30
0.0
 11
133.89481157912681
 21
122.8132232789081
 31
0.0
  0
ARC
  5
3A4
  8
0
 10
109.3948115791268
 20
122.8132232789082
 30
0.0
 40
1.5
 50
180.0
 51
270.00000000000023
  0
ARC
  5
3A5
  8
0
 10
132.39481157912681
 20
122.8132232789082
 30
0.0
 40
1.5
 50
270.0
 51
0.0
  0
LINE
  5
3A6
  8
0
 10
207.39481157912681
 20
139.313223278908
 30
0.0
 11
107.8948115791268
 21
139.31322327890791
 31
0.0
  0
ARC
  5
3A7
  8
0
 10
136.39481157912681
 20
136.813223278908
 30
0.0
 40
2.5
 50
89.999999999999986
 51
180.0
  0
ARC
  5
3A8
  8
0
 10
105.3948115791268
 20
138.1599113474492
 30
0.0
 40
2.5
 50
0.0
 51
39.715137231825587
  0
ARC
  5
3A9
  8
0
 10
108.9805980167537
 20
142.813223278908
 30
0.0
 40
2.5
 50
89.999999999999574
 51
160.52877936551741
  0
LINE
  5
3AA
  8
0
 10
208.89481157912681
 20
152.3132232789082
 30
0.0
 11
192.89481157912689
 21
152.31322327890811
 31
0.0
  0
LINE
  5
3AB
  8
2
 10
204.21831157912669
 20
151.11322327890809
 30
0.0
 11
197.57131157912681
 21
151.11322327890809
 31
0.0
  0
ARC
  5
3AC
  8
0
 10
207.39481157912681
 20
140.81322327890811
 30
0.0
 40
1.5
 50
270.0
 51
0.0
  0
ARC
  5
3F5
  8
0
 10
195.01987144415889
 20
147.31322327890811
 30
0.0
 40
2.0
 50
270.0
 51
0.0
  0
TEXT
  5
40B
  8
0
 10
159.0067903865249
 20
54.146995301988369
 30
0.0
 40
5.0
  1
SC
 41
0.75
 72
     1
 11
162.1317903865249
 21
54.146995301988369
 31
0.0
  0
TEXT
  5
40C
  8
0
 10
172.2552527710794
 20
54.316215809821607
 30
0.0
 40
5.0
  1
5
 41
0.75
 72
     1
 11
173.5052527710794
 21
54.316215809821607
 31
0.0
  0
LINE
  5
40D
  8
0
 10
170.84445186689649
 20
56.813223278908339
 30
0.0
 11
166.84445186689649
 21
56.813223278908339
 31
0.0
  0
CIRCLE
  5
439
  8
2
 10
120.8948115791268
 20
209.81322327890811
 30
0.0
 40
12.5
  0
LINE
  5
43A
  8
1
 10
213.89481157912681
 20
209.813223278908
 30
0.0
 11
101.3948115791267
 21
209.81322327890811
 31
0.0
  0
LINE
  5
43B
  8
1
 10
120.8948115791268
 20
229.31322327890811
 30
0.0
 11
120.8948115791268
 21
190.31322327890811
 31
0.0
  0
LINE
  5
43C
  8
1
 10
200.89481157912681
 20
222.81322327890811
 30
0.0
 11
200.89481157912681
 21
196.81322327890811
 31
0.0
  0
LINE
  5
43E
  8
0
 10
192.72810260987691
 20
215.8219211381732
 30
0.0
 11
136.53049426591559
 21
218.7539702691609
 31
0.0
  0
ARC
  5
43F
  8
0
 10
137.15573081718361
 20
230.73767083513621
 30
0.0
 40
12.0
 50
232.1483141388502
 51
267.01336300952642
  0
ARC
  5
440
  8
0
 10
193.14492697738891
 20
223.81105484882349
 30
0.0
 40
8.0
 50
267.01336300952659
 51
298.97105987566079
  0
ARC
  5
441
  8
0
 10
193.14492697738891
 20
195.81539170899271
 30
0.0
 40
8.0
 50
61.028940124339222
 51
92.9866369904734
  0
ARC
  5
442
  8
0
 10
137.15573081718361
 20
188.8887757226799
 30
0.0
 40
12.0
 50
92.986636990473627
 51
127.8516858611498
  0
LINE
  5
443
  8
0
 10
192.72810260987691
 20
203.804525419643
 30
0.0
 11
136.53049426591559
 21
200.87247628865521
 31
0.0
  0
ARC
  5
444
  8
0
 10
120.8948115791268
 20
209.81322327890811
 30
0.0
 40
14.5
 50
52.148328620650119
 51
307.85167137935002
  0
CIRCLE
  5
446
  8
3
 10
200.89481157912681
 20
209.81322327890791
 30
0.0
 40
4.0
  0
CIRCLE
  5
447
  8
0
 10
200.89481157912681
 20
209.81322327890791
 30
0.0
 40
3.3235000000000001
  0
CIRCLE
  5
448
  8
2
 10
120.8948115791268
 20
209.81322327890791
 30
0.0
 40
2.5358983848623771
  0
CIRCLE
  5
459
  8
0
 10
200.89481157912681
 20
209.81322327890791
 30
0.0
 40
8.0
  0
LINE
  5
45D
  8
0
 10
58.894811579126781
 20
152.3132232789082
 30
0.0
 11
42.894811579126888
 21
152.31322327890811
 31
0.0
  0
ARC
  5
45E
  8
0
 10
38.980598016753682
 20
142.813223278908
 30
0.0
 40
2.5
 50
89.999999999999574
 51
160.52877936551741
  0
ARC
  5
45F
  8
0
 10
35.394811579126781
 20
138.1599113474492
 30
0.0
 40
2.5
 50
0.0
 51
39.715137231825587
  0
LINE
  5
461
  8
0
 10
63.894811579126781
 20
139.313223278908
 30
0.0
 11
37.894811579126781
 21
139.31322327890791
 31
0.0
  0
ARC
  5
462
  8
0
 10
62.394811579126781
 20
122.8132232789082
 30
0.0
 40
1.5
 50
270.0
 51
0.0
  0
ARC
  5
463
  8
0
 10
39.394811579126781
 20
122.8132232789082
 30
0.0
 40
1.5
 50
180.0
 51
270.00000000000023
  0
LINE
  5
464
  8
0
 10
63.894811579126731
 20
138.1599113474492
 30
0.0
 11
63.894811579126781
 21
122.8132232789081
 31
0.0
  0
LINE
  5
465
  8
0
 10
37.894811579126781
 20
138.1599113474492
 30
0.0
 11
37.894811579126781
 21
122.8132232789081
 31
0.0
  0
LINE
  5
466
  8
0
 10
62.394811579126781
 20
121.3132232789081
 30
0.0
 11
39.394811579126781
 21
121.3132232789081
 31
0.0
  0
LINE
  5
468
  8
1
 10
50.894811579126781
 20
157.31322327890811
 30
0.0
 11
50.894811579126781
 21
116.3132232789082
 31
0.0
  0
LINE
  5
469
  8
0
 10
62.809025141499887
 20
145.313223278908
 30
0.0
 11
38.980598016753682
 21
145.313223278908
 31
0.0
  0
LINE
  5
46A
  8
0
 10
42.894811579126767
 20
152.313223278908
 30
0.0
 11
42.894811579126767
 21
145.313223278908
 31
0.0
  0
LINE
  5
46B
  8
0
 10
58.894811579126902
 20
152.3132232789082
 30
0.0
 11
58.894811579126831
 21
145.313223278908
 31
0.0
  0
ARC
  5
46C
  8
2
 10
48.090964001833413
 20
122.3132232789081
 30
0.0
 40
1.0
 50
270.0
 51
300.00000000000051
  0
ARC
  5
46D
  8
2
 10
53.698659156420263
 20
122.3132232789081
 30
0.0
 40
1.0
 50
239.9999999999996
 51
270.0
  0
ARC
  5
46E
  8
2
 10
50.894811579126781
 20
119.3132232789082
 30
0.0
 40
3.0
 50
59.999999999999439
 51
120.0000000000005
  0
LINE
  5
46F
  8
2
 10
49.394811579126781
 20
121.9112994902615
 30
0.0
 11
48.590964001833413
 21
121.44719787512371
 31
0.0
  0
LINE
  5
470
  8
2
 10
52.394811579126781
 20
121.9112994902615
 30
0.0
 11
53.198659156420263
 21
121.44719787512371
 31
0.0
  0
ARC
  5
478
  8
0
 10
40.394811579126767
 20
142.3132232789082
 30
0.0
 40
4.0
 50
160.52877936551741
 51
219.71513723182551
  0
ARC
  5
47B
  8
0
 10
61.394811579126781
 20
142.3132232789082
 30
0.0
 40
4.0
 50
320.28486276817461
 51
19.471220634482549
  0
ARC
  5
47C
  8
0
 10
66.394811579126781
 20
138.1599113474492
 30
0.0
 40
2.5
 50
140.28486276817441
 51
180.0
  0
ARC
  5
47D
  8
0
 10
62.809025141499887
 20
142.813223278908
 30
0.0
 40
2.5
 50
19.471220634482549
 51
90.000000000000426
  0
ARC
  5
47F
  8
0
 10
282.8090251415
 20
142.813223278908
 30
0.0
 40
2.5
 50
19.471220634482549
 51
90.000000000000426
  0
ARC
  5
480
  8
0
 10
286.39481157912689
 20
138.1599113474492
 30
0.0
 40
2.5
 50
140.28486276817441
 51
180.0
  0
ARC
  5
481
  8
0
 10
281.39481157912689
 20
142.3132232789082
 30
0.0
 40
4.0
 50
320.28486276817461
 51
19.471220634482549
  0
ARC
  5
482
  8
0
 10
264.39481157912712
 20
140.81322327890811
 30
0.0
 40
1.5
 50
180.0
 51
270.0
  0
ARC
  5
483
  8
0
 10
260.39481157912689
 20
142.3132232789082
 30
0.0
 40
4.0
 50
160.52877936551741
 51
219.71513723182551
  0
LINE
  5
484
  8
2
 10
272.39481157912689
 20
121.9112994902615
 30
0.0
 11
273.19865915642038
 21
121.44719787512371
 31
0.0
  0
LINE
  5
485
  8
2
 10
269.39481157912689
 20
121.9112994902615
 30
0.0
 11
268.59096400183353
 21
121.44719787512371
 31
0.0
  0
ARC
  5
486
  8
2
 10
270.89481157912689
 20
119.3132232789082
 30
0.0
 40
3.0
 50
59.999999999999439
 51
120.0000000000005
  0
ARC
  5
487
  8
2
 10
273.69865915642038
 20
122.3132232789081
 30
0.0
 40
1.0
 50
239.9999999999996
 51
270.0
  0
ARC
  5
488
  8
2
 10
268.09096400183353
 20
122.3132232789081
 30
0.0
 40
1.0
 50
270.0
 51
300.00000000000051
  0
LINE
  5
489
  8
0
 10
278.89481157912701
 20
152.31322327890811
 30
0.0
 11
278.89481157912689
 21
140.813223278908
 31
0.0
  0
LINE
  5
48A
  8
0
 10
262.89481157912689
 20
152.313223278908
 30
0.0
 11
262.89481157912689
 21
140.81322327890811
 31
0.0
  0
LINE
  5
48B
  8
0
 10
282.8090251415
 20
145.313223278908
 30
0.0
 11
278.89481157912701
 21
145.313223278908
 31
0.0
  0
LINE
  5
48C
  8
1
 10
270.89481157912689
 20
157.31322327890811
 30
0.0
 11
270.89481157912689
 21
116.3132232789081
 31
0.0
  0
LINE
  5
48D
  8
0
 10
282.39481157912689
 20
121.3132232789081
 30
0.0
 11
259.39481157912689
 21
121.3132232789081
 31
0.0
  0
LINE
  5
48E
  8
0
 10
257.89481157912689
 20
138.1599113474492
 30
0.0
 11
257.89481157912689
 21
122.8132232789081
 31
0.0
  0
LINE
  5
48F
  8
0
 10
283.89481157912689
 20
138.1599113474492
 30
0.0
 11
283.89481157912689
 21
122.8132232789081
 31
0.0
  0
ARC
  5
490
  8
0
 10
259.39481157912689
 20
122.8132232789081
 30
0.0
 40
1.5
 50
180.0
 51
270.00000000000023
  0
ARC
  5
491
  8
0
 10
282.39481157912689
 20
122.8132232789081
 30
0.0
 40
1.5
 50
270.0
 51
0.0
  0
LINE
  5
492
  8
0
 10
283.89481157912689
 20
139.31322327890791
 30
0.0
 11
257.89481157912689
 21
139.31322327890791
 31
0.0
  0
ARC
  5
493
  8
0
 10
255.39481157912689
 20
138.1599113474492
 30
0.0
 40
2.5
 50
0.0
 51
39.715137231825587
  0
ARC
  5
494
  8
0
 10
258.98059801675379
 20
142.813223278908
 30
0.0
 40
2.5
 50
89.999999999999574
 51
160.52877936551741
  0
LINE
  5
495
  8
0
 10
278.89481157912689
 20
152.31322327890811
 30
0.0
 11
262.89481157912701
 21
152.313223278908
 31
0.0
  0
ARC
  5
496
  8
0
 10
277.39481157912689
 20
140.81322327890811
 30
0.0
 40
1.5
 50
270.0
 51
0.0
  0
POLYLINE
  5
497
  8
0
 66
     1
 10
0.0
 20
0.0
 30
0.0
  0
VERTEX
  5
498
  8
0
 10
43.895894575494928
 20
145.313223278908
 30
0.0
 42
0.2070356795037472
  0
VERTEX
  5
499
  8
0
 10
44.144661853410518
 20
145.42084370105169
 30
0.0
 42
0.0960653161280732
  0
VERTEX
  5
49A
  8
0
 10
44.446214563019453
 20
145.89900971653489
 30
0.0
 42
0.0528728330390875
 70
     2
 50
68.737247059074676
  0
VERTEX
  5
49B
  8
0
 10
44.630863754791221
 20
146.57818144854929
 30
0.0
 42
0.0505275086548693
 50
68.737247059074676
  0
VERTEX
  5
49C
  8
0
 10
44.674164565496874
 20
147.313223278908
 30
0.0
 42
0.0399738866998207
  0
SEQEND
  5
49D
  8
0
  0
POLYLINE
  5
49E
  8
0
 66
     1
 10
0.0
 20
0.0
 30
0.0
  0
VERTEX
  5
49F
  8
0
 10
57.893728582758683
 20
145.313223278908
 30
0.0
 42
-0.2070356795037472
  0
VERTEX
  5
4A0
  8
0
 10
57.644961304843029
 20
145.42084370105169
 30
0.0
 42
-0.0960653161280732
  0
VERTEX
  5
4A1
  8
0
 10
57.343408595234173
 20
145.89900971653489
 30
0.0
 42
-0.0528728330390875
 70
     2
 50
111.2627529409253
  0
VERTEX
  5
4A2
  8
0
 10
57.158759403462341
 20
146.57818144854929
 30
0.0
 42
-0.0505275086548693
  0
VERTEX
  5
4A3
  8
0
 10
57.115458592756681
 20
147.313223278908
 30
0.0
 42
-0.0399738866998207
  0
SEQEND
  5
4A4
  8
0
  0
LINE
  5
4A6
  8
0
 10
262.89481157912701
 20
145.313223278908
 30
0.0
 11
258.98059801675379
 21
145.313223278908
 31
0.0
  0
TEXT
  5
551
  8
0
 62
     3
 10
0.0
 20
0.0
 30
0.0
 40
10.0
  1
SC5
  7
STANDARD1
  0
ENDSEC
  0
EOF
