  0
SECTION
  2
HEADER
  9
$ACADVER
  1
AC1009
  9
$INSBASE
 10
0.0
 20
0.0
 30
0.0
  9
$EXTMIN
 10
0.0
 20
-2.960436562073669
 30
0.0
  9
$EXTMAX
 10
169.6446053803206
 20
153.50141910610409
 30
0.0
  9
$LIMMIN
 10
0.0
 20
0.0
  9
$LIMMAX
 10
375.0
 20
270.0
  9
$ORTHOMODE
 70
     0
  9
$REGENMODE
 70
     1
  9
$FILLMODE
 70
     1
  9
$QTEXTMODE
 70
     0
  9
$MIRRTEXT
 70
     0
  9
$DRAGMODE
 70
     2
  9
$LTSCALE
 40
5.0
  9
$OSMODE
 70
    55
  9
$ATTMODE
 70
     1
  9
$TEXTSIZE
 40
0.2
  9
$TRACEWID
 40
0.05
  9
$TEXTSTYLE
  7
STANDARD
  9
$CLAYER
  8
0
  9
$CELTYPE
  6
BYLAYER
  9
$CECOLOR
 62
   256
  9
$DIMSCALE
 40
1.0
  9
$DIMASZ
 40
3.0
  9
$DIMEXO
 40
2.0
  9
$DIMDLI
 40
0.38
  9
$DIMRND
 40
0.0
  9
$DIMDLE
 40
0.0
  9
$DIMEXE
 40
2.0
  9
$DIMTP
 40
0.0
  9
$DIMTM
 40
0.0
  9
$DIMTXT
 40
3.2000000000000002
  9
$DIMCEN
 40
0.0
  9
$DIMTSZ
 40
0.0
  9
$DIMTOL
 70
     0
  9
$DIMLIM
 70
     0
  9
$DIMTIH
 70
     0
  9
$DIMTOH
 70
     0
  9
$DIMSE1
 70
     0
  9
$DIMSE2
 70
     0
  9
$DIMTAD
 70
     1
  9
$DIMZIN
 70
     0
  9
$DIMBLK
  1

  9
$DIMASO
 70
     1
  9
$DIMSHO
 70
     0
  9
$DIMPOST
  1

  9
$DIMAPOST
  1

  9
$DIMALT
 70
     0
  9
$DIMALTD
 70
     2
  9
$DIMALTF
 40
25.399999999999999
  9
$DIMLFAC
 40
1.0
  9
$DIMTOFL
 70
     0
  9
$DIMTVP
 40
1.6000000000000001
  9
$DIMTIX
 70
     1
  9
$DIMSOXD
 70
     0
  9
$DIMSAH
 70
     0
  9
$DIMBLK1
  1

  9
$DIMBLK2
  1

  9
$DIMSTYLE
  2
STANDARD
  9
$DIMCLRD
 70
     0
  9
$DIMCLRE
 70
     0
  9
$DIMCLRT
 70
     0
  9
$DIMTFAC
 40
1.0
  9
$DIMGAP
 40
0.09
  9
$LUNITS
 70
     2
  9
$LUPREC
 70
     4
  9
$SKETCHINC
 40
0.1
  9
$FILLETRAD
 40
2.0
  9
$AUNITS
 70
     0
  9
$AUPREC
 70
     0
  9
$MENU
  1
E:\r13\win\SUPPORT\ACAD
  9
$ELEVATION
 40
0.0
  9
$PELEVATION
 40
0.0
  9
$THICKNESS
 40
0.0
  9
$LIMCHECK
 70
     0
  9
$BLIPMODE
 70
     0
  9
$CHAMFERA
 40
0.0
  9
$CHAMFERB
 40
0.0
  9
$SKPOLY
 70
     0
  9
$TDCREATE
 40
2449840.6069097221
  9
$TDUPDATE
 40
2456598.4780210769
  9
$TDINDWG
 40
0.0126432755
  9
$TDUSRTIMER
 40
0.0126432755
  9
$USRTIMER
 70
     1
  9
$ANGBASE
 50
0.0
  9
$ANGDIR
 70
     0
  9
$PDMODE
 70
     0
  9
$PDSIZE
 40
0.0
  9
$PLINEWID
 40
0.0
  9
$COORDS
 70
     1
  9
$SPLFRAME
 70
     0
  9
$SPLINETYPE
 70
     6
  9
$SPLINESEGS
 70
     8
  9
$ATTDIA
 70
     0
  9
$ATTREQ
 70
     1
  9
$HANDLING
 70
     1
  9
$HANDSEED
  5
67D
  9
$SURFTAB1
 70
     6
  9
$SURFTAB2
 70
     6
  9
$SURFTYPE
 70
     6
  9
$SURFU
 70
     6
  9
$SURFV
 70
     6
  9
$UCSNAME
  2

  9
$UCSORG
 10
0.0
 20
0.0
 30
0.0
  9
$UCSXDIR
 10
1.0
 20
0.0
 30
0.0
  9
$UCSYDIR
 10
0.0
 20
1.0
 30
0.0
  9
$PUCSNAME
  2

  9
$PUCSORG
 10
0.0
 20
0.0
 30
0.0
  9
$PUCSXDIR
 10
1.0
 20
0.0
 30
0.0
  9
$PUCSYDIR
 10
0.0
 20
1.0
 30
0.0
  9
$USERI1
 70
     0
  9
$USERI2
 70
     1
  9
$USERI3
 70
     1
  9
$USERI4
 70
     0
  9
$USERI5
 70
     0
  9
$USERR1
 40
0.0
  9
$USERR2
 40
0.0
  9
$USERR3
 40
0.0
  9
$USERR4
 40
0.0
  9
$USERR5
 40
0.0
  9
$WORLDVIEW
 70
     1
  9
$SHADEDGE
 70
     3
  9
$SHADEDIF
 70
    70
  9
$TILEMODE
 70
     1
  9
$MAXACTVP
 70
    16
  9
$PLIMCHECK
 70
     0
  9
$PEXTMIN
 10
1.0000000000000000E+020
 20
1.0000000000000000E+020
 30
1.0000000000000000E+020
  9
$PEXTMAX
 10
-1.0000000000000000E+020
 20
-1.0000000000000000E+020
 30
-1.0000000000000000E+020
  9
$PLIMMIN
 10
0.0
 20
0.0
  9
$PLIMMAX
 10
12.0
 20
9.0
  9
$UNITMODE
 70
     0
  9
$VISRETAIN
 70
     0
  9
$PLINEGEN
 70
     0
  9
$PSLTSCALE
 70
     0
  0
ENDSEC
  0
SECTION
  2
TABLES
  0
TABLE
  2
VPORT
 70
     1
  0
VPORT
  2
*ACTIVE
 70
     0
 10
0.0
 20
0.0
 11
1.0
 21
1.0
 12
187.49427839065231
 22
194.785247995265
 13
0.0
 23
0.0
 14
10.0
 24
10.0
 15
10.0
 25
10.0
 16
0.0
 26
0.0
 36
1.0
 17
0.0
 27
0.0
 37
0.0
 40
399.3463374158577
 41
1.7807262569832401
 42
50.0
 43
0.0
 44
0.0
 50
0.0
 51
0.0
 71
     0
 72
   500
 73
     1
 74
     0
 75
     0
 76
     0
 77
     0
 78
     2
  0
ENDTAB
  0
TABLE
  2
LTYPE
 70
     4
  0
LTYPE
  2
CONTINUOUS
 70
     0
  3
Solid Line
 72
    65
 73
     0
 40
0.0
  0
LTYPE
  2
CENTER
 70
     0
  3
____ _ ____ _ ____ _ ____ _ ____ _ ____ _ ____
 72
    65
 73
     4
 40
2.0
 49
1.25
 49
-0.25
 49
0.25
 49
-0.25
  0
LTYPE
  2
HIDDEN
 70
     0
  3
_ _ _ _ _ _ _ _ _ _ _ _ _ _ _ _ _ _ _ _ _ _ _
 72
    65
 73
     2
 40
0.375
 49
0.25
 49
-0.125
  0
LTYPE
  2
PHANTOM2
 70
     0
  3
___ _ _ ___ _ _ ___ _ _ ___ _ _
 72
    65
 73
     6
 40
1.25
 49
0.625
 49
-0.125
 49
0.125
 49
-0.125
 49
0.125
 49
-0.125
  0
ENDTAB
  0
TABLE
  2
LAYER
 70
     5
  0
LAYER
  2
0
 70
     0
 62
     7
  6
CONTINUOUS
  0
LAYER
  2
1
 70
     0
 62
     1
  6
CENTER
  0
LAYER
  2
2
 70
     0
 62
     2
  6
HIDDEN
  0
LAYER
  2
3
 70
     0
 62
     3
  6
CONTINUOUS
  0
LAYER
  2
DEFPOINTS
 70
     0
 62
     7
  6
CONTINUOUS
  0
ENDTAB
  0
TABLE
  2
STYLE
 70
     2
  0
STYLE
  2
STANDARD
 70
     0
 40
0.0
 41
1.0
 50
0.0
 71
     0
 42
0.2
  3
simplex.shx
  4
bdhjb.shx
  0
STYLE
  2
STANDARD1
 70
     0
 40
0.0
 41
1.0
 50
0.0
 71
     0
 42
3.0
  3
txt
  4

  0
ENDTAB
  0
TABLE
  2
VIEW
 70
     1
  0
VIEW
  2
ALL
 70
     0
 40
270.0
 10
220.99159663865549
 20
135.0
 41
0.0
 11
0.0
 21
0.0
 31
1.0
 12
0.0
 22
0.0
 32
0.0
 42
0.0
 43
0.0
 44
0.0
 50
0.0
 71
     0
  0
ENDTAB
  0
TABLE
  2
UCS
 70
     0
  0
ENDTAB
  0
TABLE
  2
APPID
 70
    28
  0
APPID
  2
ACAD
 70
     0
  0
APPID
  2
DCO15
 70
     0
  0
APPID
  2
GENIUS_GENOREF_13
 70
     0
  0
APPID
  2
GENIUS_GENOENT_13
 70
     0
  0
APPID
  2
GENIUS_GENBH_13
 70
     0
  0
APPID
  2
GENIUS_GENOBJ_13
 70
     0
  0
APPID
  2
GENIUS_GENODEF_13
 70
     0
  0
APPID
  2
GENIUS_GENOLIS_13
 70
     0
  0
APPID
  2
GENIUS_GENOBJ-NBEHI-BHF_13
 70
     0
  0
APPID
  2
GENIUS_GENOBJ-NBEHI-BHB_13
 70
     0
  0
APPID
  2
GENIUS_GENOBJ-F-PART_13
 70
     0
  0
APPID
  2
GENIUS_GEFSTDP_13
 70
     0
  0
APPID
  2
GENIUS_GENOBJ-N-RSSYM_13
 70
     0
  0
APPID
  2
GENIUS_GENSYMENT_13
 70
     0
  0
APPID
  2
GENIUS_GENOBJ-N-TIT_13
 70
     0
  0
APPID
  2
GENIUS_GENTITLE_13
 70
     0
  0
APPID
  2
GENIUS_GENZVEED_13
 70
     0
  0
APPID
  2
GENIUS_GENOBJ-N-LEADER_13
 70
     0
  0
APPID
  2
GENIUS_GENOBJ-N-FIL_13
 70
     0
  0
APPID
  2
GENIUS_GENOBJ-N-SEC_13
 70
     0
  0
APPID
  2
GENIUS_GENOBJ-N-CRS_13
 70
     0
  0
APPID
  2
GENIUS_GENOBJ-N-ZOO_13
 70
     0
  0
APPID
  2
GENIUS_GENZOO_13
 70
     0
  0
APPID
  2
GENIUS_GENOBJ-F-TOL_13
 70
     0
  0
APPID
  2
GENIUS_GENFIL_13
 70
     0
  0
APPID
  2
GENIUS_GENOBJ-N-CHA_13
 70
     0
  0
APPID
  2
ACAD_MLEADERVER
 70
     0
  0
APPID
  2
ACAD_NAV_VCDISPLAY
 70
     0
  0
ENDTAB
  0
TABLE
  2
DIMSTYLE
 70
     1
  0
DIMSTYLE
  2
STANDARD
 70
     0
  3

  4

  5

  6

  7

 40
1.0
 41
0.18
 42
0.0625
 43
0.38
 44
0.18
 45
0.0
 46
0.0
 47
0.0
 48
0.0
140
0.18
141
0.09
142
0.0
143
25.399999999999999
144
1.0
145
0.0
146
1.0
147
0.09
 71
     0
 72
     0
 73
     1
 74
     1
 75
     0
 76
     0
 77
     0
 78
     0
170
     0
171
     2
172
     0
173
     0
174
     0
175
     0
176
     0
177
     0
178
     0
  0
ENDTAB
  0
ENDSEC
  0
SECTION
  2
BLOCKS
  0
BLOCK
  8
0
  2
$MODEL_SPACE
 70
     0
 10
0.0
 20
0.0
 30
0.0
  3
$MODEL_SPACE
  1

  0
ENDBLK
  5
15C
  8
0
  0
BLOCK
 67
     1
  8
0
  2
$PAPER_SPACE
 70
     0
 10
0.0
 20
0.0
 30
0.0
  3
$PAPER_SPACE
  1

  0
ENDBLK
  5
15A
 67
     1
  8
0
  0
ENDSEC
  0
SECTION
  2
ENTITIES
  0
CIRCLE
  5
29C
  8
0
 10
77.644605380232804
 20
39.501419106104009
 30
0.0
 40
5.6568542494923122
  0
CIRCLE
  5
29D
  8
3
 10
109.6446053802328
 20
39.501419106104009
 30
0.0
 40
3.0
  0
CIRCLE
  5
29E
  8
0
 10
109.6446053802328
 20
39.501419106104009
 30
0.0
 40
2.458499999999999
  0
CIRCLE
  5
29F
  8
0
 10
77.644605380232861
 20
39.501419106104009
 30
0.0
 40
8.5
  0
ARC
  5
2A0
  8
0
 10
109.6446053802328
 20
39.501419106104009
 30
0.0
 40
7.0
 50
237.95839177236761
 51
122.0416082276323
  0
ARC
  5
2A1
  8
0
 10
77.644605380232861
 20
39.501419106104009
 30
0.0
 40
10.0
 50
53.498705336109637
 51
306.50129466389041
  0
LINE
  5
2A2
  8
0
 10
87.555704566674081
 20
32.992529024747569
 30
0.0
 11
102.1506300944726
 21
34.452021577528399
 31
0.0
  0
ARC
  5
2A3
  8
0
 10
88.351734318842475
 20
25.03223150306772
 30
0.0
 40
8.0
 50
95.710593137502642
 51
126.50126229843249
  0
ARC
  5
2A4
  8
0
 10
102.7476524085989
 20
28.48179843626864
 30
0.0
 40
6.0
 50
57.958400794998731
 51
95.710593137502642
  0
ARC
  5
2A5
  8
0
 10
102.7476524085989
 20
50.52103977593962
 30
0.0
 40
6.0
 50
264.28940686249689
 51
302.04159920500121
  0
ARC
  5
2A6
  8
0
 10
88.351734318842475
 20
53.970606709140291
 30
0.0
 40
8.0
 50
233.49873770156711
 51
264.28940686249689
  0
LINE
  5
2A7
  8
0
 10
87.555704566674081
 20
46.010309187460393
 30
0.0
 11
102.1506300944726
 21
44.550816634679563
 31
0.0
  0
ARC
  5
2A8
  8
2
 10
109.6446053802328
 20
39.501419106104009
 30
0.0
 40
7.0
 50
122.0416082276323
 51
237.95839177236761
  0
LINE
  5
2AA
  8
1
 10
109.6446053802328
 20
51.501419106103917
 30
0.0
 11
109.6446053802328
 21
27.501419106103931
 31
0.0
  0
LINE
  5
2AB
  8
1
 10
77.644605380232861
 20
54.501419106103981
 30
0.0
 11
77.644605380232861
 21
24.501419106103981
 31
0.0
  0
LINE
  5
2AC
  8
1
 10
121.6446053802328
 20
39.501419106103931
 30
0.0
 11
62.644605380232861
 21
39.501419106103981
 31
0.0
  0
ARC
  5
2BB
  8
0
 10
66.644605380232903
 20
89.226501888468675
 30
0.0
 40
2.5
 50
0.0
 51
43.341758227223451
  0
ARC
  5
2BC
  8
0
 10
70.144605380143787
 20
93.001419106104009
 30
0.0
 40
2.5
 50
90.000000000000398
 51
180.0
  0
ARC
  5
2BD
  8
0
 10
70.644605380232917
 20
93.001419106104009
 30
0.0
 40
3.0
 50
180.0
 51
223.34175822722349
  0
LINE
  5
2BE
  8
2
 10
106.6446053802328
 20
101.04291910610409
 30
0.0
 11
106.6446053802328
 21
90.501419106104336
 31
0.0
  0
LINE
  5
2BF
  8
2
 10
112.6446053802329
 20
101.04291910610409
 30
0.0
 11
112.6446053802328
 21
90.501419106104152
 31
0.0
  0
LINE
  5
2C0
  8
2
 10
107.1861053802329
 20
100.50141910610409
 30
0.0
 11
107.1861053802329
 21
90.501419106104152
 31
0.0
  0
LINE
  5
2C1
  8
2
 10
112.1031053802328
 20
100.50141910610409
 30
0.0
 11
112.1031053802328
 21
90.501419106104038
 31
0.0
  0
LINE
  5
2C2
  8
2
 10
112.1031053802328
 20
100.50141910610409
 30
0.0
 11
113.1031053802328
 21
101.501419106104
 31
0.0
  0
LINE
  5
2C3
  8
2
 10
107.1861053802329
 20
100.50141910610409
 30
0.0
 11
106.1861053802329
 21
101.50141910610409
 31
0.0
  0
ARC
  5
2C4
  8
0
 10
100.6446053802329
 20
97.501419106104123
 30
0.0
 40
2.0
 50
270.0
 51
0.0
  0
ARC
  5
2C5
  8
0
 10
88.144605380232917
 20
88.501419106103896
 30
0.0
 40
2.0
 50
90.000000000000398
 51
177.7581880348479
  0
LINE
  5
2C6
  8
1
 10
109.6446053802328
 20
106.50141910610409
 30
0.0
 11
109.6446053802328
 21
85.501419106103924
 31
0.0
  0
ARC
  5
2C7
  8
0
 10
115.1446053802329
 20
92.001419106104123
 30
0.0
 40
1.5
 50
270.0000000000004
 51
0.0
  0
LINE
  5
2C8
  8
0
 10
116.6446053802328
 20
101.50141910610409
 30
0.0
 11
116.6446053802328
 21
92.001419106104024
 31
0.0
  0
LINE
  5
2C9
  8
0
 10
102.6446053802328
 20
101.50141910610409
 30
0.0
 11
102.6446053802328
 21
97.501419106104095
 31
0.0
  0
LINE
  5
2CA
  8
0
 10
115.1446053802328
 20
90.501419106104038
 30
0.0
 11
69.144605380232804
 21
90.501419106103725
 31
0.0
  0
LINE
  5
2CB
  8
0
 10
84.144605380232861
 20
79.501419106104095
 30
0.0
 11
71.144605380232861
 21
79.501419106103981
 31
0.0
  0
LINE
  5
2CC
  8
0
 10
69.144605380232861
 20
89.226501888468647
 30
0.0
 11
69.144605380232861
 21
88.578769375293632
 31
0.0
  0
LINE
  5
2CD
  8
0
 10
103.93086053803221
 20
95.501419106104095
 30
0.0
 11
70.14460538014373
 21
95.501419106103967
 31
0.0
  0
LINE
  5
2CE
  8
1
 10
77.644605380232861
 20
100.5014191061039
 30
0.0
 11
77.644605380232861
 21
74.501419106103981
 31
0.0
  0
CIRCLE
  5
392
  8
0
 10
77.644605380232861
 20
39.501419106104009
 30
0.0
 40
8.0
  0
LINE
  5
393
  8
0
 10
72.251027187810564
 20
39.238143049033972
 30
0.0
 11
73.800673454907155
 21
37.68849678193726
 31
0.0
  0
LINE
  5
394
  8
0
 10
77.90788143730299
 20
44.89499729852627
 30
0.0
 11
79.457527704399581
 21
43.345351031429679
 31
0.0
  0
LINE
  5
395
  8
0
 10
83.038183572655214
 20
39.238143049033972
 30
0.0
 11
81.488537305558694
 21
37.688496781937367
 31
0.0
  0
LINE
  5
396
  8
0
 10
77.381329323162731
 20
44.89499729852627
 30
0.0
 11
75.83168305606614
 21
43.345351031429573
 31
0.0
  0
LINE
  5
397
  8
0
 10
70.144605380232861
 20
88.001419106103967
 30
0.0
 11
69.144605380232861
 21
88.578769375293632
 31
0.0
  0
LINE
  5
398
  8
0
 10
85.144605380232861
 20
88.001419106103967
 30
0.0
 11
86.146136107061807
 21
88.579653140840378
 31
0.0
  0
LINE
  5
39A
  8
2
 10
71.987751130739184
 20
79.501419106103981
 30
0.0
 11
71.987751130739184
 21
95.501419106103967
 31
0.0
  0
LINE
  5
39B
  8
2
 10
83.301459629724832
 20
79.501419106104095
 30
0.0
 11
83.301459629724832
 21
95.501419106104038
 31
0.0
  0
LINE
  5
39C
  8
2
 10
77.644605380234111
 20
79.501419106103981
 30
0.0
 11
77.644605380234111
 21
95.501419106104038
 31
0.0
  0
ARC
  5
3CC
  8
2
 10
74.816178255486705
 20
77.91563266846893
 30
0.0
 40
3.2426406871244078
 50
29.277613190472099
 51
150.7223868095281
  0
ARC
  5
3CD
  8
2
 10
80.47303250497913
 20
77.91563266846893
 30
0.0
 40
3.2426406871244078
 50
29.277613190471889
 51
150.7223868095279
  0
LINE
  5
3E0
  8
0
 10
75.831683056066311
 20
35.657487180778283
 30
0.0
 11
77.381329323162845
 21
34.107840913681571
 31
0.0
  0
LINE
  5
3E1
  8
0
 10
79.457527704399411
 20
35.657487180778162
 30
0.0
 11
77.907881437302876
 21
34.107840913681571
 31
0.0
  0
LINE
  5
3E2
  8
0
 10
81.488537305558566
 20
41.314341430270701
 30
0.0
 11
83.038183572655214
 21
39.764695163173997
 31
0.0
  0
LINE
  5
3E3
  8
0
 10
73.800673454907269
 20
41.314341430270701
 30
0.0
 11
72.251027187810564
 21
39.76469516317411
 31
0.0
  0
ARC
  5
3EB
  8
0
 10
77.644605380232861
 20
39.501419106104009
 30
0.0
 40
5.4000000000000004
 50
357.20544640373163
 51
2.7945535962683361
  0
ARC
  5
3EC
  8
0
 10
77.644605380232861
 20
39.501419106104009
 30
0.0
 40
5.4000000000000004
 50
87.205446403732068
 51
92.794553596268742
  0
ARC
  5
3ED
  8
0
 10
77.644605380232861
 20
39.501419106104009
 30
0.0
 40
5.4000000000000004
 50
177.2054464037316
 51
182.79455359626829
  0
ARC
  5
3EE
  8
0
 10
77.644605380232861
 20
39.501419106104009
 30
0.0
 40
5.4000000000000004
 50
267.20544640373299
 51
272.79455359626672
  0
ARC
  5
3F9
  8
0
 10
77.644605380232861
 20
39.501419106104009
 30
0.0
 40
4.25
 50
25.250077204357201
 51
64.749922795646057
  0
ARC
  5
3FA
  8
0
 10
77.644605380232861
 20
39.501419106104009
 30
0.0
 40
4.25
 50
295.25007720434991
 51
334.74992279564651
  0
ARC
  5
3FE
  8
0
 10
77.644605380232861
 20
39.501419106104009
 30
0.0
 40
4.25
 50
115.25007720435499
 51
154.74992279563929
  0
ARC
  5
400
  8
0
 10
77.644605380232861
 20
39.501419106104009
 30
0.0
 40
4.25
 50
205.25007720435721
 51
244.7499227956468
  0
LINE
  5
401
  8
0
 10
70.144605380232861
 20
80.501419106103967
 30
0.0
 11
70.144605380232861
 21
88.001419106103967
 31
0.0
  0
LINE
  5
402
  8
0
 10
85.144605380232861
 20
80.501419106104095
 30
0.0
 11
85.144605380232861
 21
88.001419106103967
 31
0.0
  0
ARC
  5
403
  8
0
 10
84.144605380232903
 20
80.501419106104109
 30
0.0
 40
1.0
 50
270.0000000000004
 51
0.0
  0
ARC
  5
404
  8
0
 10
71.144605380232903
 20
80.501419106104009
 30
0.0
 40
1.0
 50
180.0
 51
270.0000000000004
  0
LINE
  5
412
  8
2
 10
112.1031053802328
 20
100.50141910610409
 30
0.0
 11
107.1861053802329
 21
100.50141910610409
 31
0.0
  0
LINE
  5
413
  8
0
 10
116.6446053802328
 20
101.50141910610409
 30
0.0
 11
102.6446053802328
 21
101.50141910610409
 31
0.0
  0
LINE
  5
418
  8
0
 62
     3
 10
116.4984773341381
 20
101.50141910610409
 30
0.0
 11
116.6446053802328
 21
101.35529106000941
 31
0.0
  0
LINE
  5
48D
  8
0
 10
86.146136107061864
 20
88.579653140840534
 30
0.0
 11
69.144605380232861
 21
88.578769375293632
 31
0.0
  0
LINE
  5
48E
  8
0
 10
70.144605380232861
 20
88.001419106103967
 30
0.0
 11
85.144605380232804
 21
88.001419106103953
 31
0.0
  0
ARC
  5
490
  8
0
 10
103.93086053803221
 20
97.501419106104166
 30
0.0
 40
2.0
 50
270.0
 51
0.0
  0
TEXT
  5
491
  8
0
 10
100.01063495861931
 20
37.277767841978317
 30
0.0
 40
4.5
  1
1
 41
0.75
 72
     1
 11
100.412420672905
 21
37.277767841978317
 31
0.0
  0
LINE
  5
492
  8
0
 10
98.697303221959046
 20
39.501419106103533
 30
0.0
 11
96.097303221960033
 21
39.501419106103533
 31
0.0
  0
TEXT
  5
493
  8
0
 10
88.355954691228135
 20
37.095530372004021
 30
0.0
 40
4.5
  1
SC
 41
0.75
 72
     1
 11
91.168454691228135
 21
37.095530372004021
 31
0.0
  0
ARC
  5
497
  8
0
 10
77.644605380232861
 20
138.50141910610421
 30
0.0
 40
4.25
 50
205.25007720435721
 51
244.7499227956468
  0
ARC
  5
498
  8
0
 10
77.644605380232861
 20
138.50141910610421
 30
0.0
 40
4.25
 50
115.25007720435499
 51
154.74992279563929
  0
ARC
  5
499
  8
0
 10
77.644605380232861
 20
138.50141910610421
 30
0.0
 40
4.25
 50
295.25007720434991
 51
334.74992279564651
  0
ARC
  5
49A
  8
0
 10
77.644605380232861
 20
138.50141910610421
 30
0.0
 40
4.25
 50
25.250077204357201
 51
64.749922795646057
  0
ARC
  5
49B
  8
0
 10
77.644605380232861
 20
138.50141910610421
 30
0.0
 40
5.4000000000000004
 50
267.20544640373299
 51
272.79455359626672
  0
ARC
  5
49C
  8
0
 10
77.644605380232861
 20
138.50141910610421
 30
0.0
 40
5.4000000000000004
 50
177.2054464037316
 51
182.79455359626829
  0
ARC
  5
49D
  8
0
 10
77.644605380232861
 20
138.50141910610421
 30
0.0
 40
5.4000000000000004
 50
87.205446403732068
 51
92.794553596268742
  0
ARC
  5
49E
  8
0
 10
77.644605380232861
 20
138.50141910610421
 30
0.0
 40
5.4000000000000004
 50
357.20544640373163
 51
2.7945535962683361
  0
LINE
  5
49F
  8
0
 10
73.800673454907269
 20
140.3143414302709
 30
0.0
 11
72.251027187810564
 21
138.76469516317431
 31
0.0
  0
LINE
  5
4A0
  8
0
 10
81.488537305558566
 20
140.3143414302709
 30
0.0
 11
83.038183572655214
 21
138.7646951631742
 31
0.0
  0
LINE
  5
4A1
  8
0
 10
79.457527704399411
 20
134.6574871807783
 30
0.0
 11
77.907881437302876
 21
133.10784091368171
 31
0.0
  0
LINE
  5
4A2
  8
0
 10
75.831683056066311
 20
134.65748718077839
 30
0.0
 11
77.381329323162845
 21
133.10784091368171
 31
0.0
  0
LINE
  5
4A3
  8
0
 10
77.381329323162731
 20
143.89499729852639
 30
0.0
 11
75.83168305606614
 21
142.34535103142969
 31
0.0
  0
LINE
  5
4A4
  8
0
 10
83.038183572655214
 20
138.23814304903411
 30
0.0
 11
81.488537305558694
 21
136.68849678193749
 31
0.0
  0
LINE
  5
4A5
  8
0
 10
77.90788143730299
 20
143.89499729852639
 30
0.0
 11
79.457527704399581
 21
142.3453510314298
 31
0.0
  0
LINE
  5
4A6
  8
0
 10
72.251027187810564
 20
138.23814304903411
 30
0.0
 11
73.800673454907155
 21
136.6884967819374
 31
0.0
  0
CIRCLE
  5
4A7
  8
2
 10
77.644605380232861
 20
138.50141910610421
 30
0.0
 40
8.0
  0
LINE
  5
4A8
  8
1
 10
121.6446053802328
 20
138.50141910610409
 30
0.0
 11
62.644605380232861
 21
138.50141910610409
 31
0.0
  0
LINE
  5
4A9
  8
1
 10
77.644605380232861
 20
153.50141910610409
 30
0.0
 11
77.644605380232861
 21
123.50141910610409
 31
0.0
  0
LINE
  5
4AA
  8
1
 10
109.6446053802328
 20
150.50141910610409
 30
0.0
 11
109.6446053802328
 21
126.50141910610409
 31
0.0
  0
LINE
  5
4AC
  8
0
 10
87.555704566674081
 20
145.01030918746051
 30
0.0
 11
102.1506300944726
 21
143.55081663467971
 31
0.0
  0
ARC
  5
4AD
  8
0
 10
88.351734318842475
 20
152.97060670914041
 30
0.0
 40
8.0
 50
233.49873770156711
 51
264.28940686249689
  0
ARC
  5
4AE
  8
0
 10
102.7476524085989
 20
149.52103977593981
 30
0.0
 40
6.0
 50
264.28940686249689
 51
302.04159920500121
  0
ARC
  5
4AF
  8
0
 10
102.7476524085989
 20
127.4817984362688
 30
0.0
 40
6.0
 50
57.958400794998731
 51
95.710593137502642
  0
ARC
  5
4B0
  8
0
 10
88.351734318842475
 20
124.03223150306791
 30
0.0
 40
8.0
 50
95.710593137502642
 51
126.50126229843249
  0
LINE
  5
4B1
  8
0
 10
87.555704566674081
 20
131.99252902474771
 30
0.0
 11
102.1506300944726
 21
133.4520215775286
 31
0.0
  0
ARC
  5
4B2
  8
0
 10
77.644605380232861
 20
138.50141910610421
 30
0.0
 40
10.0
 50
53.498705336109637
 51
306.50129466389041
  0
CIRCLE
  5
4B4
  8
2
 10
77.644605380232861
 20
138.50141910610421
 30
0.0
 40
8.5
  0
CIRCLE
  5
4B5
  8
0
 10
109.6446053802328
 20
138.50141910610421
 30
0.0
 40
2.458499999999999
  0
CIRCLE
  5
4B6
  8
3
 10
109.6446053802328
 20
138.50141910610421
 30
0.0
 40
3.0
  0
CIRCLE
  5
4B7
  8
2
 10
77.644605380232804
 20
138.50141910610421
 30
0.0
 40
5.6568542494923122
  0
CIRCLE
  5
4D5
  8
0
 10
109.6446053802328
 20
138.50141910610409
 30
0.0
 40
7.0
  0
LINE
  5
4D7
  8
0
 10
20.144605380232861
 20
88.001419106103967
 30
0.0
 11
35.144605380232811
 21
88.001419106103953
 31
0.0
  0
LINE
  5
4D8
  8
0
 10
36.146136107061857
 20
88.579653140840534
 30
0.0
 11
19.144605380232861
 21
88.578769375293632
 31
0.0
  0
LINE
  5
4D9
  8
0
 62
     3
 10
34.498477334139409
 20
101.50141910610409
 30
0.0
 11
34.644605380234111
 21
101.35529106000941
 31
0.0
  0
LINE
  5
4DA
  8
0
 10
34.644605380234111
 20
101.50141910610409
 30
0.0
 11
20.644605380234111
 21
101.50141910610409
 31
0.0
  0
ARC
  5
4DC
  8
0
 10
21.144605380232921
 20
80.501419106104009
 30
0.0
 40
1.0
 50
180.0
 51
270.0000000000004
  0
ARC
  5
4DD
  8
0
 10
34.144605380232917
 20
80.501419106104109
 30
0.0
 40
1.0
 50
270.0000000000004
 51
0.0
  0
LINE
  5
4DE
  8
0
 10
35.144605380232861
 20
80.501419106104095
 30
0.0
 11
35.144605380232861
 21
88.001419106103967
 31
0.0
  0
LINE
  5
4DF
  8
0
 10
20.144605380232861
 20
80.501419106103967
 30
0.0
 11
20.144605380232861
 21
88.001419106103967
 31
0.0
  0
ARC
  5
4E0
  8
2
 10
30.47303250497913
 20
77.91563266846893
 30
0.0
 40
3.2426406871244078
 50
29.277613190471889
 51
150.7223868095279
  0
ARC
  5
4E1
  8
2
 10
24.816178255486712
 20
77.91563266846893
 30
0.0
 40
3.2426406871244078
 50
29.277613190472099
 51
150.7223868095281
  0
LINE
  5
4E2
  8
2
 10
27.644605380234111
 20
79.501419106103981
 30
0.0
 11
27.644605380234111
 21
95.501419106104038
 31
0.0
  0
LINE
  5
4E3
  8
2
 10
33.301459629724832
 20
79.501419106104095
 30
0.0
 11
33.301459629724832
 21
95.501419106104038
 31
0.0
  0
LINE
  5
4E4
  8
2
 10
21.987751130739191
 20
79.501419106103981
 30
0.0
 11
21.987751130739191
 21
95.501419106103967
 31
0.0
  0
LINE
  5
4E5
  8
0
 10
35.144605380232861
 20
88.001419106103967
 30
0.0
 11
36.146136107061807
 21
88.579653140840378
 31
0.0
  0
LINE
  5
4E6
  8
0
 10
20.144605380232861
 20
88.001419106103967
 30
0.0
 11
19.144605380232861
 21
88.578769375293632
 31
0.0
  0
LINE
  5
4E7
  8
1
 10
27.644605380232921
 20
106.50141910610409
 30
0.0
 11
27.644605380232861
 21
74.501419106103981
 31
0.0
  0
LINE
  5
4E8
  8
0
 10
35.144605380321941
 20
95.501419106104009
 30
0.0
 11
20.14460538014373
 21
95.501419106103967
 31
0.0
  0
LINE
  5
4E9
  8
0
 10
19.144605380232861
 20
89.226501888468647
 30
0.0
 11
19.144605380232861
 21
88.578769375293632
 31
0.0
  0
LINE
  5
4EA
  8
0
 10
34.144605380232861
 20
79.501419106104095
 30
0.0
 11
21.144605380232861
 21
79.501419106103981
 31
0.0
  0
LINE
  5
4EB
  8
0
 10
36.144605380232861
 20
90.501419106103825
 30
0.0
 11
19.1446053802328
 21
90.501419106103725
 31
0.0
  0
LINE
  5
4EC
  8
0
 10
20.644605380234111
 20
101.50141910610409
 30
0.0
 11
20.644605380234111
 21
95.501419106103953
 31
0.0
  0
LINE
  5
4ED
  8
0
 10
34.644605380234111
 20
101.50141910610409
 30
0.0
 11
34.644605380234168
 21
95.501419106104009
 31
0.0
  0
ARC
  5
4F8
  8
0
 10
20.644605380232921
 20
93.001419106104009
 30
0.0
 40
3.0
 50
180.0
 51
223.34175822722349
  0
ARC
  5
4F9
  8
0
 10
20.144605380143791
 20
93.001419106104009
 30
0.0
 40
2.5
 50
90.000000000000398
 51
180.0
  0
ARC
  5
4FA
  8
0
 10
16.64460538023291
 20
89.226501888468675
 30
0.0
 40
2.5
 50
0.0
 51
43.341758227223451
  0
POLYLINE
  5
4FB
  8
0
 66
     1
 10
0.0
 20
0.0
 30
0.0
  0
VERTEX
  5
4FC
  8
0
 10
21.710962862248088
 20
95.501419106104038
 30
0.0
 42
0.2040722756903258
  0
VERTEX
  5
4FD
  8
0
 10
21.9668483705168
 20
95.610395769010296
 30
0.0
 42
0.0969764652992223
  0
VERTEX
  5
4FE
  8
0
 10
22.273960930491739
 20
96.087205543731002
 30
0.0
 42
0.0539120237172913
 70
     2
 50
68.292510763835622
  0
VERTEX
  5
4FF
  8
0
 10
22.462792111587699
 20
96.766469527161348
 30
0.0
 42
0.0516102406986351
 50
68.292510763835622
  0
VERTEX
  5
500
  8
0
 10
22.507162365948151
 20
97.501419106104123
 30
0.0
 42
0.0408796562971358
  0
SEQEND
  5
501
  8
0
  0
POLYLINE
  5
502
  8
0
 66
     1
 10
0.0
 20
0.0
 30
0.0
  0
VERTEX
  5
503
  8
0
 10
33.578247898220127
 20
95.501419106104038
 30
0.0
 42
-0.2040722756903258
  0
VERTEX
  5
504
  8
0
 10
33.322362389951422
 20
95.610395769010296
 30
0.0
 42
-0.0969764652992223
  0
VERTEX
  5
505
  8
0
 10
33.015249829976483
 20
96.087205543731002
 30
0.0
 42
-0.0539120237172913
 70
     2
 50
111.70748923616441
  0
VERTEX
  5
506
  8
0
 10
32.826418648880519
 20
96.766469527161348
 30
0.0
 42
-0.0516102406986351
  0
VERTEX
  5
507
  8
0
 10
32.782048394520082
 20
97.501419106104123
 30
0.0
 42
-0.0408796562971358
  0
SEQEND
  5
508
  8
0
  0
ARC
  5
50A
  8
0
 10
35.144605380321941
 20
93.001419106104009
 30
0.0
 40
2.5
 50
0.000000000000007
 51
89.999999999999616
  0
ARC
  5
50B
  8
0
 10
38.644605380232797
 20
89.226501888468675
 30
0.0
 40
2.5
 50
136.65824177277651
 51
180.0
  0
ARC
  5
50C
  8
0
 10
34.644605380232797
 20
93.001419106104009
 30
0.0
 40
3.0
 50
316.65824177277648
 51
0.000000000000007
  0
LINE
  5
50D
  8
0
 10
36.144605380232861
 20
89.226501888468647
 30
0.0
 11
36.144605380232861
 21
88.578769375293632
 31
0.0
  0
LINE
  5
50E
  8
0
 10
168.14460538023161
 20
89.226501888468647
 30
0.0
 11
168.14460538023161
 21
88.578769375293632
 31
0.0
  0
ARC
  5
50F
  8
0
 10
166.6446053802315
 20
93.001419106104009
 30
0.0
 40
3.0
 50
316.65824177277648
 51
0.000000000000007
  0
ARC
  5
510
  8
0
 10
170.6446053802315
 20
89.226501888468675
 30
0.0
 40
2.5
 50
136.65824177277651
 51
180.0
  0
ARC
  5
511
  8
0
 10
167.1446053803206
 20
93.001419106104009
 30
0.0
 40
2.5
 50
0.000000000000007
 51
89.999999999999616
  0
ARC
  5
520
  8
0
 10
148.64460538023161
 20
89.226501888468675
 30
0.0
 40
2.5
 50
0.0
 51
43.341758227223451
  0
ARC
  5
521
  8
0
 10
152.14460538014259
 20
93.001419106104009
 30
0.0
 40
2.5
 50
90.000000000000398
 51
180.0
  0
ARC
  5
522
  8
0
 10
152.6446053802317
 20
93.001419106104009
 30
0.0
 40
3.0
 50
180.0
 51
223.34175822722349
  0
ARC
  5
523
  8
0
 10
165.1446053802328
 20
92.001419106104123
 30
0.0
 40
1.5
 50
270.0000000000004
 51
0.0
  0
LINE
  5
524
  8
0
 10
166.6446053802328
 20
101.50141910610409
 30
0.0
 11
166.6446053802328
 21
92.001419106104024
 31
0.0
  0
LINE
  5
525
  8
0
 10
152.6446053802328
 20
101.50141910610409
 30
0.0
 11
152.6446053802328
 21
92.001419106104123
 31
0.0
  0
LINE
  5
526
  8
0
 10
168.14460538023161
 20
90.501419106103825
 30
0.0
 11
151.1446053802315
 21
90.501419106103725
 31
0.0
  0
LINE
  5
527
  8
0
 10
166.14460538023161
 20
79.501419106104095
 30
0.0
 11
153.14460538023161
 21
79.501419106103981
 31
0.0
  0
LINE
  5
528
  8
0
 10
151.14460538023161
 20
89.226501888468647
 30
0.0
 11
151.14460538023161
 21
88.578769375293632
 31
0.0
  0
LINE
  5
529
  8
0
 10
167.1446053803206
 20
95.501419106104009
 30
0.0
 11
166.6446053802328
 21
95.501419106104009
 31
0.0
  0
LINE
  5
52A
  8
1
 10
159.64460538023161
 20
106.50141910610409
 30
0.0
 11
159.64460538023161
 21
74.501419106103981
 31
0.0
  0
LINE
  5
52B
  8
0
 10
152.14460538023161
 20
88.001419106103967
 30
0.0
 11
151.14460538023161
 21
88.578769375293632
 31
0.0
  0
LINE
  5
52C
  8
0
 10
167.14460538023161
 20
88.001419106103967
 30
0.0
 11
168.1461361070605
 21
88.579653140840378
 31
0.0
  0
LINE
  5
52D
  8
2
 10
153.98775113073791
 20
79.501419106103981
 30
0.0
 11
153.98775113073791
 21
95.501419106103967
 31
0.0
  0
LINE
  5
52E
  8
2
 10
165.30145962972361
 20
79.501419106104095
 30
0.0
 11
165.30145962972361
 21
95.501419106104038
 31
0.0
  0
LINE
  5
52F
  8
2
 10
159.6446053802328
 20
79.501419106103981
 30
0.0
 11
159.6446053802328
 21
95.501419106104038
 31
0.0
  0
ARC
  5
530
  8
2
 10
156.81617825548551
 20
77.91563266846893
 30
0.0
 40
3.2426406871244078
 50
29.277613190472099
 51
150.7223868095281
  0
ARC
  5
531
  8
2
 10
162.47303250497791
 20
77.91563266846893
 30
0.0
 40
3.2426406871244078
 50
29.277613190471889
 51
150.7223868095279
  0
LINE
  5
532
  8
0
 10
152.14460538023161
 20
80.501419106103967
 30
0.0
 11
152.14460538023161
 21
88.001419106103967
 31
0.0
  0
LINE
  5
533
  8
0
 10
167.14460538023161
 20
80.501419106104095
 30
0.0
 11
167.14460538023161
 21
88.001419106103967
 31
0.0
  0
ARC
  5
534
  8
0
 10
166.1446053802317
 20
80.501419106104109
 30
0.0
 40
1.0
 50
270.0000000000004
 51
0.0
  0
ARC
  5
535
  8
0
 10
153.1446053802317
 20
80.501419106104009
 30
0.0
 40
1.0
 50
180.0
 51
270.0000000000004
  0
LINE
  5
536
  8
0
 10
166.6446053802328
 20
101.50141910610409
 30
0.0
 11
152.6446053802328
 21
101.50141910610409
 31
0.0
  0
LINE
  5
537
  8
0
 62
     3
 10
166.49847733413819
 20
101.50141910610409
 30
0.0
 11
166.6446053802328
 21
101.35529106000941
 31
0.0
  0
LINE
  5
538
  8
0
 10
168.1461361070605
 20
88.579653140840534
 30
0.0
 11
151.14460538023161
 21
88.578769375293632
 31
0.0
  0
LINE
  5
539
  8
0
 10
152.14460538023161
 20
88.001419106103967
 30
0.0
 11
167.1446053802315
 21
88.001419106103953
 31
0.0
  0
ARC
  5
53A
  8
0
 10
154.1446053802303
 20
92.001419106104123
 30
0.0
 40
1.5
 50
180.0
 51
269.9999999999996
  0
LINE
  5
53D
  8
0
 10
152.6446053802328
 20
95.501419106103967
 30
0.0
 11
152.14460538014239
 21
95.501419106103967
 31
0.0
  0
LINE
  5
53E
  8
2
 10
166.6446053802328
 20
95.501419106103967
 30
0.0
 11
152.6446053802328
 21
95.501419106103953
 31
0.0
  0
TEXT
  5
5E8
  8
0
 62
     3
 10
0.0
 20
0.0
 30
0.0
 40
10.0
  1
SC1S
  7
STANDARD1
  0
ENDSEC
  0
EOF
