  0
SECTION
  2
HEADER
  9
$ACADVER
  1
AC1009
  9
$INSBASE
 10
0.0
 20
0.0
 30
0.0
  9
$EXTMIN
 10
0.0
 20
-1.4802182810368341
 30
0.0
  9
$EXTMAX
 10
41.265299817515192
 20
25.85429162315512
 30
0.0
  9
$LIMMIN
 10
0.0
 20
0.0
  9
$LIMMAX
 10
187.5
 20
135.0
  9
$ORTHOMODE
 70
     1
  9
$REGENMODE
 70
     1
  9
$FILLMODE
 70
     1
  9
$QTEXTMODE
 70
     0
  9
$MIRRTEXT
 70
     0
  9
$DRAGMODE
 70
     2
  9
$LTSCALE
 40
2.0
  9
$OSMODE
 70
    55
  9
$ATTMODE
 70
     1
  9
$TEXTSIZE
 40
4.0
  9
$TRACEWID
 40
0.05
  9
$TEXTSTYLE
  7
STANDARD
  9
$CLAYER
  8
0
  9
$CELTYPE
  6
BYLAYER
  9
$CECOLOR
 62
   256
  9
$DIMSCALE
 40
0.5
  9
$DIMASZ
 40
3.0
  9
$DIMEXO
 40
2.0
  9
$DIMDLI
 40
0.38
  9
$DIMRND
 40
0.0
  9
$DIMDLE
 40
0.0
  9
$DIMEXE
 40
2.0
  9
$DIMTP
 40
0.0
  9
$DIMTM
 40
0.0
  9
$DIMTXT
 40
3.0
  9
$DIMCEN
 40
0.0
  9
$DIMTSZ
 40
0.0
  9
$DIMTOL
 70
     0
  9
$DIMLIM
 70
     0
  9
$DIMTIH
 70
     0
  9
$DIMTOH
 70
     0
  9
$DIMSE1
 70
     0
  9
$DIMSE2
 70
     0
  9
$DIMTAD
 70
     1
  9
$DIMZIN
 70
     0
  9
$DIMBLK
  1

  9
$DIMASO
 70
     0
  9
$DIMSHO
 70
     0
  9
$DIMPOST
  1

  9
$DIMAPOST
  1

  9
$DIMALT
 70
     0
  9
$DIMALTD
 70
     2
  9
$DIMALTF
 40
25.399999999999999
  9
$DIMLFAC
 40
1.0
  9
$DIMTOFL
 70
     0
  9
$DIMTVP
 40
1.6000000000000001
  9
$DIMTIX
 70
     1
  9
$DIMSOXD
 70
     0
  9
$DIMSAH
 70
     0
  9
$DIMBLK1
  1

  9
$DIMBLK2
  1

  9
$DIMSTYLE
  2
STANDARD
  9
$DIMCLRD
 70
     0
  9
$DIMCLRE
 70
     0
  9
$DIMCLRT
 70
     0
  9
$DIMTFAC
 40
1.0
  9
$DIMGAP
 40
0.09
  9
$LUNITS
 70
     2
  9
$LUPREC
 70
     4
  9
$SKETCHINC
 40
0.1
  9
$FILLETRAD
 40
1.0
  9
$AUNITS
 70
     0
  9
$AUPREC
 70
     0
  9
$MENU
  1
E:\r13\win\SUPPORT\ACAD
  9
$ELEVATION
 40
0.0
  9
$PELEVATION
 40
0.0
  9
$THICKNESS
 40
0.0
  9
$LIMCHECK
 70
     0
  9
$BLIPMODE
 70
     0
  9
$CHAMFERA
 40
0.0
  9
$CHAMFERB
 40
0.0
  9
$SKPOLY
 70
     0
  9
$TDCREATE
 40
2449840.6143865739
  9
$TDUPDATE
 40
2456598.4774248381
  9
$TDINDWG
 40
0.2415541435
  9
$TDUSRTIMER
 40
0.2415541435
  9
$USRTIMER
 70
     1
  9
$ANGBASE
 50
0.0
  9
$ANGDIR
 70
     0
  9
$PDMODE
 70
     0
  9
$PDSIZE
 40
0.0
  9
$PLINEWID
 40
0.0
  9
$COORDS
 70
     1
  9
$SPLFRAME
 70
     0
  9
$SPLINETYPE
 70
     6
  9
$SPLINESEGS
 70
     8
  9
$ATTDIA
 70
     0
  9
$ATTREQ
 70
     1
  9
$HANDLING
 70
     1
  9
$HANDSEED
  5
14BA
  9
$SURFTAB1
 70
     6
  9
$SURFTAB2
 70
     6
  9
$SURFTYPE
 70
     6
  9
$SURFU
 70
     6
  9
$SURFV
 70
     6
  9
$UCSNAME
  2

  9
$UCSORG
 10
0.0
 20
0.0
 30
0.0
  9
$UCSXDIR
 10
1.0
 20
0.0
 30
0.0
  9
$UCSYDIR
 10
0.0
 20
1.0
 30
0.0
  9
$PUCSNAME
  2

  9
$PUCSORG
 10
0.0
 20
0.0
 30
0.0
  9
$PUCSXDIR
 10
1.0
 20
0.0
 30
0.0
  9
$PUCSYDIR
 10
0.0
 20
1.0
 30
0.0
  9
$USERI1
 70
     0
  9
$USERI2
 70
     1
  9
$USERI3
 70
     1
  9
$USERI4
 70
     0
  9
$USERI5
 70
     0
  9
$USERR1
 40
0.0
  9
$USERR2
 40
0.0
  9
$USERR3
 40
0.0
  9
$USERR4
 40
0.0
  9
$USERR5
 40
0.0
  9
$WORLDVIEW
 70
     1
  9
$SHADEDGE
 70
     3
  9
$SHADEDIF
 70
    70
  9
$TILEMODE
 70
     1
  9
$MAXACTVP
 70
    16
  9
$PLIMCHECK
 70
     0
  9
$PEXTMIN
 10
1.0000000000000000E+020
 20
1.0000000000000000E+020
 30
1.0000000000000000E+020
  9
$PEXTMAX
 10
-1.0000000000000000E+020
 20
-1.0000000000000000E+020
 30
-1.0000000000000000E+020
  9
$PLIMMIN
 10
0.0
 20
0.0
  9
$PLIMMAX
 10
12.0
 20
9.0
  9
$UNITMODE
 70
     0
  9
$VISRETAIN
 70
     0
  9
$PLINEGEN
 70
     0
  9
$PSLTSCALE
 70
     0
  0
ENDSEC
  0
SECTION
  2
TABLES
  0
TABLE
  2
VPORT
 70
     1
  0
VPORT
  2
*ACTIVE
 70
     0
 10
0.0
 20
0.0
 11
1.0
 21
1.0
 12
93.74713919532617
 22
97.392623997632526
 13
0.0
 23
0.0
 14
5.0
 24
5.0
 15
5.0
 25
5.0
 16
0.0
 26
0.0
 36
1.0
 17
0.0
 27
0.0
 37
0.0
 40
199.6731687079288
 41
1.7807262569832401
 42
50.0
 43
0.0
 44
0.0
 50
0.0
 51
0.0
 71
     0
 72
   100
 73
     1
 74
     0
 75
     0
 76
     0
 77
     0
 78
     0
  0
ENDTAB
  0
TABLE
  2
LTYPE
 70
     4
  0
LTYPE
  2
CONTINUOUS
 70
     0
  3
Solid Line
 72
    65
 73
     0
 40
0.0
  0
LTYPE
  2
CENTER
 70
     0
  3
____ _ ____ _ ____ _ ____ _ ____ _ ____ _ ____
 72
    65
 73
     4
 40
2.0
 49
1.25
 49
-0.25
 49
0.25
 49
-0.25
  0
LTYPE
  2
HIDDEN
 70
     0
  3
_ _ _ _ _ _ _ _ _ _ _ _ _ _ _ _ _ _ _ _ _ _ _
 72
    65
 73
     2
 40
0.375
 49
0.25
 49
-0.125
  0
LTYPE
  2
PHANTOM2
 70
     0
  3
___ _ _ ___ _ _ ___ _ _ ___ _ _
 72
    65
 73
     6
 40
1.25
 49
0.625
 49
-0.125
 49
0.125
 49
-0.125
 49
0.125
 49
-0.125
  0
ENDTAB
  0
TABLE
  2
LAYER
 70
     3
  0
LAYER
  2
0
 70
     0
 62
     7
  6
CONTINUOUS
  0
LAYER
  2
1
 70
     0
 62
     1
  6
CENTER
  0
LAYER
  2
2
 70
     0
 62
     2
  6
HIDDEN
  0
ENDTAB
  0
TABLE
  2
STYLE
 70
     2
  0
STYLE
  2
STANDARD
 70
     0
 40
0.0
 41
1.0
 50
0.0
 71
     0
 42
4.0
  3
TXT
  4
BIGFONT
  0
STYLE
  2
STANDARD1
 70
     0
 40
0.0
 41
1.0
 50
0.0
 71
     0
 42
3.0
  3
txt
  4

  0
ENDTAB
  0
TABLE
  2
VIEW
 70
     1
  0
VIEW
  2
ALL
 70
     0
 40
179.66152299999999
 10
141.903918
 20
89.830760999999995
 41
0.0
 11
0.0
 21
0.0
 31
1.0
 12
0.0
 22
0.0
 32
0.0
 42
0.0
 43
0.0
 44
0.0
 50
0.0
 71
     0
  0
ENDTAB
  0
TABLE
  2
UCS
 70
     0
  0
ENDTAB
  0
TABLE
  2
APPID
 70
     4
  0
APPID
  2
ACAD
 70
     0
  0
APPID
  2
DCO15
 70
     0
  0
APPID
  2
ACAD_MLEADERVER
 70
     0
  0
APPID
  2
ACAD_NAV_VCDISPLAY
 70
     0
  0
ENDTAB
  0
TABLE
  2
DIMSTYLE
 70
     1
  0
DIMSTYLE
  2
STANDARD
 70
     0
  3

  4

  5

  6

  7

 40
1.0
 41
0.18
 42
0.0625
 43
0.38
 44
0.18
 45
0.0
 46
0.0
 47
0.0
 48
0.0
140
0.18
141
0.09
142
0.0
143
25.399999999999999
144
1.0
145
0.0
146
1.0
147
0.09
 71
     0
 72
     0
 73
     1
 74
     1
 75
     0
 76
     0
 77
     0
 78
     0
170
     0
171
     2
172
     0
173
     0
174
     0
175
     0
176
     0
177
     0
178
     0
  0
ENDTAB
  0
ENDSEC
  0
SECTION
  2
BLOCKS
  0
BLOCK
  8
0
  2
$MODEL_SPACE
 70
     0
 10
0.0
 20
0.0
 30
0.0
  3
$MODEL_SPACE
  1

  0
ENDBLK
  5
1BD
  8
0
  0
BLOCK
 67
     1
  8
0
  2
$PAPER_SPACE
 70
     0
 10
0.0
 20
0.0
 30
0.0
  3
$PAPER_SPACE
  1

  0
ENDBLK
  5
1BB
 67
     1
  8
0
  0
ENDSEC
  0
SECTION
  2
ENTITIES
  0
ATTDEF
  5
1296
  8
0
 10
314.9088241206793
 20
164.23348131398001
 30
0.0
 40
1.0
  1
KIPP
  3

  2
Company
 70
     9
  0
ATTDEF
  5
1297
  8
0
 10
314.9088241206793
 20
164.23348131398001
 30
0.0
 40
1.0
  1
03072-204
  3

  2
NB
 70
     9
  0
ATTDEF
  5
1298
  8
0
 10
314.9088241206793
 20
164.23348131398001
 30
0.0
 40
1.0
  1
03072
  3

  2
NN
 70
     9
  0
ATTDEF
  5
1299
  8
0
 10
314.9088241206793
 20
164.23348131398001
 30
0.0
 40
1.0
  1
Federnde Druckst\U+00FCcke glatte Ausf\U+00FChrung, ohne Bund, Nirosta
  3

  2
NT
 70
     9
  0
ATTDEF
  5
129A
  8
0
 10
314.9088241206793
 20
164.23348131398001
 30
0.0
 40
1.0
  1
$BEST.
  3

  2
NBSYN
 70
     9
  0
ATTDEF
  5
129B
  8
0
 10
314.9088241206793
 20
164.23348131398001
 30
0.0
 40
1.0
  1
03072-204
  3

  2
LINA
 70
     9
  0
LINE
  5
129E
  8
0
 10
29.32387846127785
 20
24.85429162315512
 30
0.0
 11
20.965299817515131
 21
24.85429162315512
 31
0.0
  0
LINE
  5
129F
  8
0
 10
20.965299817515131
 20
20.85429162315512
 30
0.0
 11
29.32387846127785
 21
20.85429162315512
 31
0.0
  0
LINE
  5
12A0
  8
0
 10
29.465299817515131
 20
24.712870266917811
 30
0.0
 11
29.32387846127785
 21
24.85429162315512
 31
0.0
  0
LINE
  5
12A1
  8
0
 10
29.32387846127785
 20
20.85429162315512
 30
0.0
 11
29.465299817515131
 21
20.99571297939244
 31
0.0
  0
LINE
  5
12A2
  8
0
 10
20.465299817515131
 20
21.142966757749932
 30
0.0
 11
20.465299817515131
 21
24.565616488560309
 31
0.0
  0
LINE
  5
12A4
  8
0
 10
29.32387846127785
 20
20.85429162315512
 30
0.0
 11
29.32387846127785
 21
24.85429162315512
 31
0.0
  0
LINE
  5
12A5
  8
0
 10
29.465299817515131
 20
20.99571297939244
 30
0.0
 11
29.465299817515131
 21
24.712870266917811
 31
0.0
  0
ATTDEF
  5
12A6
  8
0
 10
332.11819643339152
 20
146.54357743367109
 30
0.0
 40
1.0
  1
KIPP
  3

  2
Company
 70
     9
  0
ATTDEF
  5
12A7
  8
0
 10
332.11819643339152
 20
146.54357743367109
 30
0.0
 40
1.0
  1
03072-204
  3

  2
NB
 70
     9
  0
ATTDEF
  5
12A8
  8
0
 10
332.11819643339152
 20
146.54357743367109
 30
0.0
 40
1.0
  1
03072
  3

  2
NN
 70
     9
  0
ATTDEF
  5
12A9
  8
0
 10
332.11819643339152
 20
146.54357743367109
 30
0.0
 40
1.0
  1
Federnde Druckst\U+00FCcke glatte Ausf\U+00FChrung, ohne Bund, Nirosta
  3

  2
NT
 70
     9
  0
ATTDEF
  5
12AA
  8
0
 10
332.11819643339152
 20
146.54357743367109
 30
0.0
 40
1.0
  1
$BEST.
  3

  2
NBSYN
 70
     9
  0
ATTDEF
  5
12AB
  8
0
 10
332.11819643339152
 20
146.54357743367109
 30
0.0
 40
1.0
  1
03072-204
  3

  2
LINA
 70
     9
  0
CIRCLE
  5
12AC
  8
0
 10
38.265299817515199
 20
22.85429162315512
 30
0.0
 40
2.0
  0
CIRCLE
  5
12AD
  8
0
 10
38.265299817515199
 20
22.85429162315512
 30
0.0
 40
1.8585786437626901
  0
CIRCLE
  5
12AE
  8
0
 10
38.265299817515199
 20
22.85429162315512
 30
0.0
 40
1.5
  0
LINE
  5
12AF
  8
1
 10
35.265299817515199
 20
22.85429162315512
 30
0.0
 11
41.265299817515192
 21
22.85429162315512
 31
0.0
  0
LINE
  5
12B0
  8
1
 10
38.265299817515199
 20
19.85429162315512
 30
0.0
 11
38.265299817515199
 21
25.85429162315512
 31
0.0
  0
ATTDEF
  5
12B1
  8
0
 10
315.4005203288126
 20
149.98328130031589
 30
0.0
 40
1.0
  1
KIPP
  3

  2
Company
 70
     9
  0
ATTDEF
  5
12B2
  8
0
 10
315.4005203288126
 20
149.98328130031589
 30
0.0
 40
1.0
  1
03072-204
  3

  2
NB
 70
     9
  0
ATTDEF
  5
12B3
  8
0
 10
315.4005203288126
 20
149.98328130031589
 30
0.0
 40
1.0
  1
03072
  3

  2
NN
 70
     9
  0
ATTDEF
  5
12B4
  8
0
 10
315.4005203288126
 20
149.98328130031589
 30
0.0
 40
1.0
  1
Federnde Druckst\U+00FCcke glatte Ausf\U+00FChrung, ohne Bund, Nirosta
  3

  2
NT
 70
     9
  0
ATTDEF
  5
12B5
  8
0
 10
315.4005203288126
 20
149.98328130031589
 30
0.0
 40
1.0
  1
$BEST.
  3

  2
NBSYN
 70
     9
  0
ATTDEF
  5
12B6
  8
0
 10
315.4005203288126
 20
149.98328130031589
 30
0.0
 40
1.0
  1
03072-204
  3

  2
LINA
 70
     9
  0
ARC
  5
12B7
  8
0
 10
28.765299817515199
 20
22.85429162315512
 30
0.0
 40
1.5
 50
297.8181392846484
 51
62.181860715351547
  0
LINE
  5
12B8
  8
1
 10
31.265299817515199
 20
22.85429162315512
 30
0.0
 11
19.465299817515131
 21
22.85429162315512
 31
0.0
  0
LINE
  5
12B9
  8
1
 10
12.46529981751514
 20
19.85429162315512
 30
0.0
 11
12.46529981751514
 21
25.85429162315512
 31
0.0
  0
LINE
  5
12BA
  8
1
 10
15.46529981751514
 20
22.85429162315512
 30
0.0
 11
9.4652998175151453
 21
22.85429162315512
 31
0.0
  0
CIRCLE
  5
12BC
  8
0
 10
12.46529981751514
 20
22.85429162315512
 30
0.0
 40
2.0
  0
ATTDEF
  5
12BD
  8
0
 10
48.833196789946498
 20
56.78642736927668
 30
0.0
 40
1.0
  1
KIPP
  3

  2
Company
 70
     9
  0
ATTDEF
  5
12BE
  8
0
 10
48.833196789946498
 20
56.78642736927668
 30
0.0
 40
1.0
  1
03072-205
  3

  2
NB
 70
     9
  0
ATTDEF
  5
12BF
  8
0
 10
48.833196789946498
 20
56.78642736927668
 30
0.0
 40
1.0
  1
03072
  3

  2
NN
 70
     9
  0
ATTDEF
  5
12C0
  8
0
 10
48.833196789946498
 20
56.78642736927668
 30
0.0
 40
1.0
  1
Federnde Druckst\U+00FCcke glatte Ausf\U+00FChrung, ohne Bund, Nirosta
  3

  2
NT
 70
     9
  0
ATTDEF
  5
12C1
  8
0
 10
48.833196789946498
 20
56.78642736927668
 30
0.0
 40
1.0
  1
$BEST.
  3

  2
NBSYN
 70
     9
  0
ATTDEF
  5
12C2
  8
0
 10
48.833196789946498
 20
56.78642736927668
 30
0.0
 40
1.0
  1
03072-205
  3

  2
LINA
 70
     9
  0
ATTDEF
  5
12CE
  8
0
 10
71.002868582710335
 20
57.185628942003071
 30
0.0
 40
1.0
  1
KIPP
  3

  2
Company
 70
     9
  0
ATTDEF
  5
12CF
  8
0
 10
71.002868582710335
 20
57.185628942003071
 30
0.0
 40
1.0
  1
03072-205
  3

  2
NB
 70
     9
  0
ATTDEF
  5
12D0
  8
0
 10
71.002868582710335
 20
57.185628942003071
 30
0.0
 40
1.0
  1
03072
  3

  2
NN
 70
     9
  0
ATTDEF
  5
12D1
  8
0
 10
71.002868582710335
 20
57.185628942003071
 30
0.0
 40
1.0
  1
Federnde Druckst\U+00FCcke glatte Ausf\U+00FChrung, ohne Bund, Nirosta
  3

  2
NT
 70
     9
  0
ATTDEF
  5
12D2
  8
0
 10
71.002868582710335
 20
57.185628942003071
 30
0.0
 40
1.0
  1
$BEST.
  3

  2
NBSYN
 70
     9
  0
ATTDEF
  5
12D3
  8
0
 10
71.002868582710335
 20
57.185628942003071
 30
0.0
 40
1.0
  1
03072-205
  3

  2
LINA
 70
     9
  0
ATTDEF
  5
12D7
  8
0
 10
49.831830181389932
 20
41.816367220765073
 30
0.0
 40
1.0
  1
KIPP
  3

  2
Company
 70
     9
  0
ATTDEF
  5
12D8
  8
0
 10
49.831830181389932
 20
41.816367220765073
 30
0.0
 40
1.0
  1
03072-206
  3

  2
NB
 70
     9
  0
ATTDEF
  5
12D9
  8
0
 10
49.831830181389932
 20
41.816367220765073
 30
0.0
 40
1.0
  1
03072
  3

  2
NN
 70
     9
  0
ATTDEF
  5
12DA
  8
0
 10
49.831830181389932
 20
41.816367220765073
 30
0.0
 40
1.0
  1
Federnde Druckst\U+00FCcke glatte Ausf\U+00FChrung, ohne Bund, Nirosta
  3

  2
NT
 70
     9
  0
ATTDEF
  5
12DB
  8
0
 10
49.831830181389932
 20
41.816367220765073
 30
0.0
 40
1.0
  1
$BEST.
  3

  2
NBSYN
 70
     9
  0
ATTDEF
  5
12DC
  8
0
 10
49.831830181389932
 20
41.816367220765073
 30
0.0
 40
1.0
  1
03072-206
  3

  2
LINA
 70
     9
  0
ATTDEF
  5
12E7
  8
0
 10
69.804508284658255
 20
41.616766434401882
 30
0.0
 40
1.0
  1
KIPP
  3

  2
Company
 70
     9
  0
ATTDEF
  5
12E8
  8
0
 10
69.804508284658255
 20
41.616766434401882
 30
0.0
 40
1.0
  1
03072-206
  3

  2
NB
 70
     9
  0
ATTDEF
  5
12E9
  8
0
 10
69.804508284658255
 20
41.616766434401882
 30
0.0
 40
1.0
  1
03072
  3

  2
NN
 70
     9
  0
ATTDEF
  5
12EA
  8
0
 10
69.804508284658255
 20
41.616766434401882
 30
0.0
 40
1.0
  1
Federnde Druckst\U+00FCcke glatte Ausf\U+00FChrung, ohne Bund, Nirosta
  3

  2
NT
 70
     9
  0
ATTDEF
  5
12EB
  8
0
 10
69.804508284658255
 20
41.616766434401882
 30
0.0
 40
1.0
  1
$BEST.
  3

  2
NBSYN
 70
     9
  0
ATTDEF
  5
12EC
  8
0
 10
69.804508284658255
 20
41.616766434401882
 30
0.0
 40
1.0
  1
03072-206
  3

  2
LINA
 70
     9
  0
ATTDEF
  5
12F0
  8
0
 10
49.232650032363892
 20
25.24950078134799
 30
0.0
 40
1.0
  1
KIPP
  3

  2
Company
 70
     9
  0
ATTDEF
  5
12F1
  8
0
 10
49.232650032363892
 20
25.24950078134799
 30
0.0
 40
1.0
  1
03072-208
  3

  2
NB
 70
     9
  0
ATTDEF
  5
12F2
  8
0
 10
49.232650032363892
 20
25.24950078134799
 30
0.0
 40
1.0
  1
03072
  3

  2
NN
 70
     9
  0
ATTDEF
  5
12F3
  8
0
 10
49.232650032363892
 20
25.24950078134799
 30
0.0
 40
1.0
  1
Federnde Druckst\U+00FCcke glatte Ausf\U+00FChrung, ohne Bund, Nirosta
  3

  2
NT
 70
     9
  0
ATTDEF
  5
12F4
  8
0
 10
49.232650032363892
 20
25.24950078134799
 30
0.0
 40
1.0
  1
$BEST.
  3

  2
NBSYN
 70
     9
  0
ATTDEF
  5
12F5
  8
0
 10
49.232650032363892
 20
25.24950078134799
 30
0.0
 40
1.0
  1
03072-208
  3

  2
LINA
 70
     9
  0
ATTDEF
  5
1300
  8
0
 10
74.398224282657907
 20
27.045908249040728
 30
0.0
 40
1.0
  1
KIPP
  3

  2
Company
 70
     9
  0
ATTDEF
  5
1301
  8
0
 10
74.398224282657907
 20
27.045908249040728
 30
0.0
 40
1.0
  1
03072-208
  3

  2
NB
 70
     9
  0
ATTDEF
  5
1302
  8
0
 10
74.398224282657907
 20
27.045908249040728
 30
0.0
 40
1.0
  1
03072
  3

  2
NN
 70
     9
  0
ATTDEF
  5
1303
  8
0
 10
74.398224282657907
 20
27.045908249040728
 30
0.0
 40
1.0
  1
Federnde Druckst\U+00FCcke glatte Ausf\U+00FChrung, ohne Bund, Nirosta
  3

  2
NT
 70
     9
  0
ATTDEF
  5
1304
  8
0
 10
74.398224282657907
 20
27.045908249040728
 30
0.0
 40
1.0
  1
$BEST.
  3

  2
NBSYN
 70
     9
  0
ATTDEF
  5
1305
  8
0
 10
74.398224282657907
 20
27.045908249040728
 30
0.0
 40
1.0
  1
03072-208
  3

  2
LINA
 70
     9
  0
ATTDEF
  5
1309
  8
0
 10
94.171174908517557
 20
54.990019901583871
 30
0.0
 40
1.0
  1
KIPP
  3

  2
Company
 70
     9
  0
ATTDEF
  5
130A
  8
0
 10
94.171174908517557
 20
54.990019901583871
 30
0.0
 40
1.0
  1
03072-210
  3

  2
NB
 70
     9
  0
ATTDEF
  5
130B
  8
0
 10
94.171174908517557
 20
54.990019901583871
 30
0.0
 40
1.0
  1
03072
  3

  2
NN
 70
     9
  0
ATTDEF
  5
130C
  8
0
 10
94.171174908517557
 20
54.990019901583871
 30
0.0
 40
1.0
  1
Federnde Druckst\U+00FCcke glatte Ausf\U+00FChrung, ohne Bund, Nirosta
  3

  2
NT
 70
     9
  0
ATTDEF
  5
130D
  8
0
 10
94.171174908517557
 20
54.990019901583871
 30
0.0
 40
1.0
  1
$BEST.
  3

  2
NBSYN
 70
     9
  0
ATTDEF
  5
130E
  8
0
 10
94.171174908517557
 20
54.990019901583871
 30
0.0
 40
1.0
  1
03072-210
  3

  2
LINA
 70
     9
  0
ATTDEF
  5
1319
  8
0
 10
128.9236343972284
 20
54.39121754249431
 30
0.0
 40
1.0
  1
KIPP
  3

  2
Company
 70
     9
  0
ATTDEF
  5
131A
  8
0
 10
128.9236343972284
 20
54.39121754249431
 30
0.0
 40
1.0
  1
03072-210
  3

  2
NB
 70
     9
  0
ATTDEF
  5
131B
  8
0
 10
128.9236343972284
 20
54.39121754249431
 30
0.0
 40
1.0
  1
03072
  3

  2
NN
 70
     9
  0
ATTDEF
  5
131C
  8
0
 10
128.9236343972284
 20
54.39121754249431
 30
0.0
 40
1.0
  1
Federnde Druckst\U+00FCcke glatte Ausf\U+00FChrung, ohne Bund, Nirosta
  3

  2
NT
 70
     9
  0
ATTDEF
  5
131D
  8
0
 10
128.9236343972284
 20
54.39121754249431
 30
0.0
 40
1.0
  1
$BEST.
  3

  2
NBSYN
 70
     9
  0
ATTDEF
  5
131E
  8
0
 10
128.9236343972284
 20
54.39121754249431
 30
0.0
 40
1.0
  1
03072-210
  3

  2
LINA
 70
     9
  0
ATTDEF
  5
1322
  8
0
 10
94.770355057543611
 20
34.031936162176521
 30
0.0
 40
1.0
  1
KIPP
  3

  2
Company
 70
     9
  0
ATTDEF
  5
1323
  8
0
 10
94.770355057543611
 20
34.031936162176521
 30
0.0
 40
1.0
  1
03072-212
  3

  2
NB
 70
     9
  0
ATTDEF
  5
1324
  8
0
 10
94.770355057543611
 20
34.031936162176521
 30
0.0
 40
1.0
  1
03072
  3

  2
NN
 70
     9
  0
ATTDEF
  5
1325
  8
0
 10
94.770355057543611
 20
34.031936162176521
 30
0.0
 40
1.0
  1
Federnde Druckst\U+00FCcke glatte Ausf\U+00FChrung, ohne Bund, Nirosta
  3

  2
NT
 70
     9
  0
ATTDEF
  5
1326
  8
0
 10
94.770355057543611
 20
34.031936162176521
 30
0.0
 40
1.0
  1
$BEST.
  3

  2
NBSYN
 70
     9
  0
ATTDEF
  5
1327
  8
0
 10
94.770355057543611
 20
34.031936162176521
 30
0.0
 40
1.0
  1
03072-212
  3

  2
LINA
 70
     9
  0
ATTDEF
  5
1332
  8
0
 10
132.91816967540211
 20
34.231536948539713
 30
0.0
 40
1.0
  1
KIPP
  3

  2
Company
 70
     9
  0
ATTDEF
  5
1333
  8
0
 10
132.91816967540211
 20
34.231536948539713
 30
0.0
 40
1.0
  1
03072-212
  3

  2
NB
 70
     9
  0
ATTDEF
  5
1334
  8
0
 10
132.91816967540211
 20
34.231536948539713
 30
0.0
 40
1.0
  1
03072
  3

  2
NN
 70
     9
  0
ATTDEF
  5
1335
  8
0
 10
132.91816967540211
 20
34.231536948539713
 30
0.0
 40
1.0
  1
Federnde Druckst\U+00FCcke glatte Ausf\U+00FChrung, ohne Bund, Nirosta
  3

  2
NT
 70
     9
  0
ATTDEF
  5
1336
  8
0
 10
132.91816967540211
 20
34.231536948539713
 30
0.0
 40
1.0
  1
$BEST.
  3

  2
NBSYN
 70
     9
  0
ATTDEF
  5
1337
  8
0
 10
132.91816967540211
 20
34.231536948539713
 30
0.0
 40
1.0
  1
03072-212
  3

  2
LINA
 70
     9
  0
ARC
  5
133F
  8
2
 10
27.965299817515142
 20
22.85429162315512
 30
0.0
 40
1.5
 50
297.8181392846484
 51
62.181860715351547
  0
LINE
  5
1375
  8
0
 10
20.965299817515131
 20
20.85429162315512
 30
0.0
 11
20.465299817515131
 21
21.142966757749932
 31
0.0
  0
LINE
  5
1376
  8
0
 10
20.965299817515131
 20
20.85429162315512
 30
0.0
 11
20.965299817515131
 21
24.85429162315512
 31
0.0
  0
LINE
  5
1377
  8
0
 10
20.965299817515131
 20
24.85429162315512
 30
0.0
 11
20.465299817515131
 21
24.565616488560309
 31
0.0
  0
CIRCLE
  5
1379
  8
0
 10
12.46529981751514
 20
22.85429162315512
 30
0.0
 40
1.7113248654051849
  0
TEXT
  5
1423
  8
0
 62
     3
 10
0.0
 20
0.0
 30
0.0
 40
5.0
  1
SBPC4
  7
STANDARD1
  0
ENDSEC
  0
EOF
