  0
SECTION
  2
HEADER
  9
$ACADVER
  1
AC1009
  9
$INSBASE
 10
0.0
 20
0.0
 30
0.0
  9
$EXTMIN
 10
0.0
 20
-2.960436562073669
 30
0.0
  9
$EXTMAX
 10
154.0
 20
101.48772787782831
 30
0.0
  9
$LIMMIN
 10
0.0
 20
0.0
  9
$LIMMAX
 10
187.5
 20
135.0
  9
$ORTHOMODE
 70
     1
  9
$REGENMODE
 70
     1
  9
$FILLMODE
 70
     1
  9
$QTEXTMODE
 70
     0
  9
$MIRRTEXT
 70
     0
  9
$DRAGMODE
 70
     2
  9
$LTSCALE
 40
5.0
  9
$OSMODE
 70
    55
  9
$ATTMODE
 70
     1
  9
$TEXTSIZE
 40
0.2
  9
$TRACEWID
 40
0.05
  9
$TEXTSTYLE
  7
STANDARD
  9
$CLAYER
  8
0
  9
$CELTYPE
  6
BYLAYER
  9
$CECOLOR
 62
   256
  9
$DIMSCALE
 40
0.5
  9
$DIMASZ
 40
3.0
  9
$DIMEXO
 40
2.0
  9
$DIMDLI
 40
0.3799999999999999
  9
$DIMRND
 40
0.0
  9
$DIMDLE
 40
0.0
  9
$DIMEXE
 40
2.0
  9
$DIMTP
 40
0.0
  9
$DIMTM
 40
0.0
  9
$DIMTXT
 40
3.2000000000000002
  9
$DIMCEN
 40
0.09
  9
$DIMTSZ
 40
0.0
  9
$DIMTOL
 70
     0
  9
$DIMLIM
 70
     0
  9
$DIMTIH
 70
     0
  9
$DIMTOH
 70
     0
  9
$DIMSE1
 70
     0
  9
$DIMSE2
 70
     0
  9
$DIMTAD
 70
     1
  9
$DIMZIN
 70
     0
  9
$DIMBLK
  1

  9
$DIMASO
 70
     1
  9
$DIMSHO
 70
     0
  9
$DIMPOST
  1

  9
$DIMAPOST
  1

  9
$DIMALT
 70
     0
  9
$DIMALTD
 70
     2
  9
$DIMALTF
 40
25.399999999999999
  9
$DIMLFAC
 40
1.0
  9
$DIMTOFL
 70
     0
  9
$DIMTVP
 40
1.6000000000000001
  9
$DIMTIX
 70
     1
  9
$DIMSOXD
 70
     0
  9
$DIMSAH
 70
     0
  9
$DIMBLK1
  1

  9
$DIMBLK2
  1

  9
$DIMSTYLE
  2
STANDARD
  9
$DIMCLRD
 70
     0
  9
$DIMCLRE
 70
     0
  9
$DIMCLRT
 70
     0
  9
$DIMTFAC
 40
1.0
  9
$DIMGAP
 40
0.09
  9
$LUNITS
 70
     2
  9
$LUPREC
 70
     4
  9
$SKETCHINC
 40
0.1
  9
$FILLETRAD
 40
0.4
  9
$AUNITS
 70
     0
  9
$AUPREC
 70
     0
  9
$MENU
  1
E:\r13\win\SUPPORT\ACAD
  9
$ELEVATION
 40
0.0
  9
$PELEVATION
 40
0.0
  9
$THICKNESS
 40
0.0
  9
$LIMCHECK
 70
     0
  9
$BLIPMODE
 70
     0
  9
$CHAMFERA
 40
0.0
  9
$CHAMFERB
 40
0.0
  9
$SKPOLY
 70
     0
  9
$TDCREATE
 40
2449840.6006018519
  9
$TDUPDATE
 40
2456598.476407072
  9
$TDINDWG
 40
0.0001507176
  9
$TDUSRTIMER
 40
0.0001507176
  9
$USRTIMER
 70
     1
  9
$ANGBASE
 50
0.0
  9
$ANGDIR
 70
     0
  9
$PDMODE
 70
     0
  9
$PDSIZE
 40
0.0
  9
$PLINEWID
 40
0.0
  9
$COORDS
 70
     1
  9
$SPLFRAME
 70
     0
  9
$SPLINETYPE
 70
     6
  9
$SPLINESEGS
 70
     8
  9
$ATTDIA
 70
     0
  9
$ATTREQ
 70
     1
  9
$HANDLING
 70
     1
  9
$HANDSEED
  5
235
  9
$SURFTAB1
 70
     6
  9
$SURFTAB2
 70
     6
  9
$SURFTYPE
 70
     6
  9
$SURFU
 70
     6
  9
$SURFV
 70
     6
  9
$UCSNAME
  2

  9
$UCSORG
 10
0.0
 20
0.0
 30
0.0
  9
$UCSXDIR
 10
1.0
 20
0.0
 30
0.0
  9
$UCSYDIR
 10
0.0
 20
1.0
 30
0.0
  9
$PUCSNAME
  2

  9
$PUCSORG
 10
0.0
 20
0.0
 30
0.0
  9
$PUCSXDIR
 10
1.0
 20
0.0
 30
0.0
  9
$PUCSYDIR
 10
0.0
 20
1.0
 30
0.0
  9
$USERI1
 70
     0
  9
$USERI2
 70
     1
  9
$USERI3
 70
     1
  9
$USERI4
 70
     0
  9
$USERI5
 70
     0
  9
$USERR1
 40
0.0
  9
$USERR2
 40
0.0
  9
$USERR3
 40
0.0
  9
$USERR4
 40
0.0
  9
$USERR5
 40
0.0
  9
$WORLDVIEW
 70
     1
  9
$SHADEDGE
 70
     3
  9
$SHADEDIF
 70
    70
  9
$TILEMODE
 70
     1
  9
$MAXACTVP
 70
    16
  9
$PLIMCHECK
 70
     0
  9
$PEXTMIN
 10
1.0000000000000000E+020
 20
1.0000000000000000E+020
 30
1.0000000000000000E+020
  9
$PEXTMAX
 10
-1.0000000000000000E+020
 20
-1.0000000000000000E+020
 30
-1.0000000000000000E+020
  9
$PLIMMIN
 10
0.0
 20
0.0
  9
$PLIMMAX
 10
12.0
 20
9.0
  9
$UNITMODE
 70
     0
  9
$VISRETAIN
 70
     0
  9
$PLINEGEN
 70
     0
  9
$PSLTSCALE
 70
     0
  0
ENDSEC
  0
SECTION
  2
TABLES
  0
TABLE
  2
VPORT
 70
     1
  0
VPORT
  2
*ACTIVE
 70
     0
 10
0.0
 20
0.0
 11
1.0
 21
1.0
 12
93.747139195326156
 22
96.983959220318994
 13
0.0
 23
0.0
 14
5.0
 24
5.0
 15
5.0
 25
5.0
 16
0.0
 26
0.0
 36
1.0
 17
0.0
 27
0.0
 37
0.0
 40
201.84293963319561
 41
1.7807262569832401
 42
50.0
 43
0.0
 44
0.0
 50
0.0
 51
0.0
 71
     0
 72
   500
 73
     1
 74
     0
 75
     0
 76
     0
 77
     0
 78
     1
  0
ENDTAB
  0
TABLE
  2
LTYPE
 70
     3
  0
LTYPE
  2
CONTINUOUS
 70
     0
  3
Solid Line
 72
    65
 73
     0
 40
0.0
  0
LTYPE
  2
CENTER
 70
     0
  3
____ _ ____ _ ____ _ ____ _ ____ _ ____ _ ____
 72
    65
 73
     4
 40
2.0
 49
1.25
 49
-0.25
 49
0.25
 49
-0.25
  0
LTYPE
  2
PHANTOM2
 70
     0
  3
___ _ _ ___ _ _ ___ _ _ ___ _ _
 72
    65
 73
     6
 40
1.25
 49
0.625
 49
-0.125
 49
0.125
 49
-0.125
 49
0.125
 49
-0.125
  0
ENDTAB
  0
TABLE
  2
LAYER
 70
     3
  0
LAYER
  2
0
 70
     0
 62
     7
  6
CONTINUOUS
  0
LAYER
  2
1
 70
     0
 62
     1
  6
CENTER
  0
LAYER
  2
3
 70
     0
 62
     3
  6
CONTINUOUS
  0
ENDTAB
  0
TABLE
  2
STYLE
 70
     2
  0
STYLE
  2
STANDARD
 70
     0
 40
0.0
 41
1.0
 50
0.0
 71
     0
 42
0.2
  3
TXT
  4
BIGFONT
  0
STYLE
  2
STANDARD1
 70
     0
 40
0.0
 41
1.0
 50
0.0
 71
     0
 42
3.0
  3
txt
  4

  0
ENDTAB
  0
TABLE
  2
VIEW
 70
     1
  0
VIEW
  2
ALL
 70
     0
 40
135.0
 10
110.4957983193277
 20
67.5
 41
0.0
 11
0.0
 21
0.0
 31
1.0
 12
0.0
 22
0.0
 32
0.0
 42
0.0
 43
0.0
 44
0.0
 50
0.0
 71
     0
  0
ENDTAB
  0
TABLE
  2
UCS
 70
     0
  0
ENDTAB
  0
TABLE
  2
APPID
 70
     3
  0
APPID
  2
ACAD
 70
     0
  0
APPID
  2
ACAD_MLEADERVER
 70
     0
  0
APPID
  2
ACAD_NAV_VCDISPLAY
 70
     0
  0
ENDTAB
  0
TABLE
  2
DIMSTYLE
 70
     1
  0
DIMSTYLE
  2
STANDARD
 70
     0
  3

  4

  5

  6

  7

 40
1.0
 41
0.18
 42
0.0625
 43
0.38
 44
0.18
 45
0.0
 46
0.0
 47
0.0
 48
0.0
140
0.18
141
0.09
142
0.0
143
25.399999999999999
144
1.0
145
0.0
146
1.0
147
0.09
 71
     0
 72
     0
 73
     1
 74
     1
 75
     0
 76
     0
 77
     0
 78
     0
170
     0
171
     2
172
     0
173
     0
174
     0
175
     0
176
     0
177
     0
178
     0
  0
ENDTAB
  0
ENDSEC
  0
SECTION
  2
BLOCKS
  0
BLOCK
  8
0
  2
$MODEL_SPACE
 70
     0
 10
0.0
 20
0.0
 30
0.0
  3
$MODEL_SPACE
  1

  0
ENDBLK
  5
B6
  8
0
  0
BLOCK
 67
     1
  8
0
  2
$PAPER_SPACE
 70
     0
 10
0.0
 20
0.0
 30
0.0
  3
$PAPER_SPACE
  1

  0
ENDBLK
  5
B4
 67
     1
  8
0
  0
ENDSEC
  0
SECTION
  2
ENTITIES
  0
LINE
  5
34
  8
0
 10
75.000000000000014
 20
61.0
 30
0.0
 11
75.0
 21
69.0
 31
0.0
  0
CIRCLE
  5
35
  8
0
 10
35.0
 20
65.0
 30
0.0
 40
6.5
  0
CIRCLE
  5
36
  8
0
 10
35.0
 20
65.0
 30
0.0
 40
4.0
  0
CIRCLE
  5
37
  8
0
 10
35.0
 20
65.0
 30
0.0
 40
2.5
  0
CIRCLE
  5
38
  8
3
 10
35.0
 20
65.0
 30
0.0
 40
2.0669999999999988
  0
LINE
  5
39
  8
1
 10
62.5
 20
65.0
 30
0.0
 11
117.5
 21
65.0
 31
0.0
  0
LINE
  5
3A
  8
0
 10
65.0
 20
63.399999999999999
 30
0.0
 11
65.0
 21
66.599999999999994
 31
0.0
  0
LINE
  5
3B
  8
0
 10
65.899999999999991
 20
62.5
 30
0.0
 11
65.899999999999991
 21
67.500000000000014
 31
0.0
  0
LINE
  5
3C
  8
0
 10
65.900000000000006
 20
62.5
 30
0.0
 11
74.599999999999994
 21
62.500000000000007
 31
0.0
  0
LINE
  5
3D
  8
0
 10
65.900000000000006
 20
67.5
 30
0.0
 11
74.599999999999994
 21
67.5
 31
0.0
  0
LINE
  5
3E
  8
3
 10
65.467000000000212
 20
62.932999999999787
 30
0.0
 11
74.099999999999767
 21
62.932999999999801
 31
0.0
  0
LINE
  5
3F
  8
3
 10
65.467000000000183
 20
67.067000000000192
 30
0.0
 11
74.099999999999781
 21
67.067000000000206
 31
0.0
  0
LINE
  5
40
  8
0
 10
74.099999999999781
 20
62.500000000000007
 30
0.0
 11
74.099999999999781
 21
67.5
 31
0.0
  0
ARC
  5
41
  8
0
 10
74.599999999999994
 20
62.100000000000009
 30
0.0
 40
0.4
 50
0.0
 51
90.0
  0
ARC
  5
42
  8
0
 10
74.599999999999994
 20
67.900000000000006
 30
0.0
 40
0.4
 50
270.0
 51
0.0
  0
LINE
  5
43
  8
0
 10
65.0
 20
63.399999999999999
 30
0.0
 11
65.900000000000006
 21
62.5
 31
0.0
  0
LINE
  5
44
  8
0
 10
65.0
 20
66.599999999999994
 30
0.0
 11
65.900000000000006
 21
67.5
 31
0.0
  0
LINE
  5
45
  8
0
 10
79.917011840119443
 20
69.0
 30
0.0
 11
79.917011840119443
 21
60.999999999999993
 31
0.0
  0
ARC
  5
46
  8
0
 10
100.0
 20
82.5
 30
0.0
 40
24.0
 50
246.567785155428
 51
305.96739120526149
  0
ARC
  5
47
  8
0
 10
84.519999999999939
 20
47.249999999999993
 30
0.0
 40
14.5
 50
65.833856180311926
 51
108.5086280769461
  0
LINE
  5
48
  8
0
 10
79.917011840119443
 20
60.999999999999993
 30
0.0
 11
74.999999999999986
 21
60.999999999999993
 31
0.0
  0
LINE
  5
49
  8
0
 10
79.917011840119443
 20
69.0
 30
0.0
 11
74.999999999999986
 21
69.0
 31
0.0
  0
ARC
  5
4A
  8
0
 10
84.519999999999939
 20
82.75
 30
0.0
 40
14.5
 50
251.49137192305389
 51
294.1661438196881
  0
ARC
  5
4B
  8
0
 10
100.0
 20
47.499999999999993
 30
0.0
 40
24.0
 50
54.03260879473855
 51
113.432214844572
  0
ARC
  5
4C
  8
0
 10
112.5
 20
65.0
 30
0.0
 40
2.5
 50
309.66646025875821
 51
50.333539741241879
  0
CIRCLE
  5
4D
  8
0
 10
145.0
 20
65.0
 30
0.0
 40
6.5
  0
ARC
  5
4E
  8
0
 10
112.5
 20
95.0
 30
0.0
 40
2.5
 50
309.66646025875821
 51
50.333539741241879
  0
ARC
  5
4F
  8
0
 10
100.0
 20
77.5
 30
0.0
 40
24.0
 50
54.03260879473855
 51
113.432214844572
  0
ARC
  5
50
  8
0
 10
84.519999999999939
 20
112.75
 30
0.0
 40
14.5
 50
251.49137192305389
 51
294.1661438196881
  0
LINE
  5
51
  8
0
 10
79.917011840119443
 20
99.0
 30
0.0
 11
74.999999999999986
 21
99.0
 31
0.0
  0
LINE
  5
52
  8
0
 10
79.917011840119443
 20
91.0
 30
0.0
 11
74.999999999999986
 21
91.0
 31
0.0
  0
ARC
  5
53
  8
0
 10
84.519999999999939
 20
77.25
 30
0.0
 40
14.5
 50
65.833856180311926
 51
108.5086280769461
  0
ARC
  5
54
  8
0
 10
100.0
 20
112.5
 30
0.0
 40
24.0
 50
246.567785155428
 51
305.96739120526149
  0
LINE
  5
55
  8
0
 10
79.917011840119443
 20
99.0
 30
0.0
 11
79.917011840119443
 21
91.0
 31
0.0
  0
LINE
  5
56
  8
0
 10
65.0
 20
96.599999999999994
 30
0.0
 11
65.900000000000006
 21
97.5
 31
0.0
  0
LINE
  5
57
  8
0
 10
65.0
 20
93.400000000000006
 30
0.0
 11
65.900000000000006
 21
92.5
 31
0.0
  0
ARC
  5
58
  8
0
 10
74.599999999999994
 20
97.900000000000006
 30
0.0
 40
0.4
 50
270.0
 51
0.0
  0
ARC
  5
59
  8
0
 10
74.599999999999994
 20
92.100000000000023
 30
0.0
 40
0.4
 50
0.0
 51
90.0
  0
LINE
  5
5A
  8
0
 10
74.099999999999781
 20
92.500000000000014
 30
0.0
 11
74.099999999999781
 21
97.5
 31
0.0
  0
LINE
  5
5B
  8
3
 10
65.467000000000183
 20
97.067000000000192
 30
0.0
 11
74.099999999999781
 21
97.067000000000206
 31
0.0
  0
LINE
  5
5C
  8
3
 10
65.467000000000212
 20
92.932999999999794
 30
0.0
 11
74.099999999999767
 21
92.932999999999794
 31
0.0
  0
LINE
  5
5D
  8
0
 10
65.900000000000006
 20
97.5
 30
0.0
 11
74.599999999999994
 21
97.5
 31
0.0
  0
LINE
  5
5E
  8
0
 10
65.900000000000006
 20
92.5
 30
0.0
 11
74.599999999999994
 21
92.500000000000014
 31
0.0
  0
LINE
  5
5F
  8
0
 10
65.899999999999991
 20
92.5
 30
0.0
 11
65.899999999999991
 21
97.500000000000014
 31
0.0
  0
LINE
  5
60
  8
0
 10
65.0
 20
93.400000000000006
 30
0.0
 11
65.0
 21
96.599999999999994
 31
0.0
  0
LINE
  5
61
  8
1
 10
62.5
 20
95.0
 30
0.0
 11
117.5
 21
95.000000000000014
 31
0.0
  0
LINE
  5
62
  8
0
 10
75.000000000000014
 20
91.0
 30
0.0
 11
75.0
 21
99.0
 31
0.0
  0
ARC
  5
63
  8
0
 10
112.5
 20
35.0
 30
0.0
 40
2.5
 50
309.66646025875821
 51
50.333539741241879
  0
ARC
  5
64
  8
0
 10
100.0
 20
17.499999999999989
 30
0.0
 40
24.0
 50
54.03260879473855
 51
113.432214844572
  0
ARC
  5
65
  8
0
 10
84.519999999999939
 20
52.75
 30
0.0
 40
14.5
 50
251.49137192305389
 51
294.1661438196881
  0
LINE
  5
66
  8
0
 10
79.917011840119443
 20
39.0
 30
0.0
 11
74.999999999999986
 21
39.0
 31
0.0
  0
LINE
  5
67
  8
0
 10
79.917011840119443
 20
31.0
 30
0.0
 11
74.999999999999986
 21
31.0
 31
0.0
  0
ARC
  5
68
  8
0
 10
84.519999999999939
 20
17.249999999999989
 30
0.0
 40
14.5
 50
65.833856180311926
 51
108.5086280769461
  0
ARC
  5
69
  8
0
 10
100.0
 20
52.5
 30
0.0
 40
24.0
 50
246.567785155428
 51
305.96739120526149
  0
LINE
  5
6A
  8
0
 10
79.917011840119443
 20
39.0
 30
0.0
 11
79.917011840119443
 21
31.0
 31
0.0
  0
LINE
  5
6B
  8
0
 10
65.0
 20
36.600000000000001
 30
0.0
 11
65.900000000000006
 21
37.5
 31
0.0
  0
LINE
  5
6C
  8
0
 10
65.0
 20
33.400000000000013
 30
0.0
 11
65.900000000000006
 21
32.500000000000007
 31
0.0
  0
ARC
  5
6D
  8
0
 10
74.599999999999994
 20
37.900000000000013
 30
0.0
 40
0.4
 50
270.0
 51
0.0
  0
ARC
  5
6E
  8
0
 10
74.599999999999994
 20
32.100000000000023
 30
0.0
 40
0.4
 50
0.0
 51
90.0
  0
LINE
  5
6F
  8
0
 10
74.099999999999781
 20
32.500000000000021
 30
0.0
 11
74.099999999999781
 21
37.500000000000007
 31
0.0
  0
LINE
  5
70
  8
3
 10
65.467000000000183
 20
37.067000000000192
 30
0.0
 11
74.099999999999781
 21
37.067000000000199
 31
0.0
  0
LINE
  5
71
  8
3
 10
65.467000000000212
 20
32.932999999999787
 30
0.0
 11
74.099999999999767
 21
32.932999999999801
 31
0.0
  0
LINE
  5
72
  8
0
 10
65.900000000000006
 20
37.5
 30
0.0
 11
74.599999999999994
 21
37.500000000000007
 31
0.0
  0
LINE
  5
73
  8
0
 10
65.900000000000006
 20
32.500000000000007
 30
0.0
 11
74.599999999999994
 21
32.500000000000021
 31
0.0
  0
LINE
  5
74
  8
0
 10
65.899999999999991
 20
32.500000000000007
 30
0.0
 11
65.899999999999991
 21
37.500000000000021
 31
0.0
  0
LINE
  5
75
  8
0
 10
65.0
 20
33.400000000000013
 30
0.0
 11
65.0
 21
36.600000000000001
 31
0.0
  0
LINE
  5
76
  8
1
 10
62.5
 20
35.0
 30
0.0
 11
117.5
 21
35.0
 31
0.0
  0
LINE
  5
77
  8
0
 10
75.000000000000014
 20
31.0
 30
0.0
 11
75.0
 21
39.0
 31
0.0
  0
LINE
  5
78
  8
1
 10
44.0
 20
65.0
 30
0.0
 11
26.0
 21
65.0
 31
0.0
  0
LINE
  5
79
  8
1
 10
35.0
 20
74.0
 30
0.0
 11
35.0
 21
56.0
 31
0.0
  0
LINE
  5
7A
  8
1
 10
154.0
 20
65.0
 30
0.0
 11
136.0
 21
65.0
 31
0.0
  0
LINE
  5
7B
  8
1
 10
145.0
 20
74.0
 30
0.0
 11
145.0
 21
56.0
 31
0.0
  0
TEXT
  5
1A0
  8
0
 62
     3
 10
0.0
 20
0.0
 30
0.0
 40
10.0
  1
SA13
  7
STANDARD1
  0
ENDSEC
  0
EOF
