  0
SECTION
  2
HEADER
  9
$ACADVER
  1
AC1009
  9
$INSBASE
 10
0.0
 20
0.0
 30
0.0
  9
$EXTMIN
 10
0.0
 20
-2.960436562073669
 30
0.0
  9
$EXTMAX
 10
991.79076845900408
 20
774.56834532374091
 30
0.0
  9
$LIMMIN
 10
0.0
 20
0.0
  9
$LIMMAX
 10
1125.0
 20
810.0
  9
$ORTHOMODE
 70
     1
  9
$REGENMODE
 70
     1
  9
$FILLMODE
 70
     1
  9
$QTEXTMODE
 70
     0
  9
$MIRRTEXT
 70
     0
  9
$DRAGMODE
 70
     2
  9
$LTSCALE
 40
30.0
  9
$OSMODE
 70
    55
  9
$ATTMODE
 70
     1
  9
$TEXTSIZE
 40
7.9999999999999254
  9
$TRACEWID
 40
2.0962534417751821
  9
$TEXTSTYLE
  7
STANDARD
  9
$CLAYER
  8
0
  9
$CELTYPE
  6
BYLAYER
  9
$CECOLOR
 62
   256
  9
$DIMSCALE
 40
3.0
  9
$DIMASZ
 40
3.0
  9
$DIMEXO
 40
2.0
  9
$DIMDLI
 40
0.3799999999999999
  9
$DIMRND
 40
0.0
  9
$DIMDLE
 40
0.0
  9
$DIMEXE
 40
2.0
  9
$DIMTP
 40
0.0
  9
$DIMTM
 40
0.0
  9
$DIMTXT
 40
3.2000000000000002
  9
$DIMCEN
 40
0.09
  9
$DIMTSZ
 40
0.0
  9
$DIMTOL
 70
     0
  9
$DIMLIM
 70
     0
  9
$DIMTIH
 70
     0
  9
$DIMTOH
 70
     0
  9
$DIMSE1
 70
     0
  9
$DIMSE2
 70
     0
  9
$DIMTAD
 70
     1
  9
$DIMZIN
 70
     0
  9
$DIMBLK
  1

  9
$DIMASO
 70
     1
  9
$DIMSHO
 70
     0
  9
$DIMPOST
  1

  9
$DIMAPOST
  1

  9
$DIMALT
 70
     0
  9
$DIMALTD
 70
     2
  9
$DIMALTF
 40
25.399999999999999
  9
$DIMLFAC
 40
1.0
  9
$DIMTOFL
 70
     0
  9
$DIMTVP
 40
0.0
  9
$DIMTIX
 70
     1
  9
$DIMSOXD
 70
     0
  9
$DIMSAH
 70
     0
  9
$DIMBLK1
  1

  9
$DIMBLK2
  1

  9
$DIMSTYLE
  2
STANDARD
  9
$DIMCLRD
 70
     0
  9
$DIMCLRE
 70
     0
  9
$DIMCLRT
 70
     0
  9
$DIMTFAC
 40
1.0
  9
$DIMGAP
 40
0.09
  9
$LUNITS
 70
     2
  9
$LUPREC
 70
     4
  9
$SKETCHINC
 40
0.1
  9
$FILLETRAD
 40
5.0
  9
$AUNITS
 70
     1
  9
$AUPREC
 70
     4
  9
$MENU
  1
E:\r13\win\SUPPORT\ACAD
  9
$ELEVATION
 40
0.0
  9
$PELEVATION
 40
0.0
  9
$THICKNESS
 40
0.0
  9
$LIMCHECK
 70
     0
  9
$BLIPMODE
 70
     0
  9
$CHAMFERA
 40
0.0
  9
$CHAMFERB
 40
0.0
  9
$SKPOLY
 70
     0
  9
$TDCREATE
 40
2449840.5977777778
  9
$TDUPDATE
 40
2456598.4763246421
  9
$TDINDWG
 40
0.0002016782
  9
$TDUSRTIMER
 40
0.0002016782
  9
$USRTIMER
 70
     1
  9
$ANGBASE
 50
0.0
  9
$ANGDIR
 70
     0
  9
$PDMODE
 70
     0
  9
$PDSIZE
 40
0.0
  9
$PLINEWID
 40
0.0
  9
$COORDS
 70
     1
  9
$SPLFRAME
 70
     0
  9
$SPLINETYPE
 70
     6
  9
$SPLINESEGS
 70
     8
  9
$ATTDIA
 70
     0
  9
$ATTREQ
 70
     1
  9
$HANDLING
 70
     1
  9
$HANDSEED
  5
507
  9
$SURFTAB1
 70
     6
  9
$SURFTAB2
 70
     6
  9
$SURFTYPE
 70
     6
  9
$SURFU
 70
     6
  9
$SURFV
 70
     6
  9
$UCSNAME
  2

  9
$UCSORG
 10
0.0
 20
0.0
 30
0.0
  9
$UCSXDIR
 10
1.0
 20
0.0
 30
0.0
  9
$UCSYDIR
 10
0.0
 20
1.0
 30
0.0
  9
$PUCSNAME
  2

  9
$PUCSORG
 10
0.0
 20
0.0
 30
0.0
  9
$PUCSXDIR
 10
1.0
 20
0.0
 30
0.0
  9
$PUCSYDIR
 10
0.0
 20
1.0
 30
0.0
  9
$USERI1
 70
     0
  9
$USERI2
 70
     1
  9
$USERI3
 70
     1
  9
$USERI4
 70
     0
  9
$USERI5
 70
     0
  9
$USERR1
 40
0.0
  9
$USERR2
 40
0.0
  9
$USERR3
 40
0.0
  9
$USERR4
 40
0.0
  9
$USERR5
 40
0.0
  9
$WORLDVIEW
 70
     1
  9
$SHADEDGE
 70
     3
  9
$SHADEDIF
 70
    70
  9
$TILEMODE
 70
     1
  9
$MAXACTVP
 70
    16
  9
$PLIMCHECK
 70
     0
  9
$PEXTMIN
 10
1.0000000000000000E+020
 20
1.0000000000000000E+020
 30
1.0000000000000000E+020
  9
$PEXTMAX
 10
-1.0000000000000000E+020
 20
-1.0000000000000000E+020
 30
-1.0000000000000000E+020
  9
$PLIMMIN
 10
0.0
 20
0.0
  9
$PLIMMAX
 10
12.0
 20
9.0
  9
$UNITMODE
 70
     0
  9
$VISRETAIN
 70
     0
  9
$PLINEGEN
 70
     0
  9
$PSLTSCALE
 70
     0
  0
ENDSEC
  0
SECTION
  2
TABLES
  0
TABLE
  2
VPORT
 70
     1
  0
VPORT
  2
*ACTIVE
 70
     0
 10
0.0
 20
0.0
 11
1.0
 21
1.0
 12
562.48283517195705
 22
585.99040309504903
 13
0.0
 23
0.0
 14
30.0
 24
30.0
 15
30.0
 25
30.0
 16
0.0
 26
0.0
 36
1.0
 17
0.0
 27
0.0
 37
0.0
 40
1189.359928546505
 41
1.7807262569832401
 42
50.0
 43
0.0
 44
0.0
 50
0.0
 51
0.0
 71
     0
 72
  1000
 73
     1
 74
     0
 75
     0
 76
     0
 77
     0
 78
     2
  0
ENDTAB
  0
TABLE
  2
LTYPE
 70
     4
  0
LTYPE
  2
CONTINUOUS
 70
     0
  3
Solid Line
 72
    65
 73
     0
 40
0.0
  0
LTYPE
  2
CENTER
 70
     0
  3
____ _ ____ _ ____ _ ____ _ ____ _ ____ _ ____
 72
    65
 73
     4
 40
2.0
 49
1.25
 49
-0.25
 49
0.25
 49
-0.25
  0
LTYPE
  2
HIDDEN
 70
     0
  3
_ _ _ _ _ _ _ _ _ _ _ _ _ _ _ _ _ _ _ _ _ _ _
 72
    65
 73
     2
 40
0.375
 49
0.25
 49
-0.125
  0
LTYPE
  2
PHANTOM2
 70
     0
  3
___ _ _ ___ _ _ ___ _ _ ___ _ _
 72
    65
 73
     6
 40
1.25
 49
0.625
 49
-0.125
 49
0.125
 49
-0.125
 49
0.125
 49
-0.125
  0
ENDTAB
  0
TABLE
  2
LAYER
 70
     4
  0
LAYER
  2
0
 70
     0
 62
     7
  6
CONTINUOUS
  0
LAYER
  2
1
 70
     0
 62
     1
  6
CENTER
  0
LAYER
  2
3
 70
     0
 62
     3
  6
CONTINUOUS
  0
LAYER
  2
2
 70
     0
 62
     2
  6
HIDDEN
  0
ENDTAB
  0
TABLE
  2
STYLE
 70
     2
  0
STYLE
  2
STANDARD
 70
     0
 40
0.0
 41
1.0
 50
0.0
 71
     0
 42
7.9999999999999254
  3
TXT
  4
BIGFONT
  0
STYLE
  2
STANDARD1
 70
     0
 40
0.0
 41
1.0
 50
0.0
 71
     0
 42
3.0
  3
txt
  4

  0
ENDTAB
  0
TABLE
  2
VIEW
 70
     0
  0
ENDTAB
  0
TABLE
  2
UCS
 70
     0
  0
ENDTAB
  0
TABLE
  2
APPID
 70
     3
  0
APPID
  2
ACAD
 70
     0
  0
APPID
  2
ACAD_MLEADERVER
 70
     0
  0
APPID
  2
ACAD_NAV_VCDISPLAY
 70
     0
  0
ENDTAB
  0
TABLE
  2
DIMSTYLE
 70
     1
  0
DIMSTYLE
  2
STANDARD
 70
     0
  3

  4

  5

  6

  7

 40
1.0
 41
0.18
 42
0.0625
 43
0.38
 44
0.18
 45
0.0
 46
0.0
 47
0.0
 48
0.0
140
0.18
141
0.09
142
0.0
143
25.399999999999999
144
1.0
145
0.0
146
1.0
147
0.09
 71
     0
 72
     0
 73
     1
 74
     1
 75
     0
 76
     0
 77
     0
 78
     0
170
     0
171
     2
172
     0
173
     0
174
     0
175
     0
176
     0
177
     0
178
     0
  0
ENDTAB
  0
ENDSEC
  0
SECTION
  2
BLOCKS
  0
BLOCK
  8
0
  2
$MODEL_SPACE
 70
     0
 10
0.0
 20
0.0
 30
0.0
  3
$MODEL_SPACE
  1

  0
ENDBLK
  5
356
  8
0
  0
BLOCK
 67
     1
  8
0
  2
$PAPER_SPACE
 70
     0
 10
0.0
 20
0.0
 30
0.0
  3
$PAPER_SPACE
  1

  0
ENDBLK
  5
354
 67
     1
  8
0
  0
ENDSEC
  0
SECTION
  2
ENTITIES
  0
LINE
  5
36
  8
0
 10
555.99999999999966
 20
149.15647482014401
 30
0.0
 11
556.00000000000023
 21
127.156474820144
 31
0.0
  0
ARC
  5
37
  8
0
 10
509.6871128339809
 20
131.15647482014401
 30
0.0
 40
4.0
 50
191.2122714176497
 51
270.0
  0
ARC
  5
38
  8
0
 10
509.6871128339809
 20
145.15647482014401
 30
0.0
 40
4.0
 50
89.999999999999986
 51
168.7877285823507
  0
LINE
  5
39
  8
0
 10
556.00000000000023
 20
127.156474820144
 30
0.0
 11
578.08326108942435
 21
128.07661069887001
 31
0.0
  0
LINE
  5
3A
  8
0
 10
578.08326108942435
 20
148.2363389414179
 30
0.0
 11
555.99999999999966
 21
149.15647482014401
 31
0.0
  0
ARC
  5
3B
  8
0
 10
545.0
 20
138.15647482014401
 30
0.0
 40
40.000000000000021
 50
168.78772858235021
 51
191.21227141764959
  0
LINE
  5
3C
  8
0
 10
580.49999999999989
 20
129.65647482014401
 30
0.0
 11
580.49999999999989
 21
146.65647482014401
 31
0.0
  0
LINE
  5
3D
  8
0
 10
509.6871128339809
 20
127.156474820144
 30
0.0
 11
556.00000000000023
 21
127.156474820144
 31
0.0
  0
LINE
  5
3E
  8
0
 10
509.6871128339809
 20
149.15647482014401
 30
0.0
 11
555.99999999999966
 21
149.15647482014401
 31
0.0
  0
LINE
  5
3F
  8
0
 10
580.49999999999989
 20
129.65647482014401
 30
0.0
 11
580.0
 21
130.15647482014401
 31
0.0
  0
LINE
  5
40
  8
0
 10
580.49999999999989
 20
146.65647482014401
 30
0.0
 11
580.0
 21
146.15647482014401
 31
0.0
  0
LINE
  5
41
  8
0
 10
580.0
 20
146.23807279523311
 30
0.0
 11
580.0
 21
130.07487684505469
 31
0.0
  0
ARC
  5
42
  8
0
 10
578.0
 20
130.07487684505469
 30
0.0
 40
2.0
 50
272.38594403038888
 51
360.0
  0
ARC
  5
43
  8
0
 10
578.0
 20
146.23807279523311
 30
0.0
 40
2.0
 50
360.0
 51
87.614055969610931
  0
LINE
  5
44
  8
0
 10
582.5
 20
146.6564748201439
 30
0.0
 11
582.5
 21
144.65647482014381
 31
0.0
  0
LINE
  5
45
  8
0
 10
582.5
 20
146.6564748201439
 30
0.0
 11
580.49999999999989
 21
146.65647482014401
 31
0.0
  0
LINE
  5
46
  8
0
 10
582.5
 20
129.6564748201439
 30
0.0
 11
580.49999999999989
 21
129.65647482014401
 31
0.0
  0
LINE
  5
47
  8
0
 10
582.5
 20
144.6564748201439
 30
0.0
 11
590.0
 21
144.65647482014401
 31
0.0
  0
LINE
  5
48
  8
0
 10
582.5
 20
131.65647482014401
 30
0.0
 11
590.0
 21
131.6564748201441
 31
0.0
  0
LINE
  5
49
  8
0
 10
582.5
 20
131.6564748201439
 30
0.0
 11
582.5
 21
129.65647482014401
 31
0.0
  0
LINE
  5
4A
  8
0
 10
582.5
 20
668.06834532374069
 30
0.0
 11
582.5
 21
666.06834532374091
 31
0.0
  0
LINE
  5
4B
  8
0
 10
582.5
 20
668.06834532374091
 30
0.0
 11
590.0
 21
668.06834532374103
 31
0.0
  0
LINE
  5
4C
  8
0
 10
582.5
 20
681.0683453237408
 30
0.0
 11
590.0
 21
681.06834532374091
 31
0.0
  0
LINE
  5
4D
  8
0
 10
582.5
 20
666.0683453237408
 30
0.0
 11
580.49999999999989
 21
666.06834532374091
 31
0.0
  0
LINE
  5
4E
  8
0
 10
582.5
 20
683.0683453237408
 30
0.0
 11
580.49999999999989
 21
683.0683453237408
 31
0.0
  0
LINE
  5
4F
  8
0
 10
582.5
 20
683.0683453237408
 30
0.0
 11
582.5
 21
681.06834532374057
 31
0.0
  0
ARC
  5
50
  8
0
 10
578.0
 20
682.64994329882995
 30
0.0
 40
2.0
 50
360.0
 51
87.614055969610931
  0
ARC
  5
51
  8
0
 10
578.0
 20
666.48674734865165
 30
0.0
 40
2.0
 50
272.38594403038888
 51
360.0
  0
LINE
  5
52
  8
0
 10
580.0
 20
682.64994329882995
 30
0.0
 11
580.0
 21
666.48674734865165
 31
0.0
  0
LINE
  5
53
  8
0
 10
580.49999999999989
 20
683.0683453237408
 30
0.0
 11
580.0
 21
682.56834532374091
 31
0.0
  0
LINE
  5
54
  8
0
 10
580.49999999999989
 20
666.06834532374091
 30
0.0
 11
580.0
 21
666.5683453237408
 31
0.0
  0
LINE
  5
55
  8
0
 10
509.6871128339809
 20
685.56834532374091
 30
0.0
 11
555.99999999999966
 21
685.56834532374091
 31
0.0
  0
LINE
  5
56
  8
0
 10
509.6871128339809
 20
663.56834532374091
 30
0.0
 11
556.00000000000023
 21
663.56834532374091
 31
0.0
  0
LINE
  5
57
  8
0
 10
580.49999999999989
 20
666.06834532374091
 30
0.0
 11
580.49999999999989
 21
683.0683453237408
 31
0.0
  0
ARC
  5
58
  8
0
 10
545.0
 20
674.56834532374091
 30
0.0
 40
40.000000000000021
 50
168.78772858235021
 51
191.21227141764959
  0
LINE
  5
59
  8
0
 10
578.08326108942435
 20
684.6482094450148
 30
0.0
 11
555.99999999999966
 21
685.56834532374091
 31
0.0
  0
LINE
  5
5A
  8
0
 10
556.00000000000023
 20
663.56834532374091
 30
0.0
 11
578.08326108942435
 21
664.48848120246691
 31
0.0
  0
ARC
  5
5B
  8
0
 10
509.6871128339809
 20
681.56834532374091
 30
0.0
 40
4.0
 50
89.999999999999986
 51
168.7877285823507
  0
ARC
  5
5C
  8
0
 10
509.6871128339809
 20
667.56834532374091
 30
0.0
 40
4.0
 50
191.2122714176497
 51
270.0
  0
LINE
  5
5D
  8
0
 10
555.99999999999966
 20
685.56834532374091
 30
0.0
 11
556.00000000000023
 21
663.56834532374091
 31
0.0
  0
LINE
  5
5E
  8
0
 10
646.49999999999989
 20
652.06834532374091
 30
0.0
 11
646.50000000000045
 21
697.06834532374091
 31
0.0
  0
LINE
  5
5F
  8
0
 10
619.0
 20
699.56834532374091
 30
0.0
 11
611.0
 21
697.06834532374091
 31
0.0
  0
LINE
  5
60
  8
0
 10
619.0
 20
699.56834532374228
 30
0.0
 11
630.55918254822848
 21
699.56834532374205
 31
0.0
  0
LINE
  5
61
  8
0
 10
631.0
 20
697.06834532374091
 30
0.0
 11
646.49999999999989
 21
697.06834532374091
 31
0.0
  0
LINE
  5
62
  8
0
 10
646.49999999999989
 20
697.06834532374091
 30
0.0
 11
647.0
 21
696.56834532374091
 31
0.0
  0
LINE
  5
63
  8
0
 10
630.55918254822848
 20
699.56834532374205
 30
0.0
 11
631.0
 21
697.06834532374091
 31
0.0
  0
LINE
  5
64
  8
0
 10
608.49999999999989
 20
774.56834532374091
 30
0.0
 11
592.0
 21
774.56834532374091
 31
0.0
  0
LINE
  5
65
  8
0
 10
608.49999999999989
 20
774.56834532374091
 30
0.0
 11
610.0
 21
773.06834532374091
 31
0.0
  0
ARC
  5
66
  8
0
 10
592.0
 20
772.56834532374091
 30
0.0
 40
2.0
 50
90.000000000000014
 51
179.99999999999989
  0
ARC
  5
67
  8
0
 10
592.0
 20
576.56834532374091
 30
0.0
 40
2.0
 50
180.00000000000011
 51
270.0
  0
LINE
  5
68
  8
0
 10
610.0
 20
773.0683453237408
 30
0.0
 11
610.0
 21
576.06834532374091
 31
0.0
  0
LINE
  5
69
  8
0
 10
608.49999999999989
 20
574.56834532374091
 30
0.0
 11
610.0
 21
576.06834532374091
 31
0.0
  0
LINE
  5
6A
  8
0
 10
630.55918254822882
 20
699.56834532374205
 30
0.0
 11
630.55918254822882
 21
649.56834532374091
 31
0.0
  0
LINE
  5
6B
  8
0
 10
631.0
 20
697.06834532374091
 30
0.0
 11
631.0
 21
652.06834532374091
 31
0.0
  0
LINE
  5
6C
  8
0
 10
611.0
 20
697.06834532374091
 30
0.0
 11
611.0
 21
695.73791604174767
 31
0.0
  0
LINE
  5
6D
  8
0
 10
647.0
 20
652.56834532374091
 30
0.0
 11
647.0
 21
696.56834532374091
 31
0.0
  0
LINE
  5
6E
  8
0
 10
590.0
 20
576.56834532374091
 30
0.0
 11
590.0
 21
772.56834532374091
 31
0.0
  0
LINE
  5
6F
  8
0
 10
608.49999999999989
 20
574.56834532374091
 30
0.0
 11
592.0
 21
574.56834532374091
 31
0.0
  0
LINE
  5
70
  8
1
 10
490.5
 20
674.56834532374091
 30
0.0
 11
662.0
 21
674.56834532374091
 31
0.0
  0
LINE
  5
71
  8
0
 10
619.3608048310125
 20
696.88372264092311
 30
0.0
 11
627.06641105351264
 21
694.35102549710678
 31
0.0
  0
LINE
  5
72
  8
0
 10
627.06641105351264
 20
694.35102549710678
 30
0.0
 11
610.0
 21
692.53095720163901
 31
0.0
  0
LINE
  5
73
  8
0
 10
610.0
 20
695.57986644214395
 30
0.0
 11
618.24966467518698
 21
696.88372264092322
 31
0.0
  0
LINE
  5
74
  8
2
 10
611.0
 20
695.73791604174767
 30
0.0
 11
611.0
 21
653.39877460573393
 31
0.0
  0
LINE
  5
75
  8
0
 10
619.00000000000091
 20
697.63542834624775
 30
0.0
 11
619.00000000000409
 21
699.56834532374205
 31
0.0
  0
LINE
  5
76
  8
0
 10
627.06641105351264
 20
694.35102549710678
 30
0.0
 11
627.06641105351275
 21
654.78566515037483
 31
0.0
  0
LINE
  5
77
  8
0
 10
608.49999999999989
 20
574.56834532374091
 30
0.0
 11
608.49999999999989
 21
774.56834532374091
 31
0.0
  0
ARC
  5
78
  8
0
 10
618.10886086371386
 20
697.77460633705823
 30
0.0
 40
0.9019420565261649
 50
278.98128356196668
 51
351.12326351182679
  0
ARC
  5
79
  8
0
 10
619.54127243330527
 20
697.43278642555322
 30
0.0
 40
0.5779615861612858
 50
159.4750726884532
 51
251.80521585325559
  0
ARC
  5
7A
  8
0
 10
619.54127243330527
 20
651.7039042219285
 30
0.0
 40
0.5779615861612858
 50
108.1947841467444
 51
200.5249273115468
  0
ARC
  5
7B
  8
0
 10
618.10886086371386
 20
651.36208431042326
 30
0.0
 40
0.9019420565261649
 50
8.8767364881732522
 51
81.018716438033394
  0
LINE
  5
7C
  8
0
 10
619.00000000000091
 20
651.50126230123374
 30
0.0
 11
619.00000000000409
 21
649.56834532373955
 31
0.0
  0
LINE
  5
7D
  8
0
 10
610.0
 20
653.55682420533765
 30
0.0
 11
618.24966467518698
 21
652.25296800655838
 31
0.0
  0
LINE
  5
7E
  8
0
 10
627.06641105351264
 20
654.78566515037483
 30
0.0
 11
610.0
 21
656.6057334458427
 31
0.0
  0
LINE
  5
7F
  8
0
 10
619.3608048310125
 20
652.2529680065586
 30
0.0
 11
627.06641105351264
 21
654.78566515037483
 31
0.0
  0
LINE
  5
80
  8
0
 10
611.0
 20
652.06834532374091
 30
0.0
 11
611.0
 21
653.39877460573393
 31
0.0
  0
LINE
  5
81
  8
0
 10
630.55918254822848
 20
649.56834532373955
 30
0.0
 11
631.0
 21
652.06834532374091
 31
0.0
  0
LINE
  5
82
  8
0
 10
646.49999999999989
 20
652.06834532374091
 30
0.0
 11
647.0
 21
652.56834532374091
 31
0.0
  0
LINE
  5
83
  8
0
 10
631.0
 20
652.06834532374057
 30
0.0
 11
646.49999999999989
 21
652.06834532374091
 31
0.0
  0
LINE
  5
84
  8
0
 10
619.0
 20
649.56834532373955
 30
0.0
 11
630.55918254822848
 21
649.56834532373955
 31
0.0
  0
LINE
  5
85
  8
0
 10
619.0
 20
649.5683453237408
 30
0.0
 11
611.0
 21
652.06834532374091
 31
0.0
  0
LINE
  5
87
  8
0
 10
619.0
 20
163.15647482014401
 30
0.0
 11
611.0
 21
160.6564748201439
 31
0.0
  0
LINE
  5
88
  8
0
 10
619.0
 20
163.15647482014529
 30
0.0
 11
630.55918254822848
 21
163.15647482014521
 31
0.0
  0
LINE
  5
89
  8
0
 10
631.0
 20
160.65647482014401
 30
0.0
 11
646.49999999999989
 21
160.6564748201439
 31
0.0
  0
LINE
  5
8A
  8
0
 10
646.49999999999989
 20
160.6564748201439
 30
0.0
 11
647.0
 21
160.1564748201439
 31
0.0
  0
LINE
  5
8B
  8
0
 10
630.55918254822848
 20
163.15647482014521
 30
0.0
 11
631.0
 21
160.6564748201439
 31
0.0
  0
LINE
  5
8C
  8
0
 10
611.0
 20
160.6564748201439
 30
0.0
 11
611.0
 21
159.32604553815091
 31
0.0
  0
LINE
  5
8D
  8
0
 10
619.3608048310125
 20
160.47185213732621
 30
0.0
 11
627.06641105351264
 21
157.9391549935099
 31
0.0
  0
LINE
  5
8E
  8
0
 10
627.06641105351264
 20
157.9391549935099
 30
0.0
 11
610.0
 21
156.119086698042
 31
0.0
  0
LINE
  5
8F
  8
0
 10
610.0
 20
159.16799593854711
 30
0.0
 11
618.24966467518698
 21
160.47185213732629
 31
0.0
  0
LINE
  5
90
  8
0
 10
619.00000000000091
 20
161.22355784265099
 30
0.0
 11
619.00000000000409
 21
163.15647482014529
 31
0.0
  0
ARC
  5
91
  8
0
 10
618.10886086371386
 20
161.36273583346139
 30
0.0
 40
0.9019420565261649
 50
278.98128356196662
 51
351.12326351182668
  0
ARC
  5
92
  8
0
 10
619.54127243330527
 20
161.0209159219562
 30
0.0
 40
0.5779615861612858
 50
159.4750726884532
 51
251.80521585325559
  0
ARC
  5
93
  8
0
 10
619.54127243330527
 20
115.2920337183316
 30
0.0
 40
0.5779615861612858
 50
108.1947841467444
 51
200.5249273115468
  0
ARC
  5
94
  8
0
 10
618.10886086371386
 20
114.9502138068265
 30
0.0
 40
0.9019420565261649
 50
8.8767364881732238
 51
81.018716438033366
  0
LINE
  5
95
  8
0
 10
608.49999999999989
 20
238.1564748201439
 30
0.0
 11
608.49999999999989
 21
38.156474820143963
 31
0.0
  0
LINE
  5
96
  8
0
 10
627.06641105351264
 20
118.37379464677799
 30
0.0
 11
627.06641105351275
 21
157.9391549935099
 31
0.0
  0
LINE
  5
97
  8
0
 10
619.00000000000091
 20
115.08939179763691
 30
0.0
 11
619.00000000000409
 21
113.15647482014261
 31
0.0
  0
LINE
  5
98
  8
2
 10
611.0
 20
116.986904102137
 30
0.0
 11
611.0
 21
159.32604553815091
 31
0.0
  0
LINE
  5
99
  8
0
 10
610.0
 20
117.1449537017408
 30
0.0
 11
618.24966467518698
 21
115.8410975029616
 31
0.0
  0
LINE
  5
9A
  8
0
 10
627.06641105351264
 20
118.3737946467779
 30
0.0
 11
610.0
 21
120.1938629422458
 31
0.0
  0
LINE
  5
9B
  8
0
 10
619.3608048310125
 20
115.8410975029617
 30
0.0
 11
627.06641105351264
 21
118.3737946467779
 31
0.0
  0
LINE
  5
9C
  8
1
 10
490.5
 20
138.1564748201439
 30
0.0
 11
662.0
 21
138.1564748201439
 31
0.0
  0
LINE
  5
9D
  8
0
 10
608.49999999999989
 20
238.1564748201439
 30
0.0
 11
592.0
 21
238.1564748201439
 31
0.0
  0
LINE
  5
9E
  8
0
 10
590.0
 20
236.1564748201439
 30
0.0
 11
590.0
 21
40.156474820143949
 31
0.0
  0
LINE
  5
9F
  8
0
 10
647.0
 20
160.1564748201439
 30
0.0
 11
647.0
 21
116.1564748201439
 31
0.0
  0
LINE
  5
A0
  8
0
 10
611.0
 20
115.6564748201439
 30
0.0
 11
611.0
 21
116.986904102137
 31
0.0
  0
LINE
  5
A1
  8
0
 10
631.0
 20
115.6564748201439
 30
0.0
 11
631.0
 21
160.6564748201439
 31
0.0
  0
LINE
  5
A2
  8
0
 10
630.55918254822882
 20
113.15647482014261
 30
0.0
 11
630.55918254822882
 21
163.1564748201439
 31
0.0
  0
LINE
  5
A3
  8
0
 10
608.49999999999989
 20
238.1564748201439
 30
0.0
 11
610.0
 21
236.65647482014401
 31
0.0
  0
LINE
  5
A4
  8
0
 10
610.0
 20
39.656474820144012
 30
0.0
 11
610.0
 21
236.65647482014401
 31
0.0
  0
ARC
  5
A5
  8
0
 10
592.0
 20
236.1564748201439
 30
0.0
 40
2.0
 50
90.0
 51
179.99999999999989
  0
ARC
  5
A6
  8
0
 10
592.0
 20
40.156474820143949
 30
0.0
 40
2.0
 50
180.00000000000011
 51
270.0
  0
LINE
  5
A7
  8
0
 10
608.49999999999989
 20
38.156474820143963
 30
0.0
 11
610.0
 21
39.656474820143963
 31
0.0
  0
LINE
  5
A8
  8
0
 10
608.49999999999989
 20
38.156474820143963
 30
0.0
 11
592.0
 21
38.156474820143963
 31
0.0
  0
LINE
  5
A9
  8
0
 10
630.55918254822848
 20
113.15647482014261
 30
0.0
 11
631.0
 21
115.6564748201439
 31
0.0
  0
LINE
  5
AA
  8
0
 10
646.49999999999989
 20
115.6564748201439
 30
0.0
 11
647.0
 21
116.1564748201439
 31
0.0
  0
LINE
  5
AB
  8
0
 10
631.0
 20
115.6564748201438
 30
0.0
 11
646.49999999999989
 21
115.6564748201439
 31
0.0
  0
LINE
  5
AC
  8
0
 10
619.0
 20
113.15647482014261
 30
0.0
 11
630.55918254822848
 21
113.15647482014261
 31
0.0
  0
LINE
  5
AD
  8
0
 10
619.0
 20
113.1564748201439
 30
0.0
 11
611.0
 21
115.6564748201439
 31
0.0
  0
LINE
  5
AE
  8
0
 10
646.49999999999989
 20
160.6564748201439
 30
0.0
 11
646.50000000000045
 21
115.6564748201439
 31
0.0
  0
LINE
  5
B7
  8
0
 10
555.99999999999966
 20
500.0
 30
0.0
 11
556.00000000000023
 21
478.0
 31
0.0
  0
ARC
  5
B8
  8
0
 10
509.6871128339809
 20
482.0
 30
0.0
 40
4.0
 50
191.2122714176497
 51
270.0
  0
ARC
  5
B9
  8
0
 10
509.6871128339809
 20
496.0
 30
0.0
 40
4.0
 50
89.999999999999986
 51
168.7877285823507
  0
LINE
  5
BA
  8
0
 10
556.00000000000023
 20
478.0
 30
0.0
 11
578.08326108942435
 21
478.92013587872589
 31
0.0
  0
LINE
  5
BB
  8
0
 10
578.08326108942435
 20
499.07986412127377
 30
0.0
 11
555.99999999999966
 21
500.0
 31
0.0
  0
ARC
  5
BC
  8
0
 10
545.0
 20
489.0
 30
0.0
 40
40.000000000000021
 50
168.78772858235021
 51
191.21227141764959
  0
LINE
  5
BD
  8
0
 10
580.49999999999989
 20
480.49999999999989
 30
0.0
 11
580.49999999999989
 21
497.5
 31
0.0
  0
LINE
  5
BE
  8
0
 10
589.5
 20
480.49999999999989
 30
0.0
 11
589.5
 21
483.5227744249483
 31
0.0
  0
LINE
  5
BF
  8
0
 10
590.0
 20
483.5227744249483
 30
0.0
 11
582.5
 21
483.5227744249483
 31
0.0
  0
LINE
  5
C0
  8
0
 10
590.0
 20
494.47722557505159
 30
0.0
 11
582.5
 21
494.47722557505159
 31
0.0
  0
LINE
  5
C1
  8
0
 10
509.6871128339809
 20
478.0
 30
0.0
 11
556.00000000000023
 21
478.0
 31
0.0
  0
LINE
  5
C2
  8
0
 10
509.6871128339809
 20
500.0
 30
0.0
 11
555.99999999999966
 21
500.0
 31
0.0
  0
LINE
  5
C3
  8
0
 10
589.5
 20
480.49999999999989
 30
0.0
 11
590.0
 21
481.0
 31
0.0
  0
LINE
  5
C4
  8
0
 10
580.49999999999989
 20
480.49999999999989
 30
0.0
 11
580.0
 21
481.0
 31
0.0
  0
LINE
  5
C5
  8
0
 10
580.49999999999989
 20
497.5
 30
0.0
 11
580.0
 21
497.0
 31
0.0
  0
LINE
  5
C6
  8
0
 10
590.0
 20
497.0
 30
0.0
 11
589.5
 21
497.5
 31
0.0
  0
LINE
  5
C7
  8
0
 10
589.5
 20
480.49999999999989
 30
0.0
 11
580.49999999999989
 21
480.49999999999989
 31
0.0
  0
LINE
  5
C8
  8
0
 10
589.5
 20
497.5
 30
0.0
 11
580.49999999999989
 21
497.5
 31
0.0
  0
LINE
  5
C9
  8
0
 10
590.0
 20
497.0
 30
0.0
 11
590.0
 21
481.0
 31
0.0
  0
LINE
  5
CA
  8
0
 10
589.5
 20
497.5
 30
0.0
 11
589.5
 21
494.47722557505159
 31
0.0
  0
LINE
  5
CB
  8
0
 10
580.0
 20
497.0815979750891
 30
0.0
 11
580.0
 21
480.91840202491068
 31
0.0
  0
ARC
  5
CC
  8
0
 10
578.0
 20
480.91840202491068
 30
0.0
 40
2.0
 50
272.38594403038888
 51
360.0
  0
ARC
  5
CD
  8
0
 10
578.0
 20
497.0815979750891
 30
0.0
 40
2.0
 50
360.0
 51
87.614055969610931
  0
LINE
  5
CE
  8
0
 10
582.5
 20
494.47722557505159
 30
0.0
 11
582.5
 21
483.5227744249483
 31
0.0
  0
LINE
  5
CF
  8
3
 10
582.5
 20
494.47722557505159
 30
0.0
 11
590.0
 21
483.5227744249483
 31
0.0
  0
LINE
  5
D0
  8
3
 10
582.5
 20
483.5227744249483
 30
0.0
 11
590.0
 21
494.47722557505159
 31
0.0
  0
CIRCLE
  5
D1
  8
0
 10
876.79076845900397
 20
400.0
 30
0.0
 40
98.500000000000014
  0
CIRCLE
  5
D2
  8
0
 10
876.79076845900397
 20
400.0
 30
0.0
 40
22.0
  0
LINE
  5
D3
  8
1
 10
876.79076845900397
 20
515.0
 30
0.0
 11
876.7907684590042
 21
284.99999999999949
 31
0.0
  0
LINE
  5
D4
  8
1
 10
761.79076845900408
 20
400.0
 30
0.0
 11
991.79076845900408
 21
400.0
 31
0.0
  0
CIRCLE
  5
D5
  8
0
 10
876.79076845900397
 20
400.0
 30
0.0
 40
100.0
  0
CIRCLE
  5
D6
  8
0
 10
876.79076845900397
 20
400.0
 30
0.0
 40
22.5
  0
ARC
  5
D7
  8
0
 10
876.79076845900397
 20
400.0
 30
0.0
 40
78.0
 50
287.53763282725532
 51
72.46236717274472
  0
ARC
  5
D8
  8
0
 10
876.79076845900397
 20
400.0
 30
0.0
 40
77.999999999999972
 50
77.131455888980284
 51
102.8685441110197
  0
ARC
  5
D9
  8
0
 10
876.79076845900397
 20
492.0
 30
0.0
 40
10.0
 50
231.5626192855724
 51
308.43738071442738
  0
CIRCLE
  5
DA
  8
0
 10
876.79076845900397
 20
400.0
 30
0.0
 40
100.0
  0
LINE
  5
DB
  8
0
 10
895.43792700547419
 20
468.74009866387701
 30
0.0
 11
899.10614577618639
 21
412.8397549643787
 31
0.0
  0
LINE
  5
DC
  8
0
 10
893.68681450634256
 20
471.44744732964659
 30
0.0
 11
896.42741304904087
 21
418.12671840745759
 31
0.0
  0
ARC
  5
DD
  8
0
 10
876.79076845900397
 20
400.0
 30
0.0
 40
32.0
 50
53.007710991031168
 51
126.9922890089691
  0
ARC
  5
DE
  8
0
 10
876.79076845900397
 20
400.0
 30
0.0
 40
70.0
 50
75.877949991355479
 51
104.12205000864461
  0
ARC
  5
DF
  8
0
 10
900.42719646263811
 20
469.06749793664881
 30
0.0
 40
5.0
 50
71.107917133840886
 51
183.7544054808136
  0
CIRCLE
  5
E0
  8
0
 10
876.79076845900397
 20
400.0
 30
0.0
 40
25.0
  0
ARC
  5
E1
  8
0
 10
909.08468469051422
 20
413.49455350992241
 30
0.0
 40
10.0
 50
183.7544054808138
 51
202.67842766221821
  0
ARC
  5
E2
  8
0
 10
906.41423020097307
 20
418.6400245284733
 30
0.0
 40
10.0
 50
182.94232048570751
 51
212.17940854312189
  0
ARC
  5
E3
  8
0
 10
906.41423020097307
 20
381.35997547152658
 30
0.0
 40
10.0
 50
147.82059145687811
 51
177.05767951429249
  0
ARC
  5
E4
  8
0
 10
909.08468469051422
 20
386.50544649007759
 30
0.0
 40
10.0
 50
157.3215723377819
 51
176.2455945191862
  0
ARC
  5
E5
  8
0
 10
876.79076845900397
 20
400.0
 30
0.0
 40
70.0
 50
255.87794999135539
 51
284.12205000864452
  0
ARC
  5
E6
  8
0
 10
876.79076845900397
 20
400.0
 30
0.0
 40
32.0
 50
233.00771099103079
 51
306.9922890089689
  0
LINE
  5
E7
  8
0
 10
893.68681450634256
 20
328.55255267035341
 30
0.0
 11
896.42741304904087
 21
381.87328159254241
 31
0.0
  0
LINE
  5
E8
  8
0
 10
895.43792700547419
 20
331.25990133612282
 30
0.0
 11
899.10614577618639
 21
387.16024503562119
 31
0.0
  0
ARC
  5
E9
  8
0
 10
876.79076845900397
 20
400.0
 30
0.0
 40
77.999999999999972
 50
257.13145588898033
 51
282.86854411101967
  0
ARC
  5
EA
  8
0
 10
900.42719646263811
 20
330.93250206335102
 30
0.0
 40
5.0
 50
176.24559451918631
 51
288.89208286615923
  0
ARC
  5
EB
  8
0
 10
876.79076845900397
 20
400.0
 30
0.0
 40
78.0
 50
107.537633909492
 51
252.46236717274471
  0
TEXT
  5
EC
  8
0
 10
872.79076845900408
 20
364.1794808117865
 30
0.0
 40
7.9999999999999254
  1
S
 50
270.0
 41
0.9799070180737906
 72
     5
 11
872.79076845900408
 21
358.95331004872639
 31
0.0
  0
LINE
  5
ED
  8
0
 10
876.79076845900397
 20
354.59816774617627
 30
0.0
 11
876.79076845900397
 21
358.08228158821652
 31
0.0
  0
TEXT
  5
EE
  8
0
 10
872.79076845900408
 20
353.72713928566611
 30
0.0
 40
7.9999999999999254
  1
2
 50
270.0
 41
0.9799070180737906
 72
     5
 11
872.79076845900408
 21
348.500968522606
 31
0.0
  0
TEXT
  5
EF
  8
0
 10
872.79076845900408
 20
346.75891160158608
 30
0.0
 40
7.9999999999999254
  1
0
 50
270.0
 41
1.3065426907650679
 72
     5
 11
872.79076845900408
 21
341.5327408385258
 31
0.0
  0
TEXT
  5
F0
  8
0
 10
872.79076845900408
 20
339.79068391750599
 30
0.0
 40
7.9999999999999254
  1
0
 50
270.0
 41
1.3065426907650819
 72
     5
 11
872.79076845900408
 21
334.56451315444582
 31
0.0
  0
ARC
  5
F1
  8
0
 10
876.79076845900397
 20
400.0
 30
0.0
 40
85.5
 50
255.601901962337
 51
284.39809803766298
  0
ARC
  5
F2
  8
0
 10
876.79076845900397
 20
400.0
 30
0.0
 40
85.5
 50
298.99475931456681
 51
300.9711614089868
  0
ARC
  5
F3
  8
0
 10
876.79076845900397
 20
400.0
 30
0.0
 40
81.0
 50
298.93890639237748
 51
301.06109360762252
  0
POLYLINE
  5
F4
  8
0
 66
     1
 10
0.0
 20
0.0
 30
0.0
 70
     1
  0
VERTEX
  5
F5
  8
0
 10
933.70996207134954
 20
325.82146268273021
 30
0.0
 42
0.0879714171773709
 50
15.0
  0
VERTEX
  5
F6
  8
0
 10
936.28291741735143
 20
328.63475759326388
 30
0.0
 42
0.0934938670441428
 50
15.0
  0
VERTEX
  5
F7
  8
0
 10
937.61105682853122
 20
331.97092761535072
 30
0.0
 42
0.1711588369080259
 50
15.0
  0
VERTEX
  5
F8
  8
0
 10
936.76570153327145
 20
337.69564055213391
 30
0.0
 42
0.0750799742064038
 50
15.0
  0
VERTEX
  5
F9
  8
0
 10
936.18071283640472
 20
338.48873527904021
 30
0.0
 50
15.0
  0
VERTEX
  5
FA
  8
0
 10
932.98323741255615
 20
341.68621070288862
 30
0.0
 42
0.2214684668442456
 50
15.0
  0
VERTEX
  5
FB
  8
0
 10
932.11049374445872
 20
342.004289687089
 30
0.0
 42
0.0753029616993447
 50
15.0
  0
VERTEX
  5
FC
  8
0
 10
929.81375434944573
 20
341.4502021018946
 30
0.0
 42
0.0386274536253628
 50
15.0
  0
VERTEX
  5
FD
  8
0
 10
927.00689494550898
 20
340.04460566078541
 30
0.0
 42
0.0362616744943491
 50
15.0
  0
VERTEX
  5
FE
  8
0
 10
924.27415992168505
 20
338.11843945728401
 30
0.0
 42
0.0282617652904014
 50
15.0
  0
VERTEX
  5
FF
  8
0
 10
921.44025170927978
 20
335.67764795665249
 30
0.0
 42
0.038627453625357
 50
15.0
  0
VERTEX
  5
100
  8
0
 10
919.62217179614208
 20
333.62992575852962
 30
0.0
 42
0.0753029616994229
 50
15.0
  0
VERTEX
  5
101
  8
0
 10
918.4925243905119
 20
331.55485428033018
 30
0.0
 42
0.2214684668441806
 50
15.0
  0
VERTEX
  5
102
  8
0
 10
918.57388241335309
 20
330.6295237326276
 30
0.0
 50
15.0
  0
VERTEX
  5
103
  8
0
 10
920.83483896824305
 20
326.71343210585218
 30
0.0
 42
0.0750799742073332
 50
15.0
  0
VERTEX
  5
104
  8
0
 10
921.4495034317456
 20
325.94310839555942
 30
0.0
 42
0.1711588369070708
 50
15.0
  0
VERTEX
  5
105
  8
0
 10
926.76035745516424
 20
323.64489314772032
 30
0.0
 42
0.0934938670441386
 50
15.0
  0
VERTEX
  5
106
  8
0
 10
930.3265980145535
 20
324.06431296647457
 30
0.0
 42
0.0879714171773779
 50
15.0
  0
SEQEND
  5
107
  8
0
  0
ARC
  5
108
  8
0
 10
876.79076845900397
 20
400.0
 30
0.0
 40
85.5
 50
313.99475931456681
 51
315.9711614089868
  0
ARC
  5
109
  8
0
 10
876.79076845900397
 20
400.0
 30
0.0
 40
81.0
 50
313.93890639237748
 51
316.06109360762252
  0
POLYLINE
  5
10A
  8
0
 66
     1
 10
0.0
 20
0.0
 30
0.0
 70
     1
  0
VERTEX
  5
10B
  8
0
 10
950.96930577627381
 20
343.08080638765438
 30
0.0
 42
0.0879714171773709
 50
30.0
  0
VERTEX
  5
10C
  8
0
 10
952.72645549252945
 20
346.46417044445008
 30
0.0
 42
0.0934938670441428
 50
30.0
  0
VERTEX
  5
10D
  8
0
 10
953.14587531128416
 20
350.03041100383967
 30
0.0
 42
0.1711588369080259
 50
30.0
  0
VERTEX
  5
10E
  8
0
 10
950.84766006341818
 20
355.34126502727833
 30
0.0
 42
0.0750799742064038
 50
30.0
  0
VERTEX
  5
10F
  8
0
 10
950.07733635313366
 20
355.95592949077178
 30
0.0
 50
30.0
  0
VERTEX
  5
110
  8
0
 10
946.16124472637455
 20
358.21688604565247
 30
0.0
 42
0.2214684668442456
 50
30.0
  0
VERTEX
  5
111
  8
0
 10
945.23591417867135
 20
358.29824406849508
 30
0.0
 42
0.0753029616993447
 50
30.0
  0
VERTEX
  5
112
  8
0
 10
943.16084270047565
 20
357.16859666286308
 30
0.0
 42
0.0386274536253628
 50
30.0
  0
VERTEX
  5
113
  8
0
 10
940.81341984013818
 20
355.08442608839181
 30
0.0
 42
0.0362616744943491
 50
30.0
  0
VERTEX
  5
114
  8
0
 10
938.6723290017211
 20
352.51660853732028
 30
0.0
 42
0.0282617652904014
 50
30.0
  0
VERTEX
  5
115
  8
0
 10
936.56670719551403
 20
349.42551557283059
 30
0.0
 42
0.038627453625357
 50
30.0
  0
VERTEX
  5
116
  8
0
 10
935.34056635711022
 20
346.97701410956
 30
0.0
 42
0.0753029616994229
 50
30.0
  0
VERTEX
  5
117
  8
0
 10
934.78647877191884
 20
344.6802747145436
 30
0.0
 42
0.2214684668441806
 50
30.0
  0
VERTEX
  5
118
  8
0
 10
935.1045577561174
 20
343.80753104644663
 30
0.0
 50
30.0
  0
VERTEX
  5
119
  8
0
 10
938.30203317997905
 20
340.6100556225847
 30
0.0
 42
0.0750799742073332
 50
30.0
  0
VERTEX
  5
11A
  8
0
 10
939.09512790689621
 20
340.02506692571228
 30
0.0
 42
0.1711588369070708
 50
30.0
  0
VERTEX
  5
11B
  8
0
 10
944.8198408436532
 20
339.17971163047321
 30
0.0
 42
0.0934938670441386
 50
30.0
  0
VERTEX
  5
11C
  8
0
 10
948.15601086573986
 20
340.50785104165249
 30
0.0
 42
0.0879714171773779
 50
30.0
  0
SEQEND
  5
11D
  8
0
  0
ARC
  5
11E
  8
0
 10
876.79076845900397
 20
400.0
 30
0.0
 40
85.5
 50
328.99475931456692
 51
330.97116140898692
  0
ARC
  5
11F
  8
0
 10
876.79076845900397
 20
400.0
 30
0.0
 40
81.0
 50
328.93890639237748
 51
331.06109360762252
  0
POLYLINE
  5
120
  8
0
 66
     1
 10
0.0
 20
0.0
 30
0.0
 70
     1
  0
VERTEX
  5
121
  8
0
 10
963.17350474885518
 20
364.21909907384509
 30
0.0
 42
0.0879714171773709
 50
45.0
  0
VERTEX
  5
122
  8
0
 10
963.99510198602889
 20
367.94196160770571
 30
0.0
 42
0.0934938670441428
 50
45.0
  0
VERTEX
  5
123
  8
0
 10
963.4772194448343
 20
371.49523930376671
 30
0.0
 42
0.1711588369080259
 50
45.0
  0
VERTEX
  5
124
  8
0
 10
959.88276381552419
 20
376.0303084887646
 30
0.0
 42
0.0750799742064038
 50
45.0
  0
VERTEX
  5
125
  8
0
 10
958.97960137965765
 20
376.42465432143962
 30
0.0
 50
45.0
  0
VERTEX
  5
126
  8
0
 10
954.61176872270426
 20
377.5950115545445
 30
0.0
 42
0.2214684668442456
 50
45.0
  0
VERTEX
  5
127
  8
0
 10
953.69691104303956
 20
377.43410420122319
 30
0.0
 42
0.0753029616993447
 50
45.0
  0
VERTEX
  5
128
  8
0
 10
951.98492017368301
 20
375.80588057901679
 30
0.0
 42
0.0386274536253628
 50
45.0
  0
VERTEX
  5
129
  8
0
 10
950.2569068455773
 20
373.18516865157892
 30
0.0
 42
0.0362616744943491
 50
45.0
  0
VERTEX
  5
12A
  8
0
 10
948.85337199488515
 20
370.15069227552368
 30
0.0
 42
0.0282617652904014
 50
45.0
  0
VERTEX
  5
12B
  8
0
 10
947.61953124126433
 20
366.61995072443312
 30
0.0
 42
0.038627453625357
 50
45.0
  0
VERTEX
  5
12C
  8
0
 10
947.06888894943825
 20
363.93753132439639
 30
0.0
 42
0.0753029616994229
 50
45.0
  0
VERTEX
  5
12D
  8
0
 10
947.12812133794318
 20
361.57564300679229
 30
0.0
 42
0.2214684668441806
 50
45.0
  0
VERTEX
  5
12E
  8
0
 10
947.66124472637659
 20
360.81496225700459
 30
0.0
 50
45.0
  0
VERTEX
  5
12F
  8
0
 10
951.57733635315185
 20
358.55400570211452
 30
0.0
 42
0.0750799742073332
 50
45.0
  0
VERTEX
  5
130
  8
0
 10
952.49481324849512
 20
358.1942180316147
 30
0.0
 42
0.1711588369070708
 50
45.0
  0
VERTEX
  5
131
  8
0
 10
958.24325537248603
 20
358.85933225533063
 30
0.0
 42
0.0934938670441386
 50
45.0
  0
VERTEX
  5
132
  8
0
 10
961.12200038354638
 20
361.00568075291721
 30
0.0
 42
0.0879714171773779
 50
45.0
  0
SEQEND
  5
133
  8
0
  0
ARC
  5
134
  8
0
 10
876.79076845900397
 20
400.0
 30
0.0
 40
85.5
 50
343.99475931456681
 51
345.97116140898692
  0
ARC
  5
135
  8
0
 10
876.79076845900397
 20
400.0
 30
0.0
 40
81.0
 50
343.93890639237748
 51
346.06109360762252
  0
POLYLINE
  5
136
  8
0
 66
     1
 10
0.0
 20
0.0
 30
0.0
 70
     1
  0
VERTEX
  5
137
  8
0
 10
969.49086299750456
 20
387.79580102741858
 30
0.0
 42
0.0879714171773709
 50
60.0
  0
VERTEX
  5
138
  8
0
 10
969.32091726163662
 20
391.60445510898268
 30
0.0
 42
0.0934938670441428
 50
60.0
  0
VERTEX
  5
139
  8
0
 10
967.90102519983395
 20
394.90261993879778
 30
0.0
 42
0.1711588369080259
 50
60.0
  0
VERTEX
  5
13A
  8
0
 10
963.25528540009816
 20
398.35284681495352
 30
0.0
 42
0.0750799742064038
 50
60.0
  0
VERTEX
  5
13B
  8
0
 10
962.28083326610738
 20
398.50000000000023
 30
0.0
 50
60.0
  0
VERTEX
  5
13C
  8
0
 10
957.75892015634645
 20
398.50000000000023
 30
0.0
 42
0.2214684668442456
 50
60.0
  0
VERTEX
  5
13D
  8
0
 10
956.9168813837158
 20
398.10779284073192
 30
0.0
 42
0.0753029616993447
 50
60.0
  0
VERTEX
  5
13E
  8
0
 10
955.68464047174609
 20
396.09195375103769
 30
0.0
 42
0.0386274536253628
 50
60.0
  0
VERTEX
  5
13F
  8
0
 10
954.69379792850521
 20
393.11329765755681
 30
0.0
 42
0.0362616744943491
 50
60.0
  0
VERTEX
  5
140
  8
0
 10
954.12346764616154
 20
389.81895700683668
 30
0.0
 42
0.0282617652904014
 50
60.0
  0
VERTEX
  5
141
  8
0
 10
953.84549215346863
 20
386.08918107102568
 30
0.0
 42
0.038627453625357
 50
60.0
  0
VERTEX
  5
142
  8
0
 10
954.00787377042877
 20
383.35564618342812
 30
0.0
 42
0.0753029616994229
 50
60.0
  0
VERTEX
  5
143
  8
0
 10
954.67638954323945
 20
381.08956772887569
 30
0.0
 42
0.2214684668441806
 50
60.0
  0
VERTEX
  5
144
  8
0
 10
955.38822585801404
 20
380.49278903341099
 30
0.0
 50
60.0
  0
VERTEX
  5
145
  8
0
 10
959.75605851498574
 20
379.32243180030099
 30
0.0
 42
0.0750799742073332
 50
60.0
  0
VERTEX
  5
146
  8
0
 10
960.73539304453948
 20
379.21236409134133
 30
0.0
 42
0.1711588369070708
 50
60.0
  0
VERTEX
  5
147
  8
0
 10
966.115817524764
 20
381.34262139881912
 30
0.0
 42
0.0934938670441386
 50
60.0
  0
VERTEX
  5
148
  8
0
 10
968.34095580964549
 20
384.16090887971109
 30
0.0
 42
0.0879714171773779
 50
60.0
  0
SEQEND
  5
149
  8
0
  0
ARC
  5
14A
  8
0
 10
876.79076845900397
 20
400.0
 30
0.0
 40
85.5
 50
358.99475931456681
 51
0.9711614089868266
  0
ARC
  5
14B
  8
0
 10
876.79076845900397
 20
400.0
 30
0.0
 40
81.0
 50
358.93890639237748
 51
1.0610936076224711
  0
POLYLINE
  5
14C
  8
0
 66
     1
 10
0.0
 20
0.0
 30
0.0
 70
     1
  0
VERTEX
  5
14D
  8
0
 10
969.49086299750456
 20
412.2041989725812
 30
0.0
 42
0.0879714171773709
 50
74.999999999999986
  0
VERTEX
  5
14E
  8
0
 10
968.34095580964583
 20
415.8390911202888
 30
0.0
 42
0.0934938670441428
 50
74.999999999999986
  0
VERTEX
  5
14F
  8
0
 10
966.11581752476445
 20
418.65737860118099
 30
0.0
 42
0.1711588369080259
 50
74.999999999999986
  0
VERTEX
  5
150
  8
0
 10
960.73539304450685
 20
420.7876359086539
 30
0.0
 42
0.0750799742064038
 50
74.999999999999986
  0
VERTEX
  5
151
  8
0
 10
959.75605851496505
 20
420.67756819969372
 30
0.0
 50
74.999999999999986
  0
VERTEX
  5
152
  8
0
 10
955.38822585801165
 20
419.50721096658867
 30
0.0
 42
0.2214684668442456
 50
74.999999999999986
  0
VERTEX
  5
153
  8
0
 10
954.67638954323559
 20
418.91043227112448
 30
0.0
 42
0.0753029616993447
 50
74.999999999999986
  0
VERTEX
  5
154
  8
0
 10
954.00787377042889
 20
416.64435381657358
 30
0.0
 42
0.0386274536253628
 50
74.999999999999986
  0
VERTEX
  5
155
  8
0
 10
953.82172629393006
 20
413.51074404735863
 30
0.0
 42
0.0362616744943491
 50
74.999999999999986
  0
VERTEX
  5
156
  8
0
 10
954.12346764616143
 20
410.18104299316479
 30
0.0
 42
0.0282617652904014
 50
74.999999999999986
  0
VERTEX
  5
157
  8
0
 10
954.82030098484688
 20
406.50641073891279
 30
0.0
 42
0.038627453625357
 50
74.999999999999986
  0
VERTEX
  5
158
  8
0
 10
955.68464047174564
 20
403.90804624896379
 30
0.0
 42
0.0753029616994229
 50
74.999999999999986
  0
VERTEX
  5
159
  8
0
 10
956.91688138371967
 20
401.89220715926939
 30
0.0
 42
0.2214684668441806
 50
74.999999999999986
  0
VERTEX
  5
15A
  8
0
 10
957.75892015634849
 20
401.50000000000023
 30
0.0
 50
74.999999999999986
  0
VERTEX
  5
15B
  8
0
 10
962.28083326612864
 20
401.50000000000011
 30
0.0
 42
0.0750799742073332
 50
74.999999999999986
  0
VERTEX
  5
15C
  8
0
 10
963.25528540013113
 20
401.6471531850504
 30
0.0
 42
0.1711588369070708
 50
74.999999999999986
  0
VERTEX
  5
15D
  8
0
 10
967.90102519983361
 20
405.0973800612021
 30
0.0
 42
0.0934938670441386
 50
74.999999999999986
  0
VERTEX
  5
15E
  8
0
 10
969.32091726163651
 20
408.39554489101693
 30
0.0
 42
0.0879714171773779
 50
74.999999999999986
  0
SEQEND
  5
15F
  8
0
  0
ARC
  5
160
  8
0
 10
876.79076845900397
 20
400.0
 30
0.0
 40
85.5
 50
13.994759314566821
 51
15.971161408986809
  0
ARC
  5
161
  8
0
 10
876.79076845900397
 20
400.0
 30
0.0
 40
81.0
 50
13.938906392377479
 51
16.06109360762246
  0
POLYLINE
  5
162
  8
0
 66
     1
 10
0.0
 20
0.0
 30
0.0
 70
     1
  0
VERTEX
  5
163
  8
0
 10
963.17350474885518
 20
435.78090092615491
 30
0.0
 42
0.0879714171773709
 50
89.999999999999986
  0
VERTEX
  5
164
  8
0
 10
961.12200038354683
 20
438.99431924708279
 30
0.0
 42
0.0934938670441428
 50
89.999999999999986
  0
VERTEX
  5
165
  8
0
 10
958.24325537248637
 20
441.14066774466971
 30
0.0
 42
0.1711588369080259
 50
89.999999999999986
  0
VERTEX
  5
166
  8
0
 10
952.49481324846465
 20
441.80578196837229
 30
0.0
 42
0.0750799742064038
 50
89.999999999999986
  0
VERTEX
  5
167
  8
0
 10
951.57733635313343
 20
441.44599429787519
 30
0.0
 50
89.999999999999986
  0
VERTEX
  5
168
  8
0
 10
947.66124472637455
 20
439.18503774299472
 30
0.0
 42
0.2214684668442456
 50
89.999999999999986
  0
VERTEX
  5
169
  8
0
 10
947.12812133793932
 20
438.42435699320703
 30
0.0
 42
0.0753029616993447
 50
89.999999999999986
  0
VERTEX
  5
16A
  8
0
 10
947.06888894943813
 20
436.0624686756052
 30
0.0
 42
0.0386274536253628
 50
89.999999999999986
  0
VERTEX
  5
16B
  8
0
 10
947.70012218258137
 20
432.9874555578931
 30
0.0
 42
0.0362616744943491
 50
89.999999999999986
  0
VERTEX
  5
16C
  8
0
 10
948.85337199488436
 20
429.84930772447791
 30
0.0
 42
0.0282617652904014
 50
89.999999999999986
  0
VERTEX
  5
16D
  8
0
 10
950.47752612448824
 20
426.48023926729519
 30
0.0
 42
0.038627453625357
 50
89.999999999999986
  0
VERTEX
  5
16E
  8
0
 10
951.9849201736821
 20
424.19411942098458
 30
0.0
 42
0.0753029616994229
 50
89.999999999999986
  0
VERTEX
  5
16F
  8
0
 10
953.69691104304297
 20
422.56589579877908
 30
0.0
 42
0.2214684668441806
 50
89.999999999999986
  0
VERTEX
  5
170
  8
0
 10
954.61176872270653
 20
422.40498844545652
 30
0.0
 50
89.999999999999986
  0
VERTEX
  5
171
  8
0
 10
958.979601379678
 20
423.57534567856618
 30
0.0
 42
0.0750799742073332
 50
89.999999999999986
  0
VERTEX
  5
172
  8
0
 10
959.88276381555488
 20
423.96969151124767
 30
0.0
 42
0.1711588369070708
 50
89.999999999999986
  0
VERTEX
  5
173
  8
0
 10
963.47721944483408
 20
428.50476069623318
 30
0.0
 42
0.0934938670441386
 50
89.999999999999986
  0
VERTEX
  5
174
  8
0
 10
963.99510198602889
 20
432.05803839229412
 30
0.0
 42
0.0879714171773779
 50
89.999999999999986
  0
SEQEND
  5
175
  8
0
  0
ARC
  5
176
  8
0
 10
876.79076845900397
 20
400.0
 30
0.0
 40
85.5
 50
28.99475931456681
 51
30.971161408986841
  0
ARC
  5
177
  8
0
 10
876.79076845900397
 20
400.0
 30
0.0
 40
81.0
 50
28.938906392377469
 51
31.061093607622489
  0
POLYLINE
  5
178
  8
0
 66
     1
 10
0.0
 20
0.0
 30
0.0
 70
     1
  0
VERTEX
  5
179
  8
0
 10
950.96930577627404
 20
456.91919361234562
 30
0.0
 42
0.0879714171773709
 50
105.0
  0
VERTEX
  5
17A
  8
0
 10
948.15601086574031
 20
459.49214895834751
 30
0.0
 42
0.0934938670441428
 50
105.0
  0
VERTEX
  5
17B
  8
0
 10
944.81984084365354
 20
460.82028836952708
 30
0.0
 42
0.1711588369080259
 50
105.0
  0
VERTEX
  5
17C
  8
0
 10
939.09512790687006
 20
459.97493307426743
 30
0.0
 42
0.0750799742064038
 50
105.0
  0
VERTEX
  5
17D
  8
0
 10
938.30203317996404
 20
459.38994437740052
 30
0.0
 50
105.0
  0
VERTEX
  5
17E
  8
0
 10
935.10455775611547
 20
456.19246895355218
 30
0.0
 42
0.2214684668442456
 50
105.0
  0
VERTEX
  5
17F
  8
0
 10
934.78647877191509
 20
455.31972528545469
 30
0.0
 42
0.0753029616993447
 50
105.0
  0
VERTEX
  5
180
  8
0
 10
935.34056635710954
 20
453.02298589044159
 30
0.0
 42
0.0386274536253628
 50
105.0
  0
VERTEX
  5
181
  8
0
 10
936.74616279821873
 20
450.21612648650489
 30
0.0
 42
0.0362616744943491
 50
105.0
  0
VERTEX
  5
182
  8
0
 10
938.67232900172007
 20
447.48339146268108
 30
0.0
 42
0.0282617652904014
 50
105.0
  0
VERTEX
  5
183
  8
0
 10
941.11312050235165
 20
444.64948325027569
 30
0.0
 42
0.038627453625357
 50
105.0
  0
VERTEX
  5
184
  8
0
 10
943.16084270047452
 20
442.83140333713789
 30
0.0
 42
0.0753029616994229
 50
105.0
  0
VERTEX
  5
185
  8
0
 10
945.23591417867385
 20
441.70175593150799
 30
0.0
 42
0.2214684668441806
 50
105.0
  0
VERTEX
  5
186
  8
0
 10
946.16124472637637
 20
441.78311395434912
 30
0.0
 50
105.0
  0
VERTEX
  5
187
  8
0
 10
950.07733635315185
 20
444.04407050923902
 30
0.0
 42
0.0750799742073332
 50
105.0
  0
VERTEX
  5
188
  8
0
 10
950.84766006344455
 20
444.65873497274151
 30
0.0
 42
0.1711588369070708
 50
105.0
  0
VERTEX
  5
189
  8
0
 10
953.14587531128382
 20
449.96958899616033
 30
0.0
 42
0.0934938670441386
 50
105.0
  0
VERTEX
  5
18A
  8
0
 10
952.72645549252945
 20
453.53582955554958
 30
0.0
 42
0.0879714171773779
 50
105.0
  0
SEQEND
  5
18B
  8
0
  0
ARC
  5
18C
  8
0
 10
876.79076845900397
 20
400.0
 30
0.0
 40
85.5
 50
43.994759314566792
 51
45.971161408986831
  0
ARC
  5
18D
  8
0
 10
876.79076845900397
 20
400.0
 30
0.0
 40
81.0
 50
43.938906392377447
 51
46.061093607622468
  0
POLYLINE
  5
18E
  8
0
 66
     1
 10
0.0
 20
0.0
 30
0.0
 70
     1
  0
VERTEX
  5
18F
  8
0
 10
933.70996207134976
 20
474.1785373172699
 30
0.0
 42
0.0879714171773709
 50
120.0
  0
VERTEX
  5
190
  8
0
 10
930.32659801455407
 20
475.93568703352548
 30
0.0
 42
0.0934938670441428
 50
120.0
  0
VERTEX
  5
191
  8
0
 10
926.76035745516435
 20
476.35510685228007
 30
0.0
 42
0.1711588369080259
 50
120.0
  0
VERTEX
  5
192
  8
0
 10
921.44950343172593
 20
474.0568916044142
 30
0.0
 42
0.0750799742064038
 50
120.0
  0
VERTEX
  5
193
  8
0
 10
920.83483896823236
 20
473.28656789412969
 30
0.0
 50
120.0
  0
VERTEX
  5
194
  8
0
 10
918.57388241335173
 20
469.37047626737058
 30
0.0
 42
0.2214684668442456
 50
120.0
  0
VERTEX
  5
195
  8
0
 10
918.49252439050906
 20
468.4451457196671
 30
0.0
 42
0.0753029616993447
 50
120.0
  0
VERTEX
  5
196
  8
0
 10
919.62217179614095
 20
466.37007424147163
 30
0.0
 42
0.0386274536253628
 50
120.0
  0
VERTEX
  5
197
  8
0
 10
921.70634237061233
 20
464.02265138113421
 30
0.0
 42
0.0362616744943491
 50
120.0
  0
VERTEX
  5
198
  8
0
 10
924.2741599216838
 20
461.88156054271712
 30
0.0
 42
0.0282617652904014
 50
120.0
  0
VERTEX
  5
199
  8
0
 10
927.36525288617361
 20
459.77593873650989
 30
0.0
 42
0.038627453625357
 50
120.0
  0
VERTEX
  5
19A
  8
0
 10
929.81375434944425
 20
458.54979789810608
 30
0.0
 42
0.0753029616994229
 50
120.0
  0
VERTEX
  5
19B
  8
0
 10
932.11049374446054
 20
457.9957103129147
 30
0.0
 42
0.2214684668441806
 50
120.0
  0
VERTEX
  5
19C
  8
0
 10
932.98323741255763
 20
458.31378929711337
 30
0.0
 50
120.0
  0
VERTEX
  5
19D
  8
0
 10
936.18071283641939
 20
461.51126472097502
 30
0.0
 42
0.0750799742073332
 50
120.0
  0
VERTEX
  5
19E
  8
0
 10
936.7657015332918
 20
462.30435944789218
 30
0.0
 42
0.1711588369070708
 50
120.0
  0
VERTEX
  5
19F
  8
0
 10
937.61105682853099
 20
468.02907238464923
 30
0.0
 42
0.0934938670441386
 50
120.0
  0
VERTEX
  5
1A0
  8
0
 10
936.28291741735165
 20
471.36524240673577
 30
0.0
 42
0.0879714171773779
 50
120.0
  0
SEQEND
  5
1A1
  8
0
  0
ARC
  5
1A2
  8
0
 10
876.79076845900397
 20
400.0
 30
0.0
 40
85.5
 50
58.994759314566771
 51
60.971161408986859
  0
ARC
  5
1A3
  8
0
 10
876.79076845900397
 20
400.0
 30
0.0
 40
81.0
 50
58.938906392377433
 51
61.061093607622503
  0
POLYLINE
  5
1A4
  8
0
 66
     1
 10
0.0
 20
0.0
 30
0.0
 70
     1
  0
VERTEX
  5
1A5
  8
0
 10
912.57166938515877
 20
486.3827362898511
 30
0.0
 42
0.0879714171773709
 50
135.0
  0
VERTEX
  5
1A6
  8
0
 10
908.84880685129826
 20
487.20433352702503
 30
0.0
 42
0.0934938670441428
 50
135.0
  0
VERTEX
  5
1A7
  8
0
 10
905.29552915523743
 20
486.6864509858305
 30
0.0
 42
0.1711588369080259
 50
135.0
  0
VERTEX
  5
1A8
  8
0
 10
900.76045997023948
 20
483.09199535652021
 30
0.0
 42
0.0750799742064038
 50
135.0
  0
VERTEX
  5
1A9
  8
0
 10
900.36611413756464
 20
482.18883292065368
 30
0.0
 50
135.0
  0
VERTEX
  5
1AA
  8
0
 10
899.19575690445947
 20
477.82100026370028
 30
0.0
 42
0.2214684668442456
 50
135.0
  0
VERTEX
  5
1AB
  8
0
 10
899.35666425778095
 20
476.90614258403571
 30
0.0
 42
0.0753029616993447
 50
135.0
  0
VERTEX
  5
1AC
  8
0
 10
900.98488787998713
 20
475.19415171467898
 30
0.0
 42
0.0386274536253628
 50
135.0
  0
VERTEX
  5
1AD
  8
0
 10
903.60559980742528
 20
473.46613838657328
 30
0.0
 42
0.0362616744943491
 50
135.0
  0
VERTEX
  5
1AE
  8
0
 10
906.64007618348035
 20
472.06260353588101
 30
0.0
 42
0.0282617652904014
 50
135.0
  0
VERTEX
  5
1AF
  8
0
 10
910.17081773457107
 20
470.82876278226041
 30
0.0
 42
0.038627453625357
 50
135.0
  0
VERTEX
  5
1B0
  8
0
 10
912.85323713460775
 20
470.27812049043428
 30
0.0
 42
0.0753029616994229
 50
135.0
  0
VERTEX
  5
1B1
  8
0
 10
915.21512545221185
 20
470.33735287893921
 30
0.0
 42
0.2214684668441806
 50
135.0
  0
VERTEX
  5
1B2
  8
0
 10
915.97580620199938
 20
470.87047626737262
 30
0.0
 50
135.0
  0
VERTEX
  5
1B3
  8
0
 10
918.23676275688945
 20
474.78656789414788
 30
0.0
 42
0.0750799742073332
 50
135.0
  0
VERTEX
  5
1B4
  8
0
 10
918.59655042738927
 20
475.70404478949109
 30
0.0
 42
0.1711588369070708
 50
135.0
  0
VERTEX
  5
1B5
  8
0
 10
917.93143620367346
 20
481.45248691348201
 30
0.0
 42
0.0934938670441386
 50
135.0
  0
VERTEX
  5
1B6
  8
0
 10
915.78508770608676
 20
484.33123192454229
 30
0.0
 42
0.0879714171773779
 50
135.0
  0
SEQEND
  5
1B7
  8
0
  0
ARC
  5
1B8
  8
0
 10
908.66704023424109
 20
327.78259348882978
 30
0.0
 40
15.000000000000121
 50
177.0576795142926
 51
267.60396170452509
  0
POLYLINE
  5
1B9
  8
0
 66
     1
 10
0.0
 20
0.0
 30
0.0
 70
     1
  0
VERTEX
  5
1BA
  8
0
 10
905.2955291552372
 20
313.31354901416989
 30
0.0
 42
0.0934938670441386
  0
VERTEX
  5
1BB
  8
0
 10
908.84880685129804
 20
312.79566647297531
 30
0.0
 42
0.0879714171773779
  0
VERTEX
  5
1BC
  8
0
 10
912.57166938515877
 20
313.6172637101489
 30
0.0
 42
0.0879714171773709
  0
VERTEX
  5
1BD
  8
0
 10
915.78508770608676
 20
315.66876807545731
 30
0.0
 42
0.0934938670441428
  0
VERTEX
  5
1BE
  8
0
 10
917.93143620367357
 20
318.54751308651782
 30
0.0
 42
0.1711588369080257
  0
VERTEX
  5
1BF
  8
0
 10
918.59655042737631
 20
324.29595521053932
 30
0.0
 42
0.0750799742064042
  0
VERTEX
  5
1C0
  8
0
 10
918.23676275687922
 20
325.2134321058706
 30
0.0
  0
VERTEX
  5
1C1
  8
0
 10
915.97580620199869
 20
329.12952373262971
 30
0.0
 42
0.2214684668442463
  0
VERTEX
  5
1C2
  8
0
 10
915.21512545221094
 20
329.66264712106482
 30
0.0
 42
0.0753029616993447
  0
VERTEX
  5
1C3
  8
0
 10
912.85323713460934
 20
329.72187950956612
 30
0.0
 42
0.0386274536253628
  0
VERTEX
  5
1C4
  8
0
 10
909.77822401689707
 20
329.0906462764226
 30
0.0
 42
0.036261674494349
  0
VERTEX
  5
1C5
  8
0
 10
906.64007618348194
 20
327.93739646411967
 30
0.0
 42
0.0282617652904014
  0
VERTEX
  5
1C6
  8
0
 10
903.27100772629899
 20
326.31324233451591
 30
0.0
 42
0.038627453625357
  0
VERTEX
  5
1C7
  8
0
 10
900.98488787998861
 20
324.80584828532199
 30
0.0
 42
0.075302961699423
  0
VERTEX
  5
1C8
  8
0
 10
899.356664257783
 20
323.09385741596111
 30
0.0
 42
0.2214684668441759
  0
VERTEX
  5
1C9
  8
0
 10
899.19575690446038
 20
322.17899973629773
 30
0.0
  0
VERTEX
  5
1CA
  8
0
 10
900.36611413757032
 20
317.81116707932608
 30
0.0
 42
0.0750799742073328
  0
VERTEX
  5
1CB
  8
0
 10
900.76045997025165
 20
316.9080046434492
 30
0.0
 42
0.1711588369070704
  0
SEQEND
  5
1CC
  8
0
  0
ARC
  5
1CD
  8
0
 10
908.66704023424109
 20
472.21740651117022
 30
0.0
 40
15.000000000000121
 50
92.396038295474924
 51
182.9423204857074
  0
ARC
  5
1CE
  8
0
 10
844.91449668376708
 20
472.21740651117022
 30
0.0
 40
15.000000000000121
 50
357.0576795142926
 51
87.603961704525091
  0
POLYLINE
  5
1CF
  8
0
 66
     1
 10
0.0
 20
0.0
 30
0.0
 70
     1
  0
VERTEX
  5
1D0
  8
0
 10
848.28600776277085
 20
313.31354901416989
 30
0.0
 42
-0.0934938670441386
  0
VERTEX
  5
1D1
  8
0
 10
844.73273006671013
 20
312.79566647297531
 30
0.0
 42
-0.0879714171773779
  0
VERTEX
  5
1D2
  8
0
 10
841.00986753284928
 20
313.6172637101489
 30
0.0
 42
-0.0879714171773709
  0
VERTEX
  5
1D3
  8
0
 10
837.79644921192153
 20
315.66876807545731
 30
0.0
 42
-0.0934938670441428
  0
VERTEX
  5
1D4
  8
0
 10
835.65010071433449
 20
318.54751308651782
 30
0.0
 42
-0.1711588369080257
  0
VERTEX
  5
1D5
  8
0
 10
834.98498649063174
 20
324.29595521053932
 30
0.0
 42
-0.0750799742064042
  0
VERTEX
  5
1D6
  8
0
 10
835.34477416112884
 20
325.2134321058706
 30
0.0
  0
VERTEX
  5
1D7
  8
0
 10
837.60573071600936
 20
329.12952373262971
 30
0.0
 42
-0.2214684668442463
  0
VERTEX
  5
1D8
  8
0
 10
838.36641146579711
 20
329.66264712106482
 30
0.0
 42
-0.0753029616993447
  0
VERTEX
  5
1D9
  8
0
 10
840.72829978339905
 20
329.72187950956612
 30
0.0
 42
-0.0386274536253628
  0
VERTEX
  5
1DA
  8
0
 10
843.8033129011111
 20
329.0906462764226
 30
0.0
 42
-0.036261674494349
  0
VERTEX
  5
1DB
  8
0
 10
846.94146073452634
 20
327.93739646411967
 30
0.0
 42
-0.0282617652904014
  0
VERTEX
  5
1DC
  8
0
 10
850.31052919170907
 20
326.31324233451591
 30
0.0
 42
-0.038627453625357
  0
VERTEX
  5
1DD
  8
0
 10
852.59664903801945
 20
324.80584828532199
 30
0.0
 42
-0.075302961699423
  0
VERTEX
  5
1DE
  8
0
 10
854.22487266022506
 20
323.09385741596111
 30
0.0
 42
-0.2214684668441759
  0
VERTEX
  5
1DF
  8
0
 10
854.38578001354767
 20
322.17899973629773
 30
0.0
  0
VERTEX
  5
1E0
  8
0
 10
853.21542278043785
 20
317.81116707932608
 30
0.0
 42
-0.0750799742073328
  0
VERTEX
  5
1E1
  8
0
 10
852.8210769477563
 20
316.9080046434492
 30
0.0
 42
-0.1711588369070704
  0
SEQEND
  5
1E2
  8
0
  0
ARC
  5
1E3
  8
0
 10
844.91449668376708
 20
327.78259348882978
 30
0.0
 40
15.000000000000121
 50
272.39603829547502
 51
2.9423204857074241
  0
POLYLINE
  5
1E4
  8
0
 66
     1
 10
0.0
 20
0.0
 30
0.0
 70
     1
  0
VERTEX
  5
1E5
  8
0
 10
841.00986753284928
 20
486.3827362898511
 30
0.0
 42
-0.0879714171773709
  0
VERTEX
  5
1E6
  8
0
 10
844.73273006670968
 20
487.20433352702503
 30
0.0
 42
-0.0934938670441428
  0
VERTEX
  5
1E7
  8
0
 10
848.28600776277085
 20
486.6864509858305
 30
0.0
 42
-0.1711588369080259
  0
VERTEX
  5
1E8
  8
0
 10
852.82107694776857
 20
483.09199535652021
 30
0.0
 42
-0.0750799742064038
  0
VERTEX
  5
1E9
  8
0
 10
853.21542278044353
 20
482.18883292065368
 30
0.0
  0
VERTEX
  5
1EA
  8
0
 10
854.38578001354847
 20
477.82100026370028
 30
0.0
 42
-0.2214684668442456
  0
VERTEX
  5
1EB
  8
0
 10
854.22487266022745
 20
476.90614258403571
 30
0.0
 42
-0.0753029616993447
  0
VERTEX
  5
1EC
  8
0
 10
852.59664903802093
 20
475.19415171467898
 30
0.0
 42
-0.0386274536253628
  0
VERTEX
  5
1ED
  8
0
 10
849.97593711058289
 20
473.46613838657328
 30
0.0
 42
-0.0362616744943491
  0
VERTEX
  5
1EE
  8
0
 10
846.9414607345276
 20
472.06260353588101
 30
0.0
 42
-0.0282617652904014
  0
VERTEX
  5
1EF
  8
0
 10
843.4107191834371
 20
470.82876278226041
 30
0.0
 42
-0.038627453625357
  0
VERTEX
  5
1F0
  8
0
 10
840.72829978340064
 20
470.27812049043428
 30
0.0
 42
-0.0753029616994229
  0
VERTEX
  5
1F1
  8
0
 10
838.3664114657962
 20
470.33735287893921
 30
0.0
 42
-0.2214684668441806
  0
VERTEX
  5
1F2
  8
0
 10
837.60573071600868
 20
470.87047626737262
 30
0.0
  0
VERTEX
  5
1F3
  8
0
 10
835.34477416111849
 20
474.78656789414788
 30
0.0
 42
-0.0750799742073332
  0
VERTEX
  5
1F4
  8
0
 10
834.98498649061878
 20
475.70404478949109
 30
0.0
 42
-0.1711588369070708
  0
VERTEX
  5
1F5
  8
0
 10
835.6501007143346
 20
481.45248691348201
 30
0.0
 42
-0.0934938670441386
  0
VERTEX
  5
1F6
  8
0
 10
837.7964492119213
 20
484.33123192454229
 30
0.0
 42
-0.0879714171773779
  0
SEQEND
  5
1F7
  8
0
  0
ARC
  5
1F8
  8
0
 10
876.79076845900397
 20
400.0
 30
0.0
 40
81.0
 50
118.9389063923775
 51
121.0610936076226
  0
ARC
  5
1F9
  8
0
 10
876.79076845900397
 20
400.0
 30
0.0
 40
85.5
 50
119.0288385910131
 51
121.00524068543319
  0
POLYLINE
  5
1FA
  8
0
 66
     1
 10
0.0
 20
0.0
 30
0.0
 70
     1
  0
VERTEX
  5
1FB
  8
0
 10
819.8715748466584
 20
474.1785373172699
 30
0.0
 42
-0.0879714171773709
  0
VERTEX
  5
1FC
  8
0
 10
823.25493890345422
 20
475.93568703352548
 30
0.0
 42
-0.0934938670441428
  0
VERTEX
  5
1FD
  8
0
 10
826.82117946284359
 20
476.35510685228007
 30
0.0
 42
-0.1711588369080259
  0
VERTEX
  5
1FE
  8
0
 10
832.13203348628213
 20
474.0568916044142
 30
0.0
 42
-0.0750799742064038
  0
VERTEX
  5
1FF
  8
0
 10
832.74669794977581
 20
473.28656789412969
 30
0.0
  0
VERTEX
  5
200
  8
0
 10
835.00765450465633
 20
469.37047626737058
 30
0.0
 42
-0.2214684668442456
  0
VERTEX
  5
201
  8
0
 10
835.08901252749911
 20
468.4451457196671
 30
0.0
 42
-0.0753029616993447
  0
VERTEX
  5
202
  8
0
 10
833.95936512186699
 20
466.37007424147163
 30
0.0
 42
-0.0386274536253628
  0
VERTEX
  5
203
  8
0
 10
831.87519454739572
 20
464.02265138113421
 30
0.0
 42
-0.0362616744943491
  0
VERTEX
  5
204
  8
0
 10
829.30737699632425
 20
461.88156054271712
 30
0.0
 42
-0.0282617652904014
  0
VERTEX
  5
205
  8
0
 10
826.21628403183456
 20
459.77593873650989
 30
0.0
 42
-0.038627453625357
  0
VERTEX
  5
206
  8
0
 10
823.7677825685638
 20
458.54979789810608
 30
0.0
 42
-0.0753029616994229
  0
VERTEX
  5
207
  8
0
 10
821.47104317354751
 20
457.9957103129147
 30
0.0
 42
-0.2214684668441806
  0
VERTEX
  5
208
  8
0
 10
820.59829950545054
 20
458.31378929711337
 30
0.0
  0
VERTEX
  5
209
  8
0
 10
817.40082408158878
 20
461.51126472097502
 30
0.0
 42
-0.0750799742073332
  0
VERTEX
  5
20A
  8
0
 10
816.81583538471625
 20
462.30435944789218
 30
0.0
 42
-0.1711588369070708
  0
VERTEX
  5
20B
  8
0
 10
815.97048008947718
 20
468.02907238464923
 30
0.0
 42
-0.0934938670441386
  0
VERTEX
  5
20C
  8
0
 10
817.29861950065651
 20
471.36524240673577
 30
0.0
 42
-0.0879714171773779
  0
SEQEND
  5
20D
  8
0
  0
ARC
  5
20E
  8
0
 10
876.79076845900397
 20
400.0
 30
0.0
 40
81.0
 50
133.9389063923775
 51
136.0610936076225
  0
ARC
  5
20F
  8
0
 10
876.79076845900397
 20
400.0
 30
0.0
 40
85.5
 50
134.0288385910132
 51
136.00524068543319
  0
POLYLINE
  5
210
  8
0
 66
     1
 10
0.0
 20
0.0
 30
0.0
 70
     1
  0
VERTEX
  5
211
  8
0
 10
802.61223114173401
 20
456.91919361234562
 30
0.0
 42
-0.0879714171773709
  0
VERTEX
  5
212
  8
0
 10
805.42552605226797
 20
459.49214895834751
 30
0.0
 42
-0.0934938670441428
  0
VERTEX
  5
213
  8
0
 10
808.76169607435452
 20
460.82028836952708
 30
0.0
 42
-0.1711588369080259
  0
VERTEX
  5
214
  8
0
 10
814.48640901113788
 20
459.97493307426743
 30
0.0
 42
-0.0750799742064038
  0
VERTEX
  5
215
  8
0
 10
815.27950373804424
 20
459.38994437740052
 30
0.0
  0
VERTEX
  5
216
  8
0
 10
818.47697916189259
 20
456.19246895355218
 30
0.0
 42
-0.2214684668442456
  0
VERTEX
  5
217
  8
0
 10
818.79505814609286
 20
455.31972528545469
 30
0.0
 42
-0.0753029616993447
  0
VERTEX
  5
218
  8
0
 10
818.24097056089863
 20
453.02298589044159
 30
0.0
 42
-0.0386274536253628
  0
VERTEX
  5
219
  8
0
 10
816.83537411978932
 20
450.21612648650489
 30
0.0
 42
-0.0362616744943491
  0
VERTEX
  5
21A
  8
0
 10
814.90920791628798
 20
447.48339146268108
 30
0.0
 42
-0.0282617652904014
  0
VERTEX
  5
21B
  8
0
 10
812.46841641565652
 20
444.64948325027569
 30
0.0
 42
-0.038627453625357
  0
VERTEX
  5
21C
  8
0
 10
810.42069421753376
 20
442.83140333713789
 30
0.0
 42
-0.0753029616994229
  0
VERTEX
  5
21D
  8
0
 10
808.34562273933432
 20
441.70175593150799
 30
0.0
 42
-0.2214684668441806
  0
VERTEX
  5
21E
  8
0
 10
807.42029219163169
 20
441.78311395434912
 30
0.0
  0
VERTEX
  5
21F
  8
0
 10
803.50420056485632
 20
444.04407050923902
 30
0.0
 42
-0.0750799742073332
  0
VERTEX
  5
220
  8
0
 10
802.73387685456339
 20
444.65873497274151
 30
0.0
 42
-0.1711588369070708
  0
VERTEX
  5
221
  8
0
 10
800.43566160672435
 20
449.96958899616033
 30
0.0
 42
-0.0934938670441386
  0
VERTEX
  5
222
  8
0
 10
800.85508142547849
 20
453.53582955554958
 30
0.0
 42
-0.0879714171773779
  0
SEQEND
  5
223
  8
0
  0
ARC
  5
224
  8
0
 10
876.79076845900397
 20
400.0
 30
0.0
 40
81.0
 50
148.9389063923775
 51
151.06109360762261
  0
ARC
  5
225
  8
0
 10
876.79076845900397
 20
400.0
 30
0.0
 40
85.5
 50
149.0288385910132
 51
151.00524068543319
  0
POLYLINE
  5
226
  8
0
 66
     1
 10
0.0
 20
0.0
 30
0.0
 70
     1
  0
VERTEX
  5
227
  8
0
 10
790.40803216915276
 20
435.78090092615491
 30
0.0
 42
-0.0879714171773709
  0
VERTEX
  5
228
  8
0
 10
792.45953653446134
 20
438.99431924708279
 30
0.0
 42
-0.0934938670441428
  0
VERTEX
  5
229
  8
0
 10
795.3382815455218
 20
441.14066774466971
 30
0.0
 42
-0.1711588369080259
  0
VERTEX
  5
22A
  8
0
 10
801.0867236695434
 20
441.80578196837229
 30
0.0
 42
-0.0750799742064038
  0
VERTEX
  5
22B
  8
0
 10
802.00420056487474
 20
441.44599429787519
 30
0.0
  0
VERTEX
  5
22C
  8
0
 10
805.92029219163373
 20
439.18503774299472
 30
0.0
 42
-0.2214684668442456
  0
VERTEX
  5
22D
  8
0
 10
806.45341558006874
 20
438.42435699320703
 30
0.0
 42
-0.0753029616993447
  0
VERTEX
  5
22E
  8
0
 10
806.51264796857015
 20
436.0624686756052
 30
0.0
 42
-0.0386274536253628
  0
VERTEX
  5
22F
  8
0
 10
805.88141473542669
 20
432.9874555578931
 30
0.0
 42
-0.0362616744943491
  0
VERTEX
  5
230
  8
0
 10
804.7281649231237
 20
429.84930772447791
 30
0.0
 42
-0.0282617652904014
  0
VERTEX
  5
231
  8
0
 10
803.10401079351993
 20
426.48023926729519
 30
0.0
 42
-0.038627453625357
  0
VERTEX
  5
232
  8
0
 10
801.59661674432596
 20
424.19411942098458
 30
0.0
 42
-0.0753029616994229
  0
VERTEX
  5
233
  8
0
 10
799.8846258749652
 20
422.56589579877908
 30
0.0
 42
-0.2214684668441806
  0
VERTEX
  5
234
  8
0
 10
798.96976819530175
 20
422.40498844545652
 30
0.0
  0
VERTEX
  5
235
  8
0
 10
794.60193553833017
 20
423.57534567856618
 30
0.0
 42
-0.0750799742073332
  0
VERTEX
  5
236
  8
0
 10
793.69877310245317
 20
423.96969151124767
 30
0.0
 42
-0.1711588369070708
  0
VERTEX
  5
237
  8
0
 10
790.10431747317386
 20
428.50476069623318
 30
0.0
 42
-0.0934938670441386
  0
VERTEX
  5
238
  8
0
 10
789.58643493197928
 20
432.05803839229412
 30
0.0
 42
-0.0879714171773779
  0
SEQEND
  5
239
  8
0
  0
ARC
  5
23A
  8
0
 10
876.79076845900397
 20
400.0
 30
0.0
 40
81.0
 50
163.93890639237759
 51
166.0610936076225
  0
ARC
  5
23B
  8
0
 10
876.79076845900397
 20
400.0
 30
0.0
 40
85.5
 50
164.0288385910132
 51
166.00524068543319
  0
POLYLINE
  5
23C
  8
0
 66
     1
 10
0.0
 20
0.0
 30
0.0
 70
     1
  0
VERTEX
  5
23D
  8
0
 10
784.0906739205036
 20
412.2041989725812
 30
0.0
 42
-0.0879714171773709
  0
VERTEX
  5
23E
  8
0
 10
785.24058110836233
 20
415.8390911202888
 30
0.0
 42
-0.0934938670441428
  0
VERTEX
  5
23F
  8
0
 10
787.46571939324372
 20
418.65737860118099
 30
0.0
 42
-0.1711588369080259
  0
VERTEX
  5
240
  8
0
 10
792.84614387350132
 20
420.7876359086539
 30
0.0
 42
-0.0750799742064038
  0
VERTEX
  5
241
  8
0
 10
793.82547840304301
 20
420.67756819969372
 30
0.0
  0
VERTEX
  5
242
  8
0
 10
798.1933110599964
 20
419.50721096658867
 30
0.0
 42
-0.2214684668442456
  0
VERTEX
  5
243
  8
0
 10
798.90514737477258
 20
418.91043227112448
 30
0.0
 42
-0.0753029616993447
  0
VERTEX
  5
244
  8
0
 10
799.57366314757928
 20
416.64435381657358
 30
0.0
 42
-0.0386274536253628
  0
VERTEX
  5
245
  8
0
 10
799.759810624078
 20
413.51074404735863
 30
0.0
 42
-0.0362616744943491
  0
VERTEX
  5
246
  8
0
 10
799.45806927184674
 20
410.18104299316479
 30
0.0
 42
-0.0282617652904014
  0
VERTEX
  5
247
  8
0
 10
798.76123593316117
 20
406.50641073891279
 30
0.0
 42
-0.038627453625357
  0
VERTEX
  5
248
  8
0
 10
797.89689644626253
 20
403.90804624896379
 30
0.0
 42
-0.0753029616994229
  0
VERTEX
  5
249
  8
0
 10
796.66465553428839
 20
401.89220715926939
 30
0.0
 42
-0.2214684668441806
  0
VERTEX
  5
24A
  8
0
 10
795.82261676165945
 20
401.50000000000023
 30
0.0
  0
VERTEX
  5
24B
  8
0
 10
791.30070365187953
 20
401.50000000000011
 30
0.0
 42
-0.0750799742073332
  0
VERTEX
  5
24C
  8
0
 10
790.32625151787715
 20
401.6471531850504
 30
0.0
 42
-0.1711588369070708
  0
VERTEX
  5
24D
  8
0
 10
785.68051171817444
 20
405.0973800612021
 30
0.0
 42
-0.0934938670441386
  0
VERTEX
  5
24E
  8
0
 10
784.26061965637155
 20
408.39554489101693
 30
0.0
 42
-0.0879714171773779
  0
SEQEND
  5
24F
  8
0
  0
ARC
  5
250
  8
0
 10
876.79076845900397
 20
400.0
 30
0.0
 40
81.0
 50
178.9389063923775
 51
181.06109360762261
  0
ARC
  5
251
  8
0
 10
876.79076845900397
 20
400.0
 30
0.0
 40
85.5
 50
179.0288385910132
 51
181.00524068543319
  0
POLYLINE
  5
252
  8
0
 66
     1
 10
0.0
 20
0.0
 30
0.0
 70
     1
  0
VERTEX
  5
253
  8
0
 10
784.0906739205036
 20
387.79580102741858
 30
0.0
 42
-0.0879714171773709
  0
VERTEX
  5
254
  8
0
 10
784.26061965637155
 20
391.60445510898268
 30
0.0
 42
-0.0934938670441428
  0
VERTEX
  5
255
  8
0
 10
785.6805117181741
 20
394.90261993879778
 30
0.0
 42
-0.1711588369080259
  0
VERTEX
  5
256
  8
0
 10
790.32625151791001
 20
398.35284681495352
 30
0.0
 42
-0.0750799742064038
  0
VERTEX
  5
257
  8
0
 10
791.30070365190068
 20
398.50000000000023
 30
0.0
  0
VERTEX
  5
258
  8
0
 10
795.82261676166183
 20
398.50000000000023
 30
0.0
 42
-0.2214684668442456
  0
VERTEX
  5
259
  8
0
 10
796.66465553429225
 20
398.10779284073192
 30
0.0
 42
-0.0753029616993447
  0
VERTEX
  5
25A
  8
0
 10
797.89689644626196
 20
396.09195375103769
 30
0.0
 42
-0.0386274536253628
  0
VERTEX
  5
25B
  8
0
 10
798.88773898950285
 20
393.11329765755681
 30
0.0
 42
-0.0362616744943491
  0
VERTEX
  5
25C
  8
0
 10
799.45806927184651
 20
389.81895700683668
 30
0.0
 42
-0.0282617652904014
  0
VERTEX
  5
25D
  8
0
 10
799.73604476453954
 20
386.08918107102568
 30
0.0
 42
-0.038627453625357
  0
VERTEX
  5
25E
  8
0
 10
799.5736631475794
 20
383.35564618342812
 30
0.0
 42
-0.0753029616994229
  0
VERTEX
  5
25F
  8
0
 10
798.9051473747686
 20
381.08956772887569
 30
0.0
 42
-0.2214684668441806
  0
VERTEX
  5
260
  8
0
 10
798.19331105999413
 20
380.49278903341099
 30
0.0
  0
VERTEX
  5
261
  8
0
 10
793.82547840302254
 20
379.32243180030099
 30
0.0
 42
-0.0750799742073332
  0
VERTEX
  5
262
  8
0
 10
792.84614387346869
 20
379.21236409134133
 30
0.0
 42
-0.1711588369070708
  0
VERTEX
  5
263
  8
0
 10
787.46571939324394
 20
381.34262139881912
 30
0.0
 42
-0.0934938670441386
  0
VERTEX
  5
264
  8
0
 10
785.24058110836268
 20
384.16090887971109
 30
0.0
 42
-0.0879714171773779
  0
SEQEND
  5
265
  8
0
  0
ARC
  5
266
  8
0
 10
876.79076845900397
 20
400.0
 30
0.0
 40
81.0
 50
193.9389063923775
 51
196.06109360762261
  0
ARC
  5
267
  8
0
 10
876.79076845900397
 20
400.0
 30
0.0
 40
85.5
 50
194.0288385910132
 51
196.00524068543319
  0
POLYLINE
  5
268
  8
0
 66
     1
 10
0.0
 20
0.0
 30
0.0
 70
     1
  0
VERTEX
  5
269
  8
0
 10
790.40803216915288
 20
364.21909907384509
 30
0.0
 42
-0.0879714171773709
  0
VERTEX
  5
26A
  8
0
 10
789.58643493197917
 20
367.94196160770571
 30
0.0
 42
-0.0934938670441428
  0
VERTEX
  5
26B
  8
0
 10
790.10431747317375
 20
371.49523930376671
 30
0.0
 42
-0.1711588369080259
  0
VERTEX
  5
26C
  8
0
 10
793.69877310248398
 20
376.0303084887646
 30
0.0
 42
-0.0750799742064038
  0
VERTEX
  5
26D
  8
0
 10
794.60193553835052
 20
376.42465432143962
 30
0.0
  0
VERTEX
  5
26E
  8
0
 10
798.96976819530391
 20
377.5950115545445
 30
0.0
 42
-0.2214684668442456
  0
VERTEX
  5
26F
  8
0
 10
799.88462587496849
 20
377.43410420122319
 30
0.0
 42
-0.0753029616993447
  0
VERTEX
  5
270
  8
0
 10
801.59661674432505
 20
375.80588057901679
 30
0.0
 42
-0.0386274536253628
  0
VERTEX
  5
271
  8
0
 10
803.32463007243086
 20
373.18516865157892
 30
0.0
 42
-0.0362616744943491
  0
VERTEX
  5
272
  8
0
 10
804.72816492312324
 20
370.15069227552368
 30
0.0
 42
-0.0282617652904014
  0
VERTEX
  5
273
  8
0
 10
805.96200567674373
 20
366.61995072443312
 30
0.0
 42
-0.038627453625357
  0
VERTEX
  5
274
  8
0
 10
806.51264796856981
 20
363.93753132439639
 30
0.0
 42
-0.0753029616994229
  0
VERTEX
  5
275
  8
0
 10
806.45341558006498
 20
361.57564300679229
 30
0.0
 42
-0.2214684668441806
  0
VERTEX
  5
276
  8
0
 10
805.92029219163135
 20
360.81496225700459
 30
0.0
  0
VERTEX
  5
277
  8
0
 10
802.00420056485621
 20
358.55400570211452
 30
0.0
 42
-0.0750799742073332
  0
VERTEX
  5
278
  8
0
 10
801.08672366951305
 20
358.1942180316147
 30
0.0
 42
-0.1711588369070708
  0
VERTEX
  5
279
  8
0
 10
795.33828154552214
 20
358.85933225533063
 30
0.0
 42
-0.0934938670441386
  0
VERTEX
  5
27A
  8
0
 10
792.45953653446156
 20
361.00568075291721
 30
0.0
 42
-0.0879714171773779
  0
SEQEND
  5
27B
  8
0
  0
ARC
  5
27C
  8
0
 10
876.79076845900397
 20
400.0
 30
0.0
 40
81.0
 50
208.9389063923775
 51
211.06109360762261
  0
ARC
  5
27D
  8
0
 10
876.79076845900397
 20
400.0
 30
0.0
 40
85.5
 50
209.02883859101311
 51
211.00524068543319
  0
POLYLINE
  5
27E
  8
0
 66
     1
 10
0.0
 20
0.0
 30
0.0
 70
     1
  0
VERTEX
  5
27F
  8
0
 10
802.61223114173436
 20
343.08080638765438
 30
0.0
 42
-0.0879714171773709
  0
VERTEX
  5
280
  8
0
 10
800.85508142547849
 20
346.46417044445008
 30
0.0
 42
-0.0934938670441428
  0
VERTEX
  5
281
  8
0
 10
800.4356616067239
 20
350.03041100383967
 30
0.0
 42
-0.1711588369080259
  0
VERTEX
  5
282
  8
0
 10
802.73387685458988
 20
355.34126502727833
 30
0.0
 42
-0.0750799742064038
  0
VERTEX
  5
283
  8
0
 10
803.5042005648744
 20
355.95592949077178
 30
0.0
  0
VERTEX
  5
284
  8
0
 10
807.42029219163339
 20
358.21688604565247
 30
0.0
 42
-0.2214684668442456
  0
VERTEX
  5
285
  8
0
 10
808.34562273933693
 20
358.29824406849508
 30
0.0
 42
-0.0753029616993447
  0
VERTEX
  5
286
  8
0
 10
810.4206942175324
 20
357.16859666286308
 30
0.0
 42
-0.0386274536253628
  0
VERTEX
  5
287
  8
0
 10
812.76811707786976
 20
355.08442608839181
 30
0.0
 42
-0.0362616744943491
  0
VERTEX
  5
288
  8
0
 10
814.90920791628707
 20
352.51660853732028
 30
0.0
 42
-0.0282617652904014
  0
VERTEX
  5
289
  8
0
 10
817.01482972249403
 20
349.42551557283059
 30
0.0
 42
-0.038627453625357
  0
VERTEX
  5
28A
  8
0
 10
818.24097056089795
 20
346.97701410956
 30
0.0
 42
-0.0753029616994229
  0
VERTEX
  5
28B
  8
0
 10
818.79505814608922
 20
344.6802747145436
 30
0.0
 42
-0.2214684668441806
  0
VERTEX
  5
28C
  8
0
 10
818.47697916189077
 20
343.80753104644663
 30
0.0
  0
VERTEX
  5
28D
  8
0
 10
815.27950373802912
 20
340.6100556225847
 30
0.0
 42
-0.0750799742073332
  0
VERTEX
  5
28E
  8
0
 10
814.48640901111196
 20
340.02506692571228
 30
0.0
 42
-0.1711588369070708
  0
VERTEX
  5
28F
  8
0
 10
808.76169607435486
 20
339.17971163047321
 30
0.0
 42
-0.0934938670441386
  0
VERTEX
  5
290
  8
0
 10
805.4255260522682
 20
340.50785104165249
 30
0.0
 42
-0.0879714171773779
  0
SEQEND
  5
291
  8
0
  0
ARC
  5
292
  8
0
 10
876.79076845900397
 20
400.0
 30
0.0
 40
81.0
 50
223.93890639237759
 51
226.06109360762261
  0
ARC
  5
293
  8
0
 10
876.79076845900397
 20
400.0
 30
0.0
 40
85.5
 50
224.0288385910132
 51
226.00524068543319
  0
POLYLINE
  5
294
  8
0
 66
     1
 10
0.0
 20
0.0
 30
0.0
 70
     1
  0
VERTEX
  5
295
  8
0
 10
819.87157484665863
 20
325.82146268273021
 30
0.0
 42
-0.0879714171773709
  0
VERTEX
  5
296
  8
0
 10
817.29861950065674
 20
328.63475759326388
 30
0.0
 42
-0.0934938670441428
  0
VERTEX
  5
297
  8
0
 10
815.97048008947684
 20
331.97092761535072
 30
0.0
 42
-0.1711588369080259
  0
VERTEX
  5
298
  8
0
 10
816.81583538473694
 20
337.69564055213391
 30
0.0
 42
-0.0750799742064038
  0
VERTEX
  5
299
  8
0
 10
817.40082408160356
 20
338.48873527904021
 30
0.0
  0
VERTEX
  5
29A
  8
0
 10
820.59829950545213
 20
341.68621070288862
 30
0.0
 42
-0.2214684668442456
  0
VERTEX
  5
29B
  8
0
 10
821.47104317354933
 20
342.004289687089
 30
0.0
 42
-0.0753029616993447
  0
VERTEX
  5
29C
  8
0
 10
823.76778256856255
 20
341.4502021018946
 30
0.0
 42
-0.0386274536253628
  0
VERTEX
  5
29D
  8
0
 10
826.57464197249919
 20
340.04460566078541
 30
0.0
 42
-0.0362616744943491
  0
VERTEX
  5
29E
  8
0
 10
829.307376996323
 20
338.11843945728401
 30
0.0
 42
-0.0282617652904014
  0
VERTEX
  5
29F
  8
0
 10
832.14128520872839
 20
335.67764795665249
 30
0.0
 42
-0.038627453625357
  0
VERTEX
  5
2A0
  8
0
 10
833.95936512186597
 20
333.62992575852962
 30
0.0
 42
-0.0753029616994229
  0
VERTEX
  5
2A1
  8
0
 10
835.08901252749615
 20
331.55485428033018
 30
0.0
 42
-0.2214684668441806
  0
VERTEX
  5
2A2
  8
0
 10
835.00765450465508
 20
330.6295237326276
 30
0.0
  0
VERTEX
  5
2A3
  8
0
 10
832.74669794976523
 20
326.71343210585218
 30
0.0
 42
-0.0750799742073332
  0
VERTEX
  5
2A4
  8
0
 10
832.13203348626257
 20
325.94310839555942
 30
0.0
 42
-0.1711588369070708
  0
VERTEX
  5
2A5
  8
0
 10
826.82117946284382
 20
323.64489314772032
 30
0.0
 42
-0.0934938670441386
  0
VERTEX
  5
2A6
  8
0
 10
823.25493890345444
 20
324.06431296647457
 30
0.0
 42
-0.0879714171773779
  0
SEQEND
  5
2A7
  8
0
  0
ARC
  5
2A8
  8
0
 10
876.79076845900397
 20
400.0
 30
0.0
 40
81.0
 50
238.93890639237759
 51
241.06109360762261
  0
ARC
  5
2A9
  8
0
 10
876.79076845900397
 20
400.0
 30
0.0
 40
85.5
 50
239.0288385910132
 51
241.00524068543319
  0
ARC
  5
2AA
  8
0
 10
853.15434045536995
 20
330.93250206335102
 30
0.0
 40
5.0
 50
251.10791713384091
 51
3.7544054808136451
  0
LINE
  5
2AB
  8
0
 10
858.14360991253386
 20
331.25990133612282
 30
0.0
 11
854.47539114182166
 21
387.16024503562119
 31
0.0
  0
LINE
  5
2AC
  8
0
 10
859.89472241166561
 20
328.55255267035341
 30
0.0
 11
857.15412386896719
 21
381.87328159254241
 31
0.0
  0
ARC
  5
2AD
  8
0
 10
844.49685222749395
 20
386.50544649007759
 30
0.0
 40
10.0
 50
3.754405480813773
 51
22.678427662218159
  0
ARC
  5
2AE
  8
0
 10
847.16730671703499
 20
381.35997547152658
 30
0.0
 40
10.0
 50
2.9423204857075009
 51
32.17940854312188
  0
ARC
  5
2AF
  8
0
 10
847.16730671703499
 20
418.6400245284733
 30
0.0
 40
10.0
 50
327.82059145687822
 51
357.0576795142926
  0
ARC
  5
2B0
  8
0
 10
844.49685222749395
 20
413.49455350992241
 30
0.0
 40
10.0
 50
337.3215723377819
 51
356.24559451918628
  0
ARC
  5
2B1
  8
0
 10
853.15434045536995
 20
469.06749793664881
 30
0.0
 40
5.0
 50
356.24559451918651
 51
108.8920828661591
  0
LINE
  5
2B2
  8
0
 10
859.89472241166561
 20
471.44744732964659
 30
0.0
 11
857.15412386896719
 21
418.12671840745759
 31
0.0
  0
LINE
  5
2B3
  8
0
 10
858.14360991253386
 20
468.74009866387701
 30
0.0
 11
854.47539114182166
 21
412.8397549643787
 31
0.0
  0
ARC
  5
2B4
  8
0
 10
876.79076845900397
 20
400.0
 30
0.0
 40
85.5
 50
75.601901962337024
 51
83.869807050525267
  0
ARC
  5
2B5
  8
0
 10
876.79076845900397
 20
400.0
 30
0.0
 40
85.5
 50
96.130192949474718
 51
104.3980980376629
  0
ARC
  5
2B6
  8
0
 10
885.49399365573572
 20
481.03396739130432
 30
0.0
 40
4.0
 50
83.869807050525225
 51
128.4373807144276
  0
ARC
  5
2B7
  8
0
 10
868.08754326227245
 20
481.03396739130432
 30
0.0
 40
4.0
 50
51.562619285573078
 51
96.130192949474775
  0
ARC
  5
2B8
  8
0
 10
898.78801554453275
 20
469.60690425998149
 30
0.0
 40
5.0
 50
72.462367172744834
 51
182.942320485708
  0
ARC
  5
2B9
  8
0
 10
854.79352137347553
 20
469.60690425998132
 30
0.0
 40
5.0
 50
357.05767951429198
 51
107.53763282725519
  0
ARC
  5
2BA
  8
0
 10
898.78801554453275
 20
330.39309574001851
 30
0.0
 40
5.0
 50
177.0576795142926
 51
287.53763282725509
  0
ARC
  5
2BB
  8
0
 10
854.79352137347553
 20
330.39309574001868
 30
0.0
 40
5.0
 50
252.46236717274499
 51
2.9423204857076501
  0
LINE
  5
2BC
  8
1
 10
856.79076845900408
 20
489.0
 30
0.0
 11
896.79076845900408
 21
489.0
 31
0.0
  0
CIRCLE
  5
2BD
  8
3
 10
876.79076845900397
 20
489.0
 30
0.0
 40
5.0
  0
CIRCLE
  5
2BE
  8
0
 10
876.79076845900397
 20
489.0
 30
0.0
 40
4.1879999999999988
  0
LINE
  5
2BF
  8
0
 10
646.49999999999989
 20
422.5
 30
0.0
 11
646.50000000000034
 21
377.5
 31
0.0
  0
LINE
  5
2C0
  8
0
 10
619.0
 20
378.35601279030459
 30
0.0
 11
619.0
 21
400.0
 31
0.0
  0
LINE
  5
2C1
  8
0
 10
630.55918254822882
 20
375.0
 30
0.0
 11
630.06640835610403
 21
375.0
 31
0.0
  0
LINE
  5
2C2
  8
0
 10
610.0
 20
356.50720557339611
 30
0.0
 11
618.09331856329914
 21
374.1952968054818
 31
0.0
  0
LINE
  5
2C3
  8
0
 10
627.06641105350218
 20
370.6254680953283
 30
0.0
 11
627.06641105350218
 21
383.37478495252452
 31
0.0
  0
LINE
  5
2C4
  8
0
 10
610.0
 20
337.7387120213084
 30
0.0
 11
625.77669565860253
 21
365.7131425668079
 31
0.0
  0
LINE
  5
2C5
  8
0
 10
610.00000000000011
 20
340.59656887543832
 30
0.0
 11
625.95460207420774
 21
371.54146896471423
 31
0.0
  0
LINE
  5
2C6
  8
0
 10
610.0
 20
366.9412671996659
 30
0.0
 11
612.57868171697601
 21
372.89469056672942
 31
0.0
  0
LINE
  5
2C7
  8
0
 10
613.4024873076537
 20
376.86929195080808
 30
0.0
 11
613.4024873076537
 21
382.80767140701482
 31
0.0
  0
LINE
  5
2C8
  8
0
 10
613.40248730765381
 20
384.14741736917051
 30
0.0
 11
617.26259814114098
 21
387.47137058520752
 31
0.0
  0
ARC
  5
2C9
  8
0
 10
630.06641105350229
 20
371.99999999999989
 30
0.0
 40
3.0
 50
90.000051516512485
 51
179.9999999999998
  0
LINE
  5
2CA
  8
0
 10
627.06641105350218
 20
384.71453091467993
 30
0.0
 11
621.66807296554452
 21
387.56074208728631
 31
0.0
  0
ARC
  5
2CB
  8
0
 10
617.06641105350229
 20
370.6254680953283
 30
0.0
 40
10.0
 50
330.5783740658062
 51
0.0
  0
ARC
  5
2CC
  8
0
 10
603.40248730765359
 20
376.86929195080808
 30
0.0
 40
10.0
 50
336.58050481401779
 51
0.0
  0
ARC
  5
2CD
  8
0
 10
617.06641105350229
 20
376.12405124760369
 30
0.0
 40
10.0
 50
332.72522885192268
 51
0.0
  0
ARC
  5
2CE
  8
0
 10
609.0
 20
378.35601279030459
 30
0.0
 40
10.0
 50
335.41318171304312
 51
0.0000000000002176
  0
ARC
  5
2CF
  8
0
 10
632.06641105350218
 20
383.37478495252452
 30
0.0
 40
5.0
 50
150.00000000000011
 51
180.0
  0
ARC
  5
2D0
  8
0
 10
608.40248730765359
 20
382.80767140701482
 30
0.0
 40
5.0
 50
0.0
 51
30.000000000000028
  0
ARC
  5
2D1
  8
0
 10
624.0
 20
391.98365021497511
 30
0.0
 40
5.0
 50
180.00000000000011
 51
242.2000798924991
  0
ARC
  5
2D2
  8
0
 10
614.0
 20
391.26022969705411
 30
0.0
 40
5.0
 50
310.7318415219371
 51
0.0
  0
ARC
  5
2D3
  8
0
 10
610.4024873076537
 20
374.54364997618808
 30
0.0
 40
3.0
 50
15.85160553950462
 51
72.645975363738785
  0
LINE
  5
2D4
  8
0
 10
613.40176914296637
 20
376.74944714282287
 30
0.0
 11
610.99999999999989
 21
377.5
 31
0.0
  0
LINE
  5
2D5
  8
0
 10
630.55918254822882
 20
375.0
 30
0.0
 11
631.0
 21
377.5
 31
0.0
  0
LINE
  5
2D6
  8
0
 10
608.49999999999989
 20
500.0
 30
0.0
 11
608.49999999999989
 21
300.0
 31
0.0
  0
CIRCLE
  5
2D7
  8
0
 10
260.0
 20
489.00000000000011
 30
0.0
 40
11.0
  0
LINE
  5
2D8
  8
1
 10
260.0
 20
515.0
 30
0.0
 11
260.0
 21
468.00000000000011
 31
0.0
  0
LINE
  5
2D9
  8
1
 10
285.99999999999937
 20
489.00000000000011
 30
0.0
 11
234.0
 21
489.00000000000011
 31
0.0
  0
LINE
  5
2DA
  8
1
 10
375.0
 20
400.0
 30
0.0
 11
145.0
 21
400.0
 31
0.0
  0
LINE
  5
2DB
  8
1
 10
260.0
 20
510.0
 30
0.0
 11
260.0
 21
285.0
 31
0.0
  0
ARC
  5
2DC
  8
0
 10
260.0
 20
400.0
 30
0.0
 40
25.0
 50
337.3215759733875
 51
22.678431297828588
  0
LINE
  5
2DD
  8
0
 10
276.5273034898986
 20
469.49478231716
 30
0.0
 11
279.33120854816713
 21
415.85258263082937
 31
0.0
  0
LINE
  5
2DE
  8
0
 10
278.64715854647022
 20
468.74009866387718
 30
0.0
 11
282.31537731718231
 21
412.83975496438029
 31
0.0
  0
ARC
  5
2DF
  8
0
 10
260.0
 20
400.0
 30
0.0
 40
70.0
 50
76.277533947884194
 51
103.72246605211571
  0
ARC
  5
2E0
  8
0
 10
260.0
 20
400.0
 30
0.0
 40
32.0
 50
54.005761050416858
 51
125.99423894958311
  0
ARC
  5
2E1
  8
0
 10
283.63642800363408
 20
469.06749793664898
 30
0.0
 40
5.0
 50
71.107917133840871
 51
183.7544054808136
  0
ARC
  5
2E2
  8
0
 10
281.52048693972279
 20
469.75577855545168
 30
0.0
 40
5.0
 50
72.854383702279989
 51
182.99215645384541
  0
ARC
  5
2E3
  8
0
 10
292.29391623151002
 20
413.49455350992378
 30
0.0
 40
10.0
 50
183.7544054808136
 51
202.67842766222051
  0
ARC
  5
2E4
  8
0
 10
260.0
 20
400.0
 30
0.0
 40
25.0
 50
39.353509976829883
 51
140.64649002317009
  0
ARC
  5
2E5
  8
0
 10
260.0
 20
400.0
 30
0.0
 40
25.0
 50
219.3535099768294
 51
320.6464900231702
  0
ARC
  5
2E6
  8
0
 10
292.29391623151002
 20
386.50544649007611
 30
0.0
 40
10.0
 50
157.32157233777949
 51
176.2455945191864
  0
ARC
  5
2E7
  8
0
 10
281.52048693972279
 20
330.24422144454832
 30
0.0
 40
5.0
 50
177.00784354615459
 51
287.14561629771998
  0
ARC
  5
2E8
  8
0
 10
283.63642800363408
 20
330.93250206335102
 30
0.0
 40
5.0
 50
176.2455945191864
 51
288.89208286615923
  0
ARC
  5
2E9
  8
0
 10
260.0
 20
400.0
 30
0.0
 40
32.0
 50
234.0057610504166
 51
305.99423894958318
  0
ARC
  5
2EA
  8
0
 10
260.0
 20
400.0
 30
0.0
 40
70.0
 50
256.27753394788431
 51
283.72246605211581
  0
LINE
  5
2EB
  8
0
 10
278.64715854647022
 20
331.25990133612282
 30
0.0
 11
282.31537731718231
 21
387.16024503561971
 31
0.0
  0
LINE
  5
2EC
  8
0
 10
276.5273034898986
 20
330.50521768284
 30
0.0
 11
279.33120854816713
 21
384.14741736917051
 31
0.0
  0
LINE
  5
2ED
  8
0
 10
243.47269651010129
 20
330.50521768284
 30
0.0
 11
240.66879145183279
 21
384.14741736917051
 31
0.0
  0
LINE
  5
2EE
  8
0
 10
241.35284145352981
 20
331.25990133612282
 30
0.0
 11
237.6846226828178
 21
387.16024503561971
 31
0.0
  0
ARC
  5
2EF
  8
0
 10
236.36357199636589
 20
330.93250206335102
 30
0.0
 40
5.0
 50
251.10791713384091
 51
3.7544054808136198
  0
ARC
  5
2F0
  8
0
 10
238.47951306027721
 20
330.24422144454832
 30
0.0
 40
5.0
 50
252.85438370227999
 51
2.9921564538454009
  0
ARC
  5
2F1
  8
0
 10
227.70608376848989
 20
386.50544649007611
 30
0.0
 40
10.0
 50
3.7544054808136198
 51
22.678427662220521
  0
ARC
  5
2F2
  8
0
 10
227.70608376848989
 20
413.49455350992378
 30
0.0
 40
10.0
 50
337.32157233777951
 51
356.24559451918651
  0
ARC
  5
2F3
  8
0
 10
238.47951306027721
 20
469.75577855545168
 30
0.0
 40
5.0
 50
357.00784354615467
 51
107.14561629772
  0
ARC
  5
2F4
  8
0
 10
236.36357199636589
 20
469.06749793664898
 30
0.0
 40
5.0
 50
356.24559451918651
 51
108.8920828661591
  0
LINE
  5
2F5
  8
0
 10
241.35284145352981
 20
468.74009866387718
 30
0.0
 11
237.6846226828178
 21
412.83975496438029
 31
0.0
  0
LINE
  5
2F6
  8
0
 10
243.47269651010129
 20
469.49478231716
 30
0.0
 11
240.66879145183279
 21
415.85258263082937
 31
0.0
  0
ARC
  5
2F7
  8
0
 10
260.0
 20
400.0
 30
0.0
 40
25.0
 50
157.32156870217139
 51
202.6784240266125
  0
CIRCLE
  5
2F8
  8
0
 10
260.0
 20
400.0
 30
0.0
 40
22.5
  0
CIRCLE
  5
2F9
  8
0
 10
260.0
 20
400.0
 30
0.0
 40
78.0
  0
CIRCLE
  5
2FA
  8
0
 10
260.0
 20
400.0
 30
0.0
 40
100.0
  0
LINE
  5
2FB
  8
1
 10
620.0
 20
489.0
 30
0.0
 11
490.5
 21
489.0
 31
0.0
  0
LINE
  5
2FC
  8
0
 10
630.55918254822882
 20
425.0
 30
0.0
 11
631.0
 21
422.49999999999989
 31
0.0
  0
LINE
  5
2FD
  8
0
 10
631.0
 20
377.49999999999989
 30
0.0
 11
646.49999999999989
 21
377.5
 31
0.0
  0
LINE
  5
2FE
  8
0
 10
646.49999999999989
 20
377.5
 30
0.0
 11
647.0
 21
378.0
 31
0.0
  0
LINE
  5
2FF
  8
0
 10
613.40176914296637
 20
423.25055285717701
 30
0.0
 11
610.99999999999989
 21
422.49999999999989
 31
0.0
  0
ARC
  5
300
  8
0
 10
610.4024873076537
 20
425.45635002381181
 30
0.0
 40
3.0
 50
287.35402463626122
 51
344.14839446049541
  0
ARC
  5
301
  8
0
 10
614.0
 20
408.73977030294577
 30
0.0
 40
5.0
 50
0.0
 51
49.268158478062887
  0
ARC
  5
302
  8
0
 10
624.0
 20
408.01634978502489
 30
0.0
 40
5.0
 50
117.7999201075009
 51
179.99999999999989
  0
ARC
  5
303
  8
0
 10
608.40248730765359
 20
417.19232859298512
 30
0.0
 40
5.0
 50
330.0
 51
0.0
  0
ARC
  5
304
  8
0
 10
632.06641105350218
 20
416.62521504747548
 30
0.0
 40
5.0
 50
180.0
 51
209.99999999999989
  0
ARC
  5
305
  8
0
 10
609.0
 20
421.64398720969541
 30
0.0
 40
10.0
 50
359.99999999999977
 51
24.58681828695692
  0
ARC
  5
306
  8
0
 10
617.06641105350229
 20
423.87594875239631
 30
0.0
 40
10.0
 50
0.0
 51
27.274771148077281
  0
ARC
  5
307
  8
0
 10
603.40248730765359
 20
423.13070804919192
 30
0.0
 40
10.0
 50
0.0
 51
23.419495185982221
  0
ARC
  5
308
  8
0
 10
617.06641105350229
 20
429.3745319046717
 30
0.0
 40
10.0
 50
0.0
 51
29.421625934193791
  0
LINE
  5
309
  8
0
 10
627.06641105350218
 20
415.28546908532002
 30
0.0
 11
621.66807296554452
 21
412.43925791271369
 31
0.0
  0
ARC
  5
30A
  8
0
 10
630.06641105350229
 20
428.00000000000011
 30
0.0
 40
3.0
 50
180.0000000000002
 51
269.99994848348751
  0
LINE
  5
30B
  8
0
 10
613.40248730765381
 20
415.85258263082937
 30
0.0
 11
617.26259814114098
 21
412.52862941479242
 31
0.0
  0
LINE
  5
30C
  8
0
 10
613.4024873076537
 20
423.13070804919192
 30
0.0
 11
613.4024873076537
 21
417.19232859298512
 31
0.0
  0
LINE
  5
30D
  8
0
 10
610.0
 20
433.0587328003341
 30
0.0
 11
612.57868171697601
 21
427.10530943327058
 31
0.0
  0
LINE
  5
30E
  8
0
 10
610.00000000000011
 20
459.40343112456162
 30
0.0
 11
625.95460207420774
 21
428.45853103528572
 31
0.0
  0
LINE
  5
30F
  8
0
 10
610.0
 20
462.2612879786916
 30
0.0
 11
625.77669565860253
 21
434.2868574331921
 31
0.0
  0
LINE
  5
310
  8
0
 10
627.06641105350218
 20
429.3745319046717
 30
0.0
 11
627.06641105350218
 21
416.62521504747548
 31
0.0
  0
LINE
  5
311
  8
0
 10
610.0
 20
443.49279442660378
 30
0.0
 11
618.09331856329914
 21
425.80470319451808
 31
0.0
  0
LINE
  5
312
  8
0
 10
630.55918254822882
 20
425.0
 30
0.0
 11
630.06640835610403
 21
425.0
 31
0.0
  0
LINE
  5
313
  8
0
 10
608.49999999999989
 20
300.0
 30
0.0
 11
592.0
 21
300.0
 31
0.0
  0
LINE
  5
314
  8
0
 10
608.49999999999989
 20
300.0
 30
0.0
 11
610.0
 21
301.5
 31
0.0
  0
ARC
  5
315
  8
0
 10
592.0
 20
302.0
 30
0.0
 40
2.0
 50
180.00000000000011
 51
270.0
  0
ARC
  5
316
  8
0
 10
592.0
 20
498.0
 30
0.0
 40
2.0
 50
90.0
 51
179.99999999999989
  0
LINE
  5
317
  8
0
 10
610.0
 20
301.5
 30
0.0
 11
610.0
 21
498.5
 31
0.0
  0
LINE
  5
318
  8
0
 10
608.49999999999989
 20
500.0
 30
0.0
 11
610.0
 21
498.5
 31
0.0
  0
LINE
  5
319
  8
0
 10
619.0
 20
421.64398720969541
 30
0.0
 11
619.0
 21
400.0
 31
0.0
  0
LINE
  5
31A
  8
0
 10
630.55918254822882
 20
374.99999999999977
 30
0.0
 11
630.55918254822882
 21
425.0
 31
0.0
  0
LINE
  5
31B
  8
0
 10
631.0
 20
377.50000000000011
 30
0.0
 11
631.0
 21
422.49999999999989
 31
0.0
  0
LINE
  5
31C
  8
0
 10
610.99999999999989
 20
377.5
 30
0.0
 11
610.99999999999989
 21
422.49999999999989
 31
0.0
  0
LINE
  5
31D
  8
0
 10
646.49999999999989
 20
422.49999999999989
 30
0.0
 11
647.0
 21
422.0
 31
0.0
  0
LINE
  5
31E
  8
0
 10
647.0
 20
422.0
 30
0.0
 11
647.0
 21
378.0
 31
0.0
  0
LINE
  5
31F
  8
0
 10
631.0
 20
422.50000000000011
 30
0.0
 11
646.49999999999989
 21
422.49999999999989
 31
0.0
  0
LINE
  5
320
  8
0
 10
590.0
 20
498.0
 30
0.0
 11
590.0
 21
302.0
 31
0.0
  0
LINE
  5
321
  8
0
 10
608.49999999999989
 20
500.0
 30
0.0
 11
592.0
 21
500.0
 31
0.0
  0
LINE
  5
322
  8
1
 10
575.0
 20
400.0
 30
0.0
 11
662.0
 21
400.0
 31
0.0
  0
TEXT
  5
472
  8
0
 62
     3
 10
0.0
 20
0.0
 30
0.0
 40
10.0
  1
S200ER
  7
STANDARD1
  0
ENDSEC
  0
EOF
