  0
SECTION
  2
HEADER
  9
$ACADVER
  1
AC1009
  9
$INSBASE
 10
0.0
 20
0.0
 30
0.0
  9
$EXTMIN
 10
0.0
 20
-2.960436562073669
 30
-0.0000000000000007
  9
$EXTMAX
 10
285.34463461721992
 20
263.42709084251999
 30
0.0
  9
$LIMMIN
 10
0.0
 20
0.0
  9
$LIMMAX
 10
390.0
 20
270.0
  9
$ORTHOMODE
 70
     1
  9
$REGENMODE
 70
     1
  9
$FILLMODE
 70
     1
  9
$QTEXTMODE
 70
     0
  9
$MIRRTEXT
 70
     1
  9
$DRAGMODE
 70
     2
  9
$LTSCALE
 40
5.0
  9
$OSMODE
 70
    55
  9
$ATTMODE
 70
     1
  9
$TEXTSIZE
 40
2.5
  9
$TRACEWID
 40
1.0
  9
$TEXTSTYLE
  7
STANDARD
  9
$CLAYER
  8
4
  9
$CELTYPE
  6
BYLAYER
  9
$CECOLOR
 62
   256
  9
$DIMSCALE
 40
1.0
  9
$DIMASZ
 40
3.0
  9
$DIMEXO
 40
1.0
  9
$DIMDLI
 40
6.0
  9
$DIMRND
 40
0.0
  9
$DIMDLE
 40
0.0
  9
$DIMEXE
 40
1.0
  9
$DIMTP
 40
495.0
  9
$DIMTM
 40
0.0
  9
$DIMTXT
 40
2.5
  9
$DIMCEN
 40
0.0
  9
$DIMTSZ
 40
0.0
  9
$DIMTOL
 70
     0
  9
$DIMLIM
 70
     0
  9
$DIMTIH
 70
     0
  9
$DIMTOH
 70
     0
  9
$DIMSE1
 70
     0
  9
$DIMSE2
 70
     0
  9
$DIMTAD
 70
     1
  9
$DIMZIN
 70
     8
  9
$DIMBLK
  1

  9
$DIMASO
 70
     0
  9
$DIMSHO
 70
     1
  9
$DIMPOST
  1

  9
$DIMAPOST
  1

  9
$DIMALT
 70
     0
  9
$DIMALTD
 70
     2
  9
$DIMALTF
 40
25.399999999999999
  9
$DIMLFAC
 40
1.0
  9
$DIMTOFL
 70
     1
  9
$DIMTVP
 40
0.0
  9
$DIMTIX
 70
     1
  9
$DIMSOXD
 70
     0
  9
$DIMSAH
 70
     0
  9
$DIMBLK1
  1

  9
$DIMBLK2
  1

  9
$DIMSTYLE
  2
ITM
  9
$DIMCLRD
 70
   256
  9
$DIMCLRE
 70
   256
  9
$DIMCLRT
 70
   256
  9
$DIMTFAC
 40
1.0
  9
$DIMGAP
 40
1.0
  9
$LUNITS
 70
     2
  9
$LUPREC
 70
     2
  9
$SKETCHINC
 40
1.0
  9
$FILLETRAD
 40
0.4
  9
$AUNITS
 70
     0
  9
$AUPREC
 70
     0
  9
$MENU
  1
.
  9
$ELEVATION
 40
0.0
  9
$PELEVATION
 40
0.0
  9
$THICKNESS
 40
0.0
  9
$LIMCHECK
 70
     0
  9
$BLIPMODE
 70
     0
  9
$CHAMFERA
 40
1.1999999999999991
  9
$CHAMFERB
 40
1.1999999999999991
  9
$SKPOLY
 70
     0
  9
$TDCREATE
 40
2453354.0921258219
  9
$TDUPDATE
 40
2456598.6061063311
  9
$TDINDWG
 40
513.68912534720005
  9
$TDUSRTIMER
 40
513.68884737270002
  9
$USRTIMER
 70
     1
  9
$ANGBASE
 50
0.0
  9
$ANGDIR
 70
     0
  9
$PDMODE
 70
     0
  9
$PDSIZE
 40
0.0
  9
$PLINEWID
 40
0.0
  9
$COORDS
 70
     1
  9
$SPLFRAME
 70
     0
  9
$SPLINETYPE
 70
     6
  9
$SPLINESEGS
 70
     8
  9
$ATTDIA
 70
     0
  9
$ATTREQ
 70
     1
  9
$HANDLING
 70
     1
  9
$HANDSEED
  5
344
  9
$SURFTAB1
 70
     6
  9
$SURFTAB2
 70
     6
  9
$SURFTYPE
 70
     6
  9
$SURFU
 70
     6
  9
$SURFV
 70
     6
  9
$UCSNAME
  2

  9
$UCSORG
 10
0.0
 20
0.0
 30
0.0
  9
$UCSXDIR
 10
1.0
 20
0.0
 30
0.0
  9
$UCSYDIR
 10
0.0
 20
1.0
 30
0.0
  9
$PUCSNAME
  2

  9
$PUCSORG
 10
0.0
 20
0.0
 30
0.0
  9
$PUCSXDIR
 10
1.0
 20
0.0
 30
0.0
  9
$PUCSYDIR
 10
0.0
 20
1.0
 30
0.0
  9
$USERI1
 70
     4
  9
$USERI2
 70
     1
  9
$USERI3
 70
     1
  9
$USERI4
 70
     0
  9
$USERI5
 70
     0
  9
$USERR1
 40
1.0
  9
$USERR2
 40
3.0
  9
$USERR3
 40
3.2000000000000002
  9
$USERR4
 40
3.0
  9
$USERR5
 40
10.0
  9
$WORLDVIEW
 70
     1
  9
$SHADEDGE
 70
     3
  9
$SHADEDIF
 70
    70
  9
$TILEMODE
 70
     1
  9
$MAXACTVP
 70
    16
  9
$PLIMCHECK
 70
     0
  9
$PEXTMIN
 10
0.0
 20
0.0
 30
0.0
  9
$PEXTMAX
 10
0.0
 20
0.0
 30
0.0
  9
$PLIMMIN
 10
0.0
 20
0.0
  9
$PLIMMAX
 10
12.0
 20
9.0
  9
$UNITMODE
 70
     0
  9
$VISRETAIN
 70
     0
  9
$PLINEGEN
 70
     0
  9
$PSLTSCALE
 70
     1
  0
ENDSEC
  0
SECTION
  2
TABLES
  0
TABLE
  2
VPORT
 70
     1
  0
VPORT
  2
*ACTIVE
 70
     0
 10
0.0
 20
0.0
 11
1.0
 21
1.0
 12
194.99404952627839
 22
194.785247995265
 13
0.0
 23
0.0
 14
5.0
 24
5.0
 15
10.0
 25
10.0
 16
0.0
 26
0.0
 36
1.0
 17
0.0
 27
0.0
 37
0.0
 40
399.3463374158577
 41
1.7807262569832401
 42
50.0
 43
0.0
 44
0.0
 50
0.0
 51
0.0
 71
    16
 72
   500
 73
     1
 74
     1
 75
     0
 76
     0
 77
     0
 78
     1
  0
ENDTAB
  0
TABLE
  2
LTYPE
 70
     4
  0
LTYPE
  2
CONTINUOUS
 70
     0
  3
Solid line
 72
    65
 73
     0
 40
0.0
  0
LTYPE
  2
CENTER
 70
     0
  3
____ _ ____ _ ____ _ ____ _ ____ _ ____ _ ____
 72
    65
 73
     4
 40
2.0
 49
1.25
 49
-0.25
 49
0.25
 49
-0.25
  0
LTYPE
  2
HIDDEN
 70
     0
  3
_ _ _ _ _ _ _ _ _ _ _ _ _ _ _ _ _ _ _ _ _ _ _
 72
    65
 73
     2
 40
0.375
 49
0.25
 49
-0.125
  0
LTYPE
  2
PHANTOM2
 70
     0
  3
___ _ _ ___ _ _ ___ _ _ ___ _ _
 72
    65
 73
     6
 40
1.25
 49
0.625
 49
-0.125
 49
0.125
 49
-0.125
 49
0.125
 49
-0.125
  0
ENDTAB
  0
TABLE
  2
LAYER
 70
     6
  0
LAYER
  2
0
 70
     0
 62
     7
  6
CONTINUOUS
  0
LAYER
  2
1
 70
     0
 62
     1
  6
CENTER
  0
LAYER
  2
WAKU
 70
     0
 62
     5
  6
CONTINUOUS
  0
LAYER
  2
4
 70
     0
 62
     4
  6
CONTINUOUS
  0
LAYER
  2
3
 70
     0
 62
     3
  6
CONTINUOUS
  0
LAYER
  2
2
 70
     0
 62
     2
  6
HIDDEN
  0
ENDTAB
  0
TABLE
  2
STYLE
 70
     3
  0
STYLE
  2
STANDARD
 70
     0
 40
0.0
 41
1.0
 50
0.0
 71
     0
 42
2.5
  3
ROMANS
  4
EXTFONT
  0
STYLE
  2
K
 70
     0
 40
0.0
 41
0.75
 50
0.0
 71
     0
 42
3.2000000000000002
  3
ROMANS.shx
  4
EXTFONT.shx
  0
STYLE
  2
STANDARD1
 70
     0
 40
0.0
 41
1.0
 50
0.0
 71
     0
 42
3.0
  3
txt
  4

  0
ENDTAB
  0
TABLE
  2
VIEW
 70
     0
  0
ENDTAB
  0
TABLE
  2
UCS
 70
     0
  0
ENDTAB
  0
TABLE
  2
APPID
 70
     3
  0
APPID
  2
ACAD
 70
     0
  0
APPID
  2
ACAD_MLEADERVER
 70
     0
  0
APPID
  2
ACAD_NAV_VCDISPLAY
 70
     0
  0
ENDTAB
  0
TABLE
  2
DIMSTYLE
 70
     2
  0
DIMSTYLE
  2
ITM
 70
     0
  3

  4

  5

  6

  7

 40
0.0
 41
2.5
 42
1.0
 43
6.0
 44
1.0
 45
0.0
 46
0.0
 47
495.0
 48
0.0
140
3.0
141
0.0
142
0.0
143
25.399999999999999
144
1.0
145
0.0
146
1.0
147
1.0
 71
     0
 72
     0
 73
     0
 74
     0
 75
     0
 76
     0
 77
     3
 78
     8
170
     0
171
     2
172
     1
173
     0
174
     0
175
     0
176
     0
177
     0
178
     0
  0
DIMSTYLE
  2
STANDARD
 70
     0
  3

  4

  5

  6

  7

 40
1.0
 41
0.18
 42
0.0625
 43
0.38
 44
0.18
 45
0.0
 46
0.0
 47
0.0
 48
0.0
140
0.18
141
0.09
142
0.0
143
25.399999999999999
144
1.0
145
0.0
146
1.0
147
0.09
 71
     0
 72
     0
 73
     1
 74
     1
 75
     0
 76
     0
 77
     0
 78
     0
170
     0
171
     2
172
     0
173
     0
174
     0
175
     0
176
     0
177
     0
178
     0
  0
ENDTAB
  0
ENDSEC
  0
SECTION
  2
BLOCKS
  0
BLOCK
  8
0
  2
$MODEL_SPACE
 70
     0
 10
0.0
 20
0.0
 30
0.0
  3
$MODEL_SPACE
  1

  0
ENDBLK
  5
12
  8
0
  0
BLOCK
 67
     1
  8
0
  2
$PAPER_SPACE
 70
     0
 10
0.0
 20
0.0
 30
0.0
  3
$PAPER_SPACE
  1

  0
ENDBLK
  5
19
 67
     1
  8
0
  0
BLOCK
  8
0
  2
ARROW1
 70
     0
 10
0.0
 20
0.0
 30
0.0
  3
ARROW1
  1

  0
SOLID
  5
4B
  8
WAKU
  6
CONTINUOUS
 62
     4
 10
-1.0
 20
0.1666666666666714
 30
0.0
 11
-1.0
 21
-0.1666666666666714
 31
0.0
 12
0.0
 22
0.0
 32
0.0
 13
0.0
 23
0.0
 33
0.0
  0
ENDBLK
  5
4D
  8
0
  0
ENDSEC
  0
SECTION
  2
ENTITIES
  0
ARC
  5
74
  8
0
 10
271.75275377856377
 20
78.165507888465982
 30
0.0
 40
8.3048970122461743
 50
162.72012513519951
 51
173.77747805297099
  0
LINE
  5
75
  8
0
 10
266.5933609517665
 20
77.265672758003461
 30
0.0
 11
263.49679566986418
 21
77.265672758003461
 31
0.0
  0
ARC
  5
76
  8
0
 10
271.75274826933531
 20
78.165840756531225
 30
0.0
 40
8.304881441073487
 50
186.22252761523319
 51
197.2798024405885
  0
ARC
  5
77
  8
0
 10
265.39164048930468
 20
76.187016500626314
 30
0.0
 40
1.6430920701028069
 50
197.279154649237
 51
275.57095098335088
  0
ARC
  5
78
  8
0
 10
265.71066064166058
 20
72.916438224699846
 30
0.0
 40
1.6430083721685049
 50
40.98760445775472
 51
95.571339490965585
  0
ARC
  5
79
  8
0
 10
271.75169859910721
 20
78.165674758003433
 30
0.0
 40
6.3600300376244068
 50
220.98853240723989
 51
139.0114675927594
  0
CIRCLE
  5
7A
  8
0
 10
271.51169363673159
 20
78.165674758003433
 30
0.0
 40
5.0
  0
LINE
  5
7B
  8
0
 10
266.5933609517665
 20
79.065676758003406
 30
0.0
 11
266.79682392485239
 21
79.065676758003406
 31
0.0
  0
LINE
  5
7C
  8
0
 10
266.5933609517665
 20
77.265672758003461
 30
0.0
 11
266.79682392485239
 21
77.265672758003461
 31
0.0
  0
ARC
  5
7D
  8
0
 10
271.51169363673159
 20
78.165674758003433
 30
0.0
 40
4.7999999999999892
 50
169.1930528208508
 51
190.80694717914849
  0
CIRCLE
  5
7E
  8
0
 10
271.51169363673159
 20
78.165674758003433
 30
0.0
 40
4.0
  0
LINE
  5
7F
  8
1
 10
271.51169363673171
 20
91.998615738491083
 30
0.0
 11
271.51169363673148
 21
64.332733777515784
 31
0.0
  0
LINE
  5
82
  8
1
 10
285.3446346172193
 20
78.16567475800332
 30
0.0
 11
165.03562240142219
 21
78.165674758003931
 31
0.0
  0
CIRCLE
  5
83
  8
0
 10
271.51169363673159
 20
78.165674758003433
 30
0.0
 40
5.0
  0
ARC
  5
84
  8
0
 10
271.51169363673159
 20
78.165674758003433
 30
0.0
 40
8.0
 50
201.83840232070861
 51
158.16241518165631
  0
POLYLINE
  5
85
  8
0
 66
     1
 10
0.0
 20
0.0
 30
0.0
  0
VERTEX
  5
286
  8
0
 10
263.50752644693819
 20
77.267757187231069
 30
0.0
  0
VERTEX
  5
287
  8
0
 10
263.54923459998838
 20
77.032624054942985
 30
0.0
  0
VERTEX
  5
288
  8
0
 10
263.6551349654606
 20
76.560780954112062
 30
0.0
  0
VERTEX
  5
289
  8
0
 10
263.78293179709578
 20
76.090772776979833
 30
0.0
  0
VERTEX
  5
28A
  8
0
 10
263.8518327119005
 20
75.85774698351716
 30
0.0
  0
SEQEND
  5
28B
  8
0
  0
POLYLINE
  5
86
  8
0
 66
     1
 10
0.0
 20
0.0
 30
0.0
  0
VERTEX
  5
28C
  8
0
 10
263.50752644693819
 20
79.063592328775741
 30
0.0
  0
VERTEX
  5
28D
  8
0
 10
263.49961581838261
 20
79.012759722102004
 30
0.0
  0
VERTEX
  5
28E
  8
0
 10
263.48507126169062
 20
78.911316809409144
 30
0.0
  0
VERTEX
  5
28F
  8
0
 10
263.4722745553143
 20
78.810216153089499
 30
0.0
  0
VERTEX
  5
290
  8
0
 10
263.46654622148611
 20
78.759812312215416
 30
0.0
  0
VERTEX
  5
291
  8
0
 10
263.46127089971782
 20
78.709516252133682
 30
0.0
  0
VERTEX
  5
292
  8
0
 10
263.45209367381921
 20
78.609278925331949
 30
0.0
  0
VERTEX
  5
293
  8
0
 10
263.44476356781593
 20
78.509568391057286
 30
0.0
  0
VERTEX
  5
294
  8
0
 10
263.43928800050458
 20
78.410450214528424
 30
0.0
  0
VERTEX
  5
295
  8
0
 10
263.43566086288058
 20
78.311990137578192
 30
0.0
  0
VERTEX
  5
296
  8
0
 10
263.4338626153978
 20
78.214252811863915
 30
0.0
  0
VERTEX
  5
297
  8
0
 10
263.43363965303263
 20
78.165674758003405
 30
0.0
  0
VERTEX
  5
298
  8
0
 10
263.4338626153978
 20
78.117096704142881
 30
0.0
  0
VERTEX
  5
299
  8
0
 10
263.43566086288058
 20
78.019359378428618
 30
0.0
  0
VERTEX
  5
29A
  8
0
 10
263.43928800050458
 20
77.920899301478386
 30
0.0
  0
VERTEX
  5
29B
  8
0
 10
263.44476356781593
 20
77.821781124949581
 30
0.0
  0
VERTEX
  5
29C
  8
0
 10
263.45209367381921
 20
77.722070590674861
 30
0.0
  0
VERTEX
  5
29D
  8
0
 10
263.46127089971782
 20
77.621833263873128
 30
0.0
  0
VERTEX
  5
29E
  8
0
 10
263.46654622148611
 20
77.571537203791394
 30
0.0
  0
VERTEX
  5
29F
  8
0
 10
263.4722745553143
 20
77.521133362917368
 30
0.0
  0
VERTEX
  5
2A0
  8
0
 10
263.48507126169062
 20
77.420032706597652
 30
0.0
  0
VERTEX
  5
2A1
  8
0
 10
263.49961581838261
 20
77.318589793904863
 30
0.0
  0
VERTEX
  5
2A2
  8
0
 10
263.50752644693819
 20
77.267757187231069
 30
0.0
  0
SEQEND
  5
2A3
  8
0
  0
POLYLINE
  5
87
  8
0
 66
     1
 10
0.0
 20
0.0
 30
0.0
  0
VERTEX
  5
2A4
  8
0
 10
263.8518327119005
 20
80.473602532489664
 30
0.0
  0
VERTEX
  5
2A5
  8
0
 10
263.78293179709578
 20
80.240576739026977
 30
0.0
  0
VERTEX
  5
2A6
  8
0
 10
263.6551349654606
 20
79.770568561894748
 30
0.0
  0
VERTEX
  5
2A7
  8
0
 10
263.54923459998838
 20
79.29872546106381
 30
0.0
  0
VERTEX
  5
2A8
  8
0
 10
263.50752644693819
 20
79.063592328775741
 30
0.0
  0
SEQEND
  5
2A9
  8
0
  0
LINE
  5
88
  8
0
 10
263.85183271190027
 20
75.610495647155176
 30
0.0
 11
263.85183271190027
 21
75.857746983517131
 31
0.0
  0
LINE
  5
89
  8
0
 10
263.85183271190027
 20
75.857746983517131
 30
0.0
 11
263.8518327119001
 21
71.737103329431989
 31
0.0
  0
LINE
  5
8A
  8
0
 10
263.85183271190078
 20
84.594246186574878
 30
0.0
 11
263.85183271190061
 21
80.473602532489622
 31
0.0
  0
LINE
  5
8B
  8
0
 10
263.85183271190061
 20
80.473602532489622
 30
0.0
 11
263.85183271190061
 21
80.720861069484613
 31
0.0
  0
LINE
  5
8C
  8
0
 10
260.78788834196831
 20
83.165674758003433
 30
0.0
 11
260.78788834196757
 21
73.165674758003433
 31
0.0
  0
ARC
  5
8D
  8
0
 10
260.78788834196803
 20
87.165674758003433
 30
0.0
 40
4.0
 50
269.99999999999972
 51
319.99479911513919
  0
ARC
  5
8E
  8
0
 10
260.78788834196791
 20
69.165674758003433
 30
0.0
 40
4.0000000000000098
 50
40.005200884860137
 51
89.999999999999673
  0
ARC
  5
8F
  8
0
 10
271.51169363673159
 20
78.165674758003433
 30
0.0
 40
10.0
 50
220.00520088486019
 51
139.99479911513919
  0
LINE
  5
90
  8
0
 10
260.78788834196791
 20
73.165674758003433
 30
0.0
 11
206.5116936367312
 21
73.165674758003746
 31
0.0
  0
LINE
  5
91
  8
0
 10
206.5116936367312
 20
83.16567475800376
 30
0.0
 11
260.78788834196791
 21
83.165674758003433
 31
0.0
  0
POINT
  5
92
  8
0
 10
271.51169363673159
 20
158.29638280026131
 30
0.0
210
-0.0000000000000059
220
-1.0
230
0.0000000000000001
  0
POINT
  5
93
  8
0
 10
271.51169363673171
 20
164.29638280026131
 30
-0.0000000000000007
210
0.0000000000000059
220
1.0
230
-0.0000000000000001
  0
POINT
  5
94
  8
0
 10
271.51169363673159
 20
158.29638280026131
 30
0.0
210
1.0
220
-0.0000000000000059
230
0.0
  0
POINT
  5
95
  8
0
 10
271.51169363673159
 20
158.29638280026131
 30
0.0
210
1.0
220
-0.0000000000000059
230
0.0
  0
POINT
  5
96
  8
0
 10
271.51169363673159
 20
158.29638280026131
 30
0.0
210
-1.0
220
0.0000000000000059
230
0.0
  0
LINE
  5
97
  8
0
 10
263.49678561060603
 20
142.2973828002614
 30
0.0
 11
263.49678561060603
 21
141.1953828002614
 31
0.0
  0
LINE
  5
98
  8
0
 10
263.49678561060603
 20
142.2973828002614
 30
0.0
 11
278.11172863673153
 21
142.29738280026129
 31
0.0
  0
LINE
  5
99
  8
0
 10
265.55173133694899
 20
142.2973828002614
 30
0.0
 11
265.55173133694888
 21
141.1953828002614
 31
0.0
  0
LINE
  5
9A
  8
0
 10
266.95088796991502
 20
142.2973828002614
 30
0.0
 11
266.95088796991502
 21
141.1953828002614
 31
0.0
  0
LINE
  5
9B
  8
0
 10
263.82269668605511
 20
142.2973828002614
 30
0.0
 11
263.822696686055
 21
141.1953828002614
 31
0.0
  0
LINE
  5
9C
  8
0
 10
278.11172863673153
 20
141.19538280026131
 30
0.0
 11
263.49678561060603
 21
141.1953828002614
 31
0.0
  0
LINE
  5
9D
  8
0
 10
265.55114908401788
 20
142.2973828002614
 30
0.0
 11
265.55114908401788
 21
141.1953828002614
 31
0.0
  0
LINE
  5
9E
  8
0
 10
276.51169363673148
 20
140.79638280026131
 30
0.0
 11
266.51169363673148
 21
140.7963828002614
 31
0.0
  0
LINE
  5
9F
  8
0
 10
263.4967856106062
 20
175.3973828002614
 30
0.0
 11
263.4967856106062
 21
174.29538280026139
 31
0.0
  0
LINE
  5
A0
  8
0
 10
263.4967856106062
 20
175.3973828002614
 30
0.0
 11
278.1117286367317
 21
175.39738280026131
 31
0.0
  0
LINE
  5
A1
  8
0
 10
265.5517313369491
 20
175.3973828002614
 30
0.0
 11
265.55173133694899
 21
174.29538280026139
 31
0.0
  0
LINE
  5
A2
  8
0
 10
266.9508879699153
 20
175.3973828002614
 30
0.0
 11
266.95088796991519
 21
174.29538280026139
 31
0.0
  0
LINE
  5
A3
  8
0
 10
263.82269668605522
 20
175.3973828002614
 30
0.0
 11
263.82269668605522
 21
174.29538280026139
 31
0.0
  0
LINE
  5
A4
  8
0
 10
278.1117286367317
 20
174.29538280026131
 30
0.0
 11
263.4967856106062
 21
174.29538280026139
 31
0.0
  0
LINE
  5
A5
  8
0
 10
266.7968239248525
 20
174.29538280026139
 30
0.0
 11
266.7968239248525
 21
175.3973828002614
 31
0.0
  0
LINE
  5
A6
  8
0
 10
265.55114908401811
 20
175.3973828002614
 30
0.0
 11
265.55114908401811
 21
174.29538280026139
 31
0.0
  0
LINE
  5
A7
  8
0
 10
275.51169363673171
 20
176.79638280026131
 30
0.0
 11
267.51169363673171
 21
176.7963828002614
 31
0.0
  0
LINE
  5
A8
  8
0
 10
276.51169363673171
 20
175.79638280026131
 30
0.0
 11
266.51169363673171
 21
175.7963828002614
 31
0.0
  0
LINE
  5
A9
  8
0
 10
275.51169363673148
 20
139.79638280026131
 30
0.0
 11
267.51169363673148
 21
139.7963828002614
 31
0.0
  0
LINE
  5
AA
  8
0
 10
264.64169363673147
 20
141.1953828002614
 30
0.0
 11
264.64169363673159
 21
142.2973828002614
 31
0.0
  0
LINE
  5
AB
  8
0
 10
266.14169363673147
 20
142.2973828002614
 30
0.0
 11
266.14169363673147
 21
141.1953828002614
 31
0.0
  0
LINE
  5
AC
  8
0
 10
278.11172863673153
 20
142.29738280026129
 30
0.0
 11
278.11172863673153
 21
141.19538280026131
 31
0.0
  0
LINE
  5
AD
  8
0
 10
266.51169363673148
 20
140.7963828002614
 30
0.0
 11
266.51169363673148
 21
141.1953828002614
 31
0.0
  0
LINE
  5
AE
  8
0
 10
276.51169363673148
 20
141.19538280026131
 30
0.0
 11
276.51169363673148
 21
140.79638280026131
 31
0.0
  0
LINE
  5
AF
  8
0
 10
264.6416936367317
 20
174.29538280026139
 30
0.0
 11
264.6416936367317
 21
175.3973828002614
 31
0.0
  0
LINE
  5
B0
  8
0
 10
266.1416936367317
 20
175.3973828002614
 30
0.0
 11
266.1416936367317
 21
174.29538280026139
 31
0.0
  0
LINE
  5
B1
  8
0
 10
278.1117286367317
 20
175.39738280026131
 30
0.0
 11
278.1117286367317
 21
174.29538280026131
 31
0.0
  0
LINE
  5
B2
  8
0
 10
266.51169363673159
 20
164.2963828002614
 30
0.0
 11
266.51169363673171
 21
174.29538280026139
 31
0.0
  0
LINE
  5
B3
  8
2
 10
266.51169363673159
 20
152.2963828002614
 30
0.0
 11
266.51169363673159
 21
164.2963828002614
 31
0.0
  0
LINE
  5
B6
  8
0
 10
266.51169363673148
 20
142.2973828002614
 30
0.0
 11
266.51169363673159
 21
152.2963828002614
 31
0.0
  0
LINE
  5
B7
  8
0
 10
276.51169363673159
 20
152.29638280026131
 30
0.0
 11
276.51169363673159
 21
142.29738280026129
 31
0.0
  0
LINE
  5
B8
  8
2
 10
276.51169363673159
 20
164.29638280026131
 30
0.0
 11
276.51169363673159
 21
152.29638280026131
 31
0.0
  0
LINE
  5
B9
  8
0
 10
276.51169363673171
 20
174.29538280026131
 30
0.0
 11
276.51169363673159
 21
164.29638280026131
 31
0.0
  0
LINE
  5
BA
  8
0
 10
266.51169363673171
 20
175.7963828002614
 30
0.0
 11
267.51169363673171
 21
176.7963828002614
 31
0.0
  0
LINE
  5
BB
  8
0
 10
275.51169363673171
 20
176.79638280026131
 30
0.0
 11
276.51169363673171
 21
175.79638280026131
 31
0.0
  0
LINE
  5
BC
  8
0
 10
266.51169363673171
 20
175.3973828002614
 30
0.0
 11
266.51169363673171
 21
175.7963828002614
 31
0.0
  0
LINE
  5
BD
  8
0
 10
276.51169363673171
 20
175.79638280026131
 30
0.0
 11
276.51169363673171
 21
175.39738280026131
 31
0.0
  0
LINE
  5
BE
  8
0
 10
266.7116936367317
 20
174.29538280026139
 30
0.0
 11
266.7116936367317
 21
175.3973828002614
 31
0.0
  0
LINE
  5
BF
  8
0
 10
267.51169363673148
 20
139.7963828002614
 30
0.0
 11
266.51169363673148
 21
140.7963828002614
 31
0.0
  0
LINE
  5
C0
  8
0
 10
276.51169363673148
 20
140.79638280026131
 30
0.0
 11
275.51169363673148
 21
139.79638280026131
 31
0.0
  0
LINE
  5
C1
  8
1
 10
271.51169363673148
 20
137.005820068823
 30
0.0
 11
271.51169363673171
 21
179.58694553169971
 31
0.0
  0
LINE
  5
C2
  8
1
 10
285.3446346172193
 20
158.29638280026131
 30
0.0
 11
165.03562240142219
 21
158.2963828002618
 31
0.0
  0
LINE
  5
C3
  8
0
 10
276.51169363673159
 20
152.29638280026131
 30
0.0
 11
266.51169363673159
 21
152.2963828002614
 31
0.0
  0
LINE
  5
C4
  8
0
 10
276.51169363673159
 20
164.29638280026131
 30
0.0
 11
266.51169363673159
 21
164.2963828002614
 31
0.0
  0
LINE
  5
C5
  8
0
 10
263.8518327119005
 20
152.2963828002614
 30
0.0
 11
279.51169363673159
 21
152.29638280026131
 31
0.0
  0
POLYLINE
  5
C6
  8
0
 66
     1
 10
0.0
 20
0.0
 30
0.0
  0
VERTEX
  5
2AA
  8
0
 10
263.43363965303263
 20
152.2963828002614
 30
0.0
  0
VERTEX
  5
2AB
  8
0
 10
263.43399880130062
 20
152.2963828002614
 30
0.0
  0
VERTEX
  5
2AC
  8
0
 10
263.43690040799612
 20
152.2963828002614
 30
0.0
  0
VERTEX
  5
2AD
  8
0
 10
263.44275908323868
 20
152.2963828002614
 30
0.0
  0
VERTEX
  5
2AE
  8
0
 10
263.44680655898151
 20
152.2963828002614
 30
0.0
  0
VERTEX
  5
2AF
  8
0
 10
263.45160001724832
 20
152.2963828002614
 30
0.0
  0
VERTEX
  5
2B0
  8
0
 10
263.46341344688551
 20
152.2963828002614
 30
0.0
  0
VERTEX
  5
2B1
  8
0
 10
263.47815526717858
 20
152.2963828002614
 30
0.0
  0
VERTEX
  5
2B2
  8
0
 10
263.4957490017149
 20
152.2963828002614
 30
0.0
  0
VERTEX
  5
2B3
  8
0
 10
263.5160888530541
 20
152.2963828002614
 30
0.0
  0
VERTEX
  5
2B4
  8
0
 10
263.5390424808424
 20
152.2963828002614
 30
0.0
  0
VERTEX
  5
2B5
  8
0
 10
263.551451438512
 20
152.2963828002614
 30
0.0
  0
VERTEX
  5
2B6
  8
0
 10
263.56445353656972
 20
152.2963828002614
 30
0.0
  0
VERTEX
  5
2B7
  8
0
 10
263.59214546902501
 20
152.2963828002614
 30
0.0
  0
VERTEX
  5
2B8
  8
0
 10
263.62192559147718
 20
152.2963828002614
 30
0.0
  0
VERTEX
  5
2B9
  8
0
 10
263.73958462857621
 20
152.2963828002614
 30
0.0
  0
VERTEX
  5
2BA
  8
0
 10
263.8518327119005
 20
152.2963828002614
 30
0.0
  0
SEQEND
  5
2BB
  8
0
  0
POLYLINE
  5
C7
  8
0
 66
     1
 10
0.0
 20
0.0
 30
0.0
  0
VERTEX
  5
2BC
  8
0
 10
263.8518327119005
 20
152.2963828002614
 30
0.0
  0
VERTEX
  5
2BD
  8
0
 10
263.73958462857621
 20
152.2963828002614
 30
0.0
  0
VERTEX
  5
2BE
  8
0
 10
263.62192559147718
 20
152.2963828002614
 30
0.0
  0
VERTEX
  5
2BF
  8
0
 10
263.59214546902501
 20
152.2963828002614
 30
0.0
  0
VERTEX
  5
2C0
  8
0
 10
263.56445353656972
 20
152.2963828002614
 30
0.0
  0
VERTEX
  5
2C1
  8
0
 10
263.551451438512
 20
152.2963828002614
 30
0.0
  0
VERTEX
  5
2C2
  8
0
 10
263.5390424808424
 20
152.2963828002614
 30
0.0
  0
VERTEX
  5
2C3
  8
0
 10
263.5160888530541
 20
152.2963828002614
 30
0.0
  0
VERTEX
  5
2C4
  8
0
 10
263.4957490017149
 20
152.2963828002614
 30
0.0
  0
VERTEX
  5
2C5
  8
0
 10
263.47815526717858
 20
152.2963828002614
 30
0.0
  0
VERTEX
  5
2C6
  8
0
 10
263.46341344688551
 20
152.2963828002614
 30
0.0
  0
VERTEX
  5
2C7
  8
0
 10
263.45160001724832
 20
152.2963828002614
 30
0.0
  0
VERTEX
  5
2C8
  8
0
 10
263.44680655898151
 20
152.2963828002614
 30
0.0
  0
VERTEX
  5
2C9
  8
0
 10
263.44275908323868
 20
152.2963828002614
 30
0.0
  0
VERTEX
  5
2CA
  8
0
 10
263.43690040799612
 20
152.2963828002614
 30
0.0
  0
VERTEX
  5
2CB
  8
0
 10
263.43399880130062
 20
152.2963828002614
 30
0.0
  0
VERTEX
  5
2CC
  8
0
 10
263.43363965303263
 20
152.2963828002614
 30
0.0
  0
SEQEND
  5
2CD
  8
0
  0
POLYLINE
  5
C8
  8
0
 66
     1
 10
0.0
 20
0.0
 30
0.0
  0
VERTEX
  5
2CE
  8
0
 10
263.43363965303263
 20
164.2963828002614
 30
0.0
  0
VERTEX
  5
2CF
  8
0
 10
263.43399880130067
 20
164.2963828002614
 30
0.0
  0
VERTEX
  5
2D0
  8
0
 10
263.43690040799618
 20
164.2963828002614
 30
0.0
  0
VERTEX
  5
2D1
  8
0
 10
263.4427590832388
 20
164.2963828002614
 30
0.0
  0
VERTEX
  5
2D2
  8
0
 10
263.44680655898162
 20
164.2963828002614
 30
0.0
  0
VERTEX
  5
2D3
  8
0
 10
263.45160001724838
 20
164.2963828002614
 30
0.0
  0
VERTEX
  5
2D4
  8
0
 10
263.46341344688562
 20
164.2963828002614
 30
0.0
  0
VERTEX
  5
2D5
  8
0
 10
263.47815526717858
 20
164.2963828002614
 30
0.0
  0
VERTEX
  5
2D6
  8
0
 10
263.4957490017149
 20
164.2963828002614
 30
0.0
  0
VERTEX
  5
2D7
  8
0
 10
263.5160888530541
 20
164.2963828002614
 30
0.0
  0
VERTEX
  5
2D8
  8
0
 10
263.53904248084251
 20
164.2963828002614
 30
0.0
  0
VERTEX
  5
2D9
  8
0
 10
263.55145143851212
 20
164.2963828002614
 30
0.0
  0
VERTEX
  5
2DA
  8
0
 10
263.56445353656972
 20
164.2963828002614
 30
0.0
  0
VERTEX
  5
2DB
  8
0
 10
263.59214546902501
 20
164.2963828002614
 30
0.0
  0
VERTEX
  5
2DC
  8
0
 10
263.62192559147718
 20
164.2963828002614
 30
0.0
  0
VERTEX
  5
2DD
  8
0
 10
263.73958462857621
 20
164.2963828002614
 30
0.0
  0
VERTEX
  5
2DE
  8
0
 10
263.8518327119005
 20
164.2963828002614
 30
0.0
  0
SEQEND
  5
2DF
  8
0
  0
POLYLINE
  5
C9
  8
0
 66
     1
 10
0.0
 20
0.0
 30
0.0
  0
VERTEX
  5
2E0
  8
0
 10
263.8518327119005
 20
164.2963828002614
 30
0.0
  0
VERTEX
  5
2E1
  8
0
 10
263.73958462857621
 20
164.2963828002614
 30
0.0
  0
VERTEX
  5
2E2
  8
0
 10
263.62192559147718
 20
164.2963828002614
 30
0.0
  0
VERTEX
  5
2E3
  8
0
 10
263.59214546902501
 20
164.2963828002614
 30
0.0
  0
VERTEX
  5
2E4
  8
0
 10
263.56445353656972
 20
164.2963828002614
 30
0.0
  0
VERTEX
  5
2E5
  8
0
 10
263.55145143851212
 20
164.2963828002614
 30
0.0
  0
VERTEX
  5
2E6
  8
0
 10
263.53904248084251
 20
164.2963828002614
 30
0.0
  0
VERTEX
  5
2E7
  8
0
 10
263.5160888530541
 20
164.2963828002614
 30
0.0
  0
VERTEX
  5
2E8
  8
0
 10
263.4957490017149
 20
164.2963828002614
 30
0.0
  0
VERTEX
  5
2E9
  8
0
 10
263.47815526717858
 20
164.2963828002614
 30
0.0
  0
VERTEX
  5
2EA
  8
0
 10
263.46341344688562
 20
164.2963828002614
 30
0.0
  0
VERTEX
  5
2EB
  8
0
 10
263.45160001724838
 20
164.2963828002614
 30
0.0
  0
VERTEX
  5
2EC
  8
0
 10
263.44680655898162
 20
164.2963828002614
 30
0.0
  0
VERTEX
  5
2ED
  8
0
 10
263.4427590832388
 20
164.2963828002614
 30
0.0
  0
VERTEX
  5
2EE
  8
0
 10
263.43690040799618
 20
164.2963828002614
 30
0.0
  0
VERTEX
  5
2EF
  8
0
 10
263.43399880130067
 20
164.2963828002614
 30
0.0
  0
VERTEX
  5
2F0
  8
0
 10
263.43363965303263
 20
164.2963828002614
 30
0.0
  0
SEQEND
  5
2F1
  8
0
  0
LINE
  5
CA
  8
0
 10
263.85183271190061
 20
152.2963828002614
 30
0.0
 11
263.85183271190073
 21
164.2963828002614
 31
0.0
  0
LINE
  5
CB
  8
0
 10
260.78788834196803
 20
163.2963828002614
 30
0.0
 11
260.78788834196791
 21
153.2963828002614
 31
0.0
  0
LINE
  5
CC
  8
0
 10
263.8518327119005
 20
164.2963828002614
 30
0.0
 11
279.51169363673171
 21
164.29638280026131
 31
0.0
  0
LINE
  5
CD
  8
2
 10
266.51169363673159
 20
152.2963828002614
 30
0.0
 11
266.51169363673159
 21
164.2963828002614
 31
0.0
  0
LINE
  5
CE
  8
2
 10
276.51169363673159
 20
164.29638280026131
 30
0.0
 11
276.51169363673159
 21
152.29638280026131
 31
0.0
  0
ARC
  5
CF
  8
0
 10
260.78788834196808
 20
167.2963828002614
 30
0.0
 40
4.0000000000000142
 50
269.99999999999972
 51
311.40962210927069
  0
ARC
  5
D0
  8
0
 10
260.78788834196791
 20
149.2963828002614
 30
0.0
 40
4.000000000000008
 50
48.59037789072871
 51
89.999999999999673
  0
ARC
  5
D1
  8
0
 10
271.51169363673171
 20
158.29638280026131
 30
0.0
 40
9.9999999999999911
 50
323.13010235415521
 51
36.869897645844169
  0
LINE
  5
D2
  8
0
 10
260.78788834196791
 20
153.2963828002614
 30
0.0
 11
206.51169363673171
 21
153.29638280026171
 31
0.0
  0
LINE
  5
D3
  8
0
 10
206.51169363673171
 20
163.2963828002618
 30
0.0
 11
260.78788834196803
 21
163.2963828002614
 31
0.0
  0
LINE
  5
D4
  8
0
 10
263.49678561060608
 20
79.065676758003406
 30
0.0
 11
266.5933609517665
 21
79.065676758003406
 31
0.0
  0
CIRCLE
  5
D5
  8
0
 10
265.39169363673159
 20
80.144274758003462
 30
0.0
 40
0.7500000000000002
  0
CIRCLE
  5
D6
  8
0
 10
265.39169363673159
 20
76.187074758003405
 30
0.0
 40
0.7500000000000002
  0
ARC
  5
D7
  8
0
 10
265.71059347047418
 20
83.415005928087226
 30
0.0
 40
1.6431211485279571
 50
264.45179661445849
 51
319.01144081943897
  0
ARC
  5
D8
  8
0
 10
265.39172231685131
 20
80.144159664324775
 30
0.0
 40
1.6432317535349961
 50
84.411992318650434
 51
162.71552714490619
  0
LINE
  5
D9
  8
0
 10
266.71169363673152
 20
142.2973828002614
 30
0.0
 11
266.71169363673152
 21
141.1953828002614
 31
0.0
  0
LINE
  5
DA
  8
0
 10
266.79682392485228
 20
142.2973828002614
 30
0.0
 11
266.79682392485228
 21
141.1953828002614
 31
0.0
  0
LINE
  5
DB
  8
0
 10
204.51169363673159
 20
168.29638280026171
 30
0.0
 11
206.51169363673159
 21
168.29638280026171
 31
0.0
  0
LINE
  5
DC
  8
0
 10
204.51169363673159
 20
168.29638280026171
 30
0.0
 11
204.51169363673159
 21
148.29638280026171
 31
0.0
  0
LINE
  5
DD
  8
0
 10
206.51169363673159
 20
168.29638280026171
 30
0.0
 11
206.51169363673159
 21
148.29638280026171
 31
0.0
  0
LINE
  5
DE
  8
0
 10
204.51169363673159
 20
148.29638280026171
 30
0.0
 11
206.51169363673159
 21
148.29638280026171
 31
0.0
  0
LINE
  5
DF
  8
3
 10
206.51169363673159
 20
162.37638280026181
 30
0.0
 11
222.51169363673159
 21
162.37638280026169
 31
0.0
  0
LINE
  5
E1
  8
3
 10
206.51169363673151
 20
154.21638280026221
 30
0.0
 11
222.51169363673159
 21
154.21638280026201
 31
0.0
  0
LINE
  5
E2
  8
0
 10
222.51169363673159
 20
163.2963828002616
 30
0.0
 11
222.51169363673159
 21
153.2963828002616
 31
0.0
  0
LINE
  5
E3
  8
0
 10
204.5116936367312
 20
68.165674758003789
 30
0.0
 11
206.5116936367312
 21
68.165674758003789
 31
0.0
  0
LINE
  5
E4
  8
0
 10
206.5116936367312
 20
88.165674758003789
 30
0.0
 11
206.5116936367312
 21
68.165674758003789
 31
0.0
  0
LINE
  5
E5
  8
0
 10
204.5116936367312
 20
88.165674758003789
 30
0.0
 11
204.5116936367312
 21
68.165674758003789
 31
0.0
  0
LINE
  5
E6
  8
0
 10
204.5116936367312
 20
88.165674758003789
 30
0.0
 11
206.5116936367312
 21
88.165674758003789
 31
0.0
  0
LINE
  5
E7
  8
0
 10
222.5116936367312
 20
83.165674758003746
 30
0.0
 11
222.5116936367312
 21
73.165674758003732
 31
0.0
  0
LINE
  5
E8
  8
3
 10
206.5116936367312
 20
82.245674758003858
 30
0.0
 11
222.5116936367312
 21
82.245674758003773
 31
0.0
  0
LINE
  5
E9
  8
3
 10
206.5116936367312
 20
74.085674758004274
 30
0.0
 11
222.5116936367312
 21
74.085674758004089
 31
0.0
  0
ARC
  5
EA
  8
0
 10
84.599568599567988
 20
191.60528761103041
 30
0.0
 40
15.5
 50
226.83627341431381
 51
277.16372679805221
  0
ARC
  5
EB
  8
0
 10
108.7999045058738
 20
158.2963828002618
 30
0.0
 40
15.5
 50
154.83627341431341
 51
205.16372679805249
  0
ARC
  5
EC
  8
0
 10
84.599568599568045
 20
124.9874779894932
 30
0.0
 40
15.5
 50
82.836273414313098
 51
133.16372679805281
  0
ARC
  5
ED
  8
0
 10
45.442602564000822
 20
137.71034749917189
 30
0.0
 40
15.5
 50
10.83627341431303
 51
61.163726798052977
  0
ARC
  5
EE
  8
0
 10
45.442602564000822
 20
178.8824181013517
 30
0.0
 40
15.5
 50
298.8362734143135
 51
349.16372679805221
  0
ARC
  5
EF
  8
0
 10
87.530138270976579
 20
168.288732089234
 30
0.0
 40
8.0
 50
334.8362817767175
 51
97.163732909726448
  0
ARC
  5
F0
  8
0
 10
87.530138270976465
 20
148.30403351128979
 30
0.0
 40
8.0
 50
262.83624966446843
 51
25.16372959824416
  0
ARC
  5
F1
  8
0
 10
68.523560462228147
 20
142.12842202324401
 30
0.0
 40
8.0
 50
190.83626980220379
 51
313.1637204670032
  0
ARC
  5
F2
  8
0
 10
56.776849366602271
 20
158.2963828002618
 30
0.0
 40
8.0
 50
118.8362769441736
 51
241.16375023681221
  0
ARC
  5
F3
  8
0
 10
68.523560462228147
 20
174.46434357727949
 30
0.0
 40
8.0
 50
46.836281342183163
 51
169.16372303132539
  0
LINE
  5
F4
  8
1
 10
43.776849366602271
 20
158.2963828002618
 30
0.0
 11
103.77684936660221
 21
158.2963828002618
 31
0.0
  0
LINE
  5
F5
  8
1
 10
73.776849366602264
 20
188.2963828002618
 30
0.0
 11
73.776849366602264
 21
128.2963828002618
 31
0.0
  0
CIRCLE
  5
F6
  8
0
 10
73.776849366602264
 20
158.2963828002618
 30
0.0
 40
9.1999999999999886
  0
CIRCLE
  5
F7
  8
0
 10
73.776849366602264
 20
158.2963828002618
 30
0.0
 40
8.0
  0
CIRCLE
  5
F8
  8
3
 10
73.776849366602264
 20
158.2963828002618
 30
0.0
 40
5.0
  0
CIRCLE
  5
F9
  8
0
 10
73.776849366602264
 20
158.2963828002618
 30
0.0
 40
4.1879999999999988
  0
LINE
  5
FA
  8
0
 10
172.51169363673159
 20
148.59638280026169
 30
0.0
 11
172.51169363673159
 21
167.9963828002617
 31
0.0
  0
LINE
  5
FB
  8
0
 10
177.40877474480689
 20
134.1284220232439
 30
0.0
 11
186.87491926625071
 21
134.1284220232439
 31
0.0
  0
LINE
  5
FC
  8
0
 10
204.21169363673161
 20
149.79638280026171
 30
0.0
 11
204.2116936367317
 21
166.79638280026171
 31
0.0
  0
LINE
  5
FD
  8
0
 10
203.21169363673161
 20
148.79638280026171
 30
0.0
 11
204.21169363673161
 21
149.79638280026171
 31
0.0
  0
LINE
  5
FE
  8
0
 10
203.21169363673161
 20
167.79638280026171
 30
0.0
 11
203.21169363673161
 21
148.79638280026171
 31
0.0
  0
LINE
  5
FF
  8
0
 10
190.51169363673159
 20
142.54638280026171
 30
0.0
 11
190.51169363673159
 21
174.0463828002616
 31
0.0
  0
ARC
  5
100
  8
0
 10
177.40877474480689
 20
135.92842202324391
 30
0.0
 40
1.8
 50
199.14597073137381
 51
270.0
  0
ARC
  5
101
  8
0
 10
186.87491926625071
 20
135.92842202324391
 30
0.0
 40
1.8
 50
270.0
 51
345.00000000000051
  0
LINE
  5
102
  8
0
 10
190.51169363673159
 20
142.54638280026171
 30
0.0
 11
188.61358575357099
 21
135.4625477420594
 31
0.0
  0
ARC
  5
103
  8
0
 10
241.83636456995711
 20
158.29638280026171
 30
0.0
 40
70.0
 50
187.96518940678141
 51
199.14597073137381
  0
ARC
  5
104
  8
0
 10
195.0484445315858
 20
158.29638280026171
 30
0.0
 40
20.000000000000011
 50
162.82463129073841
 51
197.175364368467
  0
ARC
  5
105
  8
0
 10
169.3484445315857
 20
158.29638280026171
 30
0.0
 40
20.000000000000011
 50
342.82463519156238
 51
17.175368709261559
  0
LINE
  5
106
  8
0
 10
203.21169363673161
 20
148.79638280026171
 30
0.0
 11
190.51169363673159
 21
148.79638280026171
 31
0.0
  0
LINE
  5
107
  8
0
 10
204.21169363673161
 20
151.79638280026171
 30
0.0
 11
204.51169363673159
 21
151.79638280026171
 31
0.0
  0
ARC
  5
108
  8
0
 10
204.69844453158581
 20
147.37038170196419
 30
0.0
 40
17.0
 50
162.82463438975171
 51
193.14647883218109
  0
LINE
  5
109
  8
0
 10
177.67421417571919
 20
148.30403351128959
 30
0.0
 11
186.7226748874524
 21
148.30403351128959
 31
0.0
  0
ARC
  5
10A
  8
0
 10
159.69844453158581
 20
147.37038170196419
 30
0.0
 40
17.0
 50
346.85352116781888
 51
17.175365610248232
  0
ARC
  5
10B
  8
0
 10
195.72874077500629
 20
138.9550532703847
 30
0.0
 40
20.0
 50
166.85352347401641
 51
192.6251677088228
  0
LINE
  5
10C
  8
0
 10
176.77668937391411
 20
140.30403351128959
 30
0.0
 11
187.6201996892575
 21
140.30403351128959
 31
0.0
  0
ARC
  5
10D
  8
0
 10
168.66814828816521
 20
138.9550532703847
 30
0.0
 40
20.0
 50
347.79907132643001
 51
13.146476525983591
  0
LINE
  5
10E
  8
0
 10
177.40877474480689
 20
182.46434357727941
 30
0.0
 11
186.87491926625071
 21
182.46434357727941
 31
0.0
  0
LINE
  5
10F
  8
0
 10
190.51169363673159
 20
167.79638280026171
 30
0.0
 11
203.21169363673161
 21
167.79638280026171
 31
0.0
  0
LINE
  5
110
  8
0
 10
204.2116936367317
 20
164.79638280026171
 30
0.0
 11
204.51169363673159
 21
164.79638280026171
 31
0.0
  0
LINE
  5
111
  8
0
 10
204.2116936367317
 20
166.79638280026171
 30
0.0
 11
203.21169363673161
 21
167.79638280026171
 31
0.0
  0
ARC
  5
112
  8
0
 10
241.83636456995711
 20
158.29638280026171
 30
0.0
 40
70.0
 50
160.85402926862611
 51
172.03481059321859
  0
LINE
  5
113
  8
0
 10
190.51169363673159
 20
174.04638280026171
 30
0.0
 11
188.61358575357099
 21
181.13021785846391
 31
0.0
  0
ARC
  5
114
  8
0
 10
186.87491926625071
 20
180.6643435772794
 30
0.0
 40
1.8
 50
14.999999999999529
 51
90.0
  0
ARC
  5
115
  8
0
 10
177.40877474480689
 20
180.6643435772794
 30
0.0
 40
1.8
 50
90.0
 51
160.85402926862611
  0
ARC
  5
116
  8
0
 10
159.69844453158581
 20
169.2223838985592
 30
0.0
 40
17.0
 50
342.82463438975179
 51
13.14647883218106
  0
ARC
  5
117
  8
0
 10
195.72874077500629
 20
177.6377123301387
 30
0.0
 40
20.0
 50
167.37483229117711
 51
193.14647652598359
  0
ARC
  5
118
  8
0
 10
204.69844453158581
 20
169.2223838985592
 30
0.0
 40
17.0
 50
166.85352116781891
 51
197.17536561024821
  0
ARC
  5
119
  8
0
 10
168.66814828816521
 20
177.6377123301387
 30
0.0
 40
20.0
 50
346.85352347401641
 51
12.200928673569971
  0
LINE
  5
11A
  8
0
 10
177.67421417571919
 20
168.2887320892338
 30
0.0
 11
186.7226748874524
 21
168.2887320892338
 31
0.0
  0
LINE
  5
11B
  8
0
 10
176.77668937391411
 20
176.2887320892338
 30
0.0
 11
187.6201996892575
 21
176.2887320892338
 31
0.0
  0
LINE
  5
11C
  8
0
 10
204.2116936367313
 20
71.665674758003789
 30
0.0
 11
204.51169363673131
 21
71.665674758003789
 31
0.0
  0
LINE
  5
11D
  8
0
 10
203.2116936367313
 20
68.665674758003789
 30
0.0
 11
190.51169363673131
 21
68.665674758003703
 31
0.0
  0
ARC
  5
11E
  8
0
 10
241.83636456995669
 20
78.165674758004073
 30
0.0
 40
70.0
 50
187.9651894067822
 51
199.88759444141249
  0
LINE
  5
11F
  8
0
 10
190.51169363673131
 20
62.415674758003703
 30
0.0
 11
188.3906415157017
 21
54.499800476819154
 31
0.0
  0
LINE
  5
120
  8
0
 10
190.51169363673111
 20
93.915674758003689
 30
0.0
 11
189.26059513183139
 21
98.584837943562334
 31
0.0
  0
ARC
  5
121
  8
0
 10
241.83636456995669
 20
78.165674758004073
 30
0.0
 40
70.0
 50
162.98810592040169
 51
172.03481059321859
  0
LINE
  5
122
  8
0
 10
190.51169363673131
 20
62.41567475800376
 30
0.0
 11
190.51169363673111
 21
93.915674758003675
 31
0.0
  0
LINE
  5
123
  8
0
 10
203.2116936367311
 20
87.665674758003775
 30
0.0
 11
203.2116936367313
 21
68.665674758003789
 31
0.0
  0
LINE
  5
124
  8
0
 10
204.21169363673121
 20
86.665674758003789
 30
0.0
 11
203.2116936367311
 21
87.665674758003775
 31
0.0
  0
LINE
  5
125
  8
0
 10
203.2116936367313
 20
68.665674758003789
 30
0.0
 11
204.2116936367313
 21
69.665674758003789
 31
0.0
  0
LINE
  5
126
  8
0
 10
204.2116936367313
 20
69.665674758003803
 30
0.0
 11
204.21169363673121
 21
86.665674758003789
 31
0.0
  0
LINE
  5
127
  8
0
 10
204.21169363673121
 20
84.665674758003789
 30
0.0
 11
204.5116936367312
 21
84.665674758003789
 31
0.0
  0
LINE
  5
128
  8
0
 10
190.51169363673111
 20
87.665674758003732
 30
0.0
 11
203.2116936367311
 21
87.665674758003775
 31
0.0
  0
LINE
  5
129
  8
0
 10
172.51169363673131
 20
68.465674758003544
 30
0.0
 11
172.51169363673111
 21
87.865674758003578
 31
0.0
  0
LINE
  5
12A
  8
0
 10
177.70368959066101
 20
53.165674758003611
 30
0.0
 11
186.65197502838129
 21
53.165674758003682
 31
0.0
  0
ARC
  5
12B
  8
0
 10
177.70368959066101
 20
54.96567475800363
 30
0.0
 40
1.8
 50
199.88759444141249
 51
270.0
  0
ARC
  5
12C
  8
0
 10
186.65197502838129
 20
54.965674758003679
 30
0.0
 40
1.8
 50
270.0
 51
345.00000000000051
  0
ARC
  5
12D
  8
0
 10
162.9084355661906
 20
71.720053659053733
 30
0.0
 40
13.849268810468001
 50
338.21764200727819
 51
17.831777806025549
  0
ARC
  5
12E
  8
0
 10
196.77896980267931
 20
82.615403925162767
 30
0.0
 40
21.730525271093938
 50
161.9341245360562
 51
197.83174198503451
  0
ARC
  5
12F
  8
0
 10
164.9600533294047
 20
92.994465749904052
 30
0.0
 40
11.73839120218061
 50
341.93408656229502
 51
30.74672976325386
  0
ARC
  5
130
  8
0
 10
185.13843148698319
 20
62.836628194452011
 30
0.0
 40
10.089986955397761
 50
158.217640125298
 51
199.98642950370609
  0
ARC
  5
131
  8
0
 10
159.39181296581739
 20
53.472529672979121
 30
0.0
 40
17.306631565768189
 50
359.99999986001399
 51
19.986432843704229
  0
ARC
  5
132
  8
0
 10
179.25845757618771
 20
62.83662819445199
 30
0.0
 40
10.089986955397761
 50
340.01357049629388
 51
21.782359874701971
  0
ARC
  5
133
  8
0
 10
167.61791926049139
 20
82.615403925162568
 30
0.0
 40
21.730525271093938
 50
342.16825801496628
 51
18.065875463944689
  0
ARC
  5
134
  8
0
 10
201.4884534969803
 20
71.720053659054017
 30
0.0
 40
13.849268810468001
 50
162.16822219397531
 51
201.78235799272181
  0
ARC
  5
135
  8
0
 10
199.43683573376589
 20
92.994465749904307
 30
0.0
 40
11.73839120218061
 50
150.6303260969766
 51
198.06591343770589
  0
ARC
  5
136
  8
0
 10
205.00507609735371
 20
53.472529672979441
 30
0.0
 40
17.306631565768189
 50
160.01356715629569
 51
180.0000001399867
  0
LINE
  5
137
  8
0
 10
177.29231590527019
 20
57.307207469016802
 30
0.0
 11
187.10457315790089
 21
57.30720746901688
 31
0.0
  0
LINE
  5
138
  8
0
 10
176.32330140252179
 20
65.055038535963391
 30
0.0
 11
188.07358766064939
 21
65.055038535963476
 31
0.0
  0
LINE
  5
139
  8
0
 10
176.48466163359549
 20
78.385068955715425
 30
0.0
 11
187.91222742957501
 21
78.385068955715511
 31
0.0
  0
LINE
  5
13A
  8
0
 10
177.5286129277205
 20
90.921323197307302
 30
0.0
 11
186.86827613545049
 21
90.921323197307387
 31
0.0
  0
LINE
  5
13B
  8
0
 10
176.62052092825709
 20
99.918963662377735
 30
0.0
 11
187.52192864451109
 21
99.918963662377806
 31
0.0
  0
ARC
  5
13C
  8
0
 10
176.62052092825709
 20
98.118963662377752
 30
0.0
 40
1.8
 50
90.0
 51
162.98810592040169
  0
ARC
  5
13D
  8
0
 10
187.52192864451121
 20
98.118963662377794
 30
0.0
 40
1.8
 50
15.00000000000038
 51
90.0
  0
ARC
  5
13E
  8
0
 10
187.5219286445116
 20
218.4738019381457
 30
0.0
 40
1.8
 50
269.99999999999949
 51
344.9999999999992
  0
ARC
  5
13F
  8
0
 10
176.6205209282576
 20
218.4738019381459
 30
0.0
 40
1.8
 50
197.01189407959791
 51
269.99999999999949
  0
LINE
  5
140
  8
0
 10
176.6205209282576
 20
216.67380193814591
 30
0.0
 11
187.5219286445116
 21
216.67380193814569
 31
0.0
  0
LINE
  5
141
  8
0
 10
177.52861292772101
 20
225.6714424032163
 30
0.0
 11
186.868276135451
 21
225.6714424032161
 31
0.0
  0
LINE
  5
142
  8
0
 10
176.48466163359609
 20
238.20769664480821
 30
0.0
 11
187.91222742957561
 21
238.20769664480801
 31
0.0
  0
LINE
  5
143
  8
0
 10
176.32330140252259
 20
251.53772706456019
 30
0.0
 11
188.07358766065019
 21
251.5377270645601
 31
0.0
  0
LINE
  5
144
  8
0
 10
177.29231590527101
 20
259.28555813150678
 30
0.0
 11
187.1045731579016
 21
259.2855581315066
 31
0.0
  0
ARC
  5
145
  8
0
 10
205.00507609735459
 20
263.120235927544
 30
0.0
 40
17.306631565768189
 50
179.99999986001279
 51
199.9864328437038
  0
ARC
  5
146
  8
0
 10
199.4368357337664
 20
223.5982998506191
 30
0.0
 40
11.73839120218061
 50
161.9340865622936
 51
209.36967390302291
  0
ARC
  5
147
  8
0
 10
201.48845349698101
 20
244.87271194146939
 30
0.0
 40
13.849268810468001
 50
158.21764200727779
 51
197.83177780602421
  0
ARC
  5
148
  8
0
 10
167.61791926049199
 20
233.9773616753611
 30
0.0
 40
21.730525271093938
 50
341.93412453605481
 51
17.831741985033229
  0
ARC
  5
149
  8
0
 10
179.2584575761885
 20
253.75613740607159
 30
0.0
 40
10.089986955397761
 50
338.21764012529758
 51
19.986429503705629
  0
ARC
  5
14A
  8
0
 10
159.39181296581819
 20
263.12023592754463
 30
0.0
 40
17.306631565768189
 50
340.01356715629532
 51
0.0000001399854979
  0
ARC
  5
14B
  8
0
 10
185.13843148698399
 20
253.7561374060715
 30
0.0
 40
10.089986955397761
 50
160.0135704962934
 51
201.78235987470151
  0
ARC
  5
14C
  8
0
 10
164.96005332940521
 20
223.59829985061961
 30
0.0
 40
11.73839120218061
 50
329.25327023674572
 51
18.065913437704602
  0
ARC
  5
14D
  8
0
 10
196.77896980267991
 20
233.9773616753607
 30
0.0
 40
21.730525271093938
 50
162.16825801496501
 51
198.06587546394331
  0
ARC
  5
14E
  8
0
 10
162.9084355661912
 20
244.87271194146999
 30
0.0
 40
13.849268810468001
 50
342.16822219397397
 51
21.78235799272138
  0
ARC
  5
14F
  8
0
 10
186.65197502838211
 20
261.62709084251992
 30
0.0
 40
1.8
 50
14.999999999999091
 51
89.999999999999574
  0
ARC
  5
150
  8
0
 10
177.70368959066181
 20
261.62709084251998
 30
0.0
 40
1.8
 50
89.999999999999574
 51
160.112405558587
  0
LINE
  5
151
  8
0
 10
177.70368959066181
 20
263.42709084251999
 30
0.0
 11
186.65197502838211
 21
263.42709084251987
 31
0.0
  0
LINE
  5
152
  8
0
 10
172.51169363673199
 20
248.12709084252009
 30
0.0
 11
172.51169363673171
 21
228.72709084252011
 31
0.0
  0
LINE
  5
153
  8
0
 10
190.51169363673171
 20
228.92709084251979
 30
0.0
 11
203.2116936367317
 21
228.92709084251959
 31
0.0
  0
LINE
  5
154
  8
0
 10
204.21169363673181
 20
231.92709084251959
 30
0.0
 11
204.51169363673179
 21
231.92709084251959
 31
0.0
  0
LINE
  5
155
  8
0
 10
204.21169363673201
 20
246.92709084251959
 30
0.0
 11
204.2116936367317
 21
229.92709084251959
 31
0.0
  0
LINE
  5
156
  8
0
 10
203.21169363673201
 20
247.92709084251959
 30
0.0
 11
204.21169363673201
 21
246.92709084251959
 31
0.0
  0
LINE
  5
157
  8
0
 10
204.2116936367317
 20
229.92709084251959
 30
0.0
 11
203.2116936367317
 21
228.92709084251959
 31
0.0
  0
LINE
  5
158
  8
0
 10
203.2116936367317
 20
228.92709084251959
 30
0.0
 11
203.21169363673201
 21
247.92709084251959
 31
0.0
  0
LINE
  5
159
  8
0
 10
190.5116936367321
 20
254.1770908425197
 30
0.0
 11
190.51169363673159
 21
222.67709084251979
 31
0.0
  0
ARC
  5
15A
  8
0
 10
241.8363645699574
 20
238.42709084251899
 30
0.0
 40
70.0
 50
187.96518940678089
 51
197.01189407959791
  0
LINE
  5
15B
  8
0
 10
190.51169363673159
 20
222.67709084251979
 30
0.0
 11
189.26059513183191
 21
218.00792765696119
 31
0.0
  0
LINE
  5
15C
  8
0
 10
190.5116936367321
 20
254.17709084251979
 30
0.0
 11
188.3906415157025
 21
262.0929651237044
 31
0.0
  0
ARC
  5
15D
  8
0
 10
241.8363645699574
 20
238.42709084251899
 30
0.0
 40
70.0
 50
160.112405558587
 51
172.03481059321729
  0
LINE
  5
15E
  8
0
 10
203.21169363673201
 20
247.92709084251959
 30
0.0
 11
190.51169363673199
 21
247.92709084251979
 31
0.0
  0
LINE
  5
15F
  8
0
 10
204.21169363673201
 20
244.92709084251959
 30
0.0
 11
204.51169363673191
 21
244.92709084251959
 31
0.0
  0
LINE
  5
160
  8
3
 10
206.51169363673179
 20
242.50709084251909
 30
0.0
 11
222.51169363673191
 21
242.5070908425192
 31
0.0
  0
LINE
  5
161
  8
3
 10
206.51169363673179
 20
234.34709084251949
 30
0.0
 11
222.51169363673191
 21
234.34709084251949
 31
0.0
  0
LINE
  5
162
  8
0
 10
222.51169363673191
 20
233.4270908425195
 30
0.0
 11
222.51169363673191
 21
243.4270908425195
 31
0.0
  0
LINE
  5
163
  8
0
 10
204.51169363673179
 20
228.42709084251959
 30
0.0
 11
206.51169363673179
 21
228.42709084251959
 31
0.0
  0
LINE
  5
164
  8
0
 10
204.51169363673179
 20
228.42709084251959
 30
0.0
 11
204.51169363673191
 21
248.42709084251959
 31
0.0
  0
LINE
  5
165
  8
0
 10
206.51169363673179
 20
228.42709084251959
 30
0.0
 11
206.51169363673191
 21
248.42709084251959
 31
0.0
  0
LINE
  5
166
  8
0
 10
204.51169363673191
 20
248.42709084251959
 30
0.0
 11
206.51169363673191
 21
248.42709084251959
 31
0.0
  0
ARC
  5
167
  8
0
 10
265.39172231685188
 20
236.44860593619811
 30
0.0
 40
1.6432317535349961
 50
197.2844728550933
 51
275.5880076813491
  0
ARC
  5
168
  8
0
 10
265.71059347047492
 20
233.17775967243571
 30
0.0
 40
1.6431211485279571
 50
40.988559180560607
 51
95.548203385541058
  0
CIRCLE
  5
169
  8
0
 10
265.39169363673233
 20
240.4056908425195
 30
0.0
 40
0.7500000000000002
  0
CIRCLE
  5
16A
  8
0
 10
265.39169363673233
 20
236.4484908425195
 30
0.0
 40
0.7500000000000002
  0
LINE
  5
16B
  8
0
 10
263.49678561060671
 20
237.5270888425195
 30
0.0
 11
266.59336095176712
 21
237.5270888425195
 31
0.0
  0
LINE
  5
16C
  8
0
 10
206.51169363673179
 20
233.42709084251959
 30
0.0
 11
260.7878883419686
 21
233.4270908425195
 31
0.0
  0
LINE
  5
16D
  8
0
 10
260.78788834196871
 20
243.4270908425195
 30
0.0
 11
206.51169363673191
 21
243.42709084251959
 31
0.0
  0
ARC
  5
16E
  8
0
 10
271.51169363673222
 20
238.42709084251939
 30
0.0
 40
10.0
 50
220.0052008848603
 51
139.99479911513939
  0
ARC
  5
16F
  8
0
 10
260.78788834196871
 20
247.4270908425195
 30
0.0
 40
4.0000000000000098
 50
269.99999999999989
 51
319.99479911513941
  0
ARC
  5
170
  8
0
 10
260.7878883419686
 20
229.4270908425195
 30
0.0
 40
4.0
 50
40.005200884860329
 51
89.999999999999915
  0
LINE
  5
171
  8
0
 10
260.78788834196888
 20
233.4270908425195
 30
0.0
 11
260.78788834196831
 21
243.4270908425195
 31
0.0
  0
LINE
  5
172
  8
0
 10
263.85183271190118
 20
236.11916306803329
 30
0.0
 11
263.85183271190118
 21
235.8719045310383
 31
0.0
  0
LINE
  5
173
  8
0
 10
263.85183271190141
 20
231.998519413948
 30
0.0
 11
263.85183271190118
 21
236.11916306803329
 31
0.0
  0
LINE
  5
174
  8
0
 10
263.85183271190101
 20
240.73501861700581
 30
0.0
 11
263.85183271190073
 21
244.85566227109089
 31
0.0
  0
LINE
  5
175
  8
0
 10
263.85183271190101
 20
240.98226995336771
 30
0.0
 11
263.85183271190101
 21
240.73501861700581
 31
0.0
  0
POLYLINE
  5
176
  8
0
 66
     1
 10
0.0
 20
0.0
 30
0.0
  0
VERTEX
  5
2F2
  8
0
 10
263.85183271190112
 20
236.11916306803329
 30
0.0
  0
VERTEX
  5
2F3
  8
0
 10
263.78293179709652
 20
236.3521888614959
 30
0.0
  0
VERTEX
  5
2F4
  8
0
 10
263.65513496546117
 20
236.82219703862819
 30
0.0
  0
VERTEX
  5
2F5
  8
0
 10
263.54923459998912
 20
237.2940401394591
 30
0.0
  0
VERTEX
  5
2F6
  8
0
 10
263.50752644693881
 20
237.5291732717472
 30
0.0
  0
SEQEND
  5
2F7
  8
0
  0
POLYLINE
  5
177
  8
0
 66
     1
 10
0.0
 20
0.0
 30
0.0
  0
VERTEX
  5
2F8
  8
0
 10
263.50752644693881
 20
237.5291732717472
 30
0.0
  0
VERTEX
  5
2F9
  8
0
 10
263.49961581838318
 20
237.58000587842091
 30
0.0
  0
VERTEX
  5
2FA
  8
0
 10
263.4850712616913
 20
237.68144879111381
 30
0.0
  0
VERTEX
  5
2FB
  8
0
 10
263.47227455531493
 20
237.78254944743341
 30
0.0
  0
VERTEX
  5
2FC
  8
0
 10
263.46654622148668
 20
237.83295328830749
 30
0.0
  0
VERTEX
  5
2FD
  8
0
 10
263.46127089971839
 20
237.8832493483892
 30
0.0
  0
VERTEX
  5
2FE
  8
0
 10
263.45209367381977
 20
237.98348667519099
 30
0.0
  0
VERTEX
  5
2FF
  8
0
 10
263.44476356781649
 20
238.0831972094656
 30
0.0
  0
VERTEX
  5
300
  8
0
 10
263.4392880005052
 20
238.18231538599451
 30
0.0
  0
VERTEX
  5
301
  8
0
 10
263.43566086288132
 20
238.28077546294469
 30
0.0
  0
VERTEX
  5
302
  8
0
 10
263.43386261539843
 20
238.37851278865901
 30
0.0
  0
VERTEX
  5
303
  8
0
 10
263.4336396530332
 20
238.4270908425195
 30
0.0
  0
VERTEX
  5
304
  8
0
 10
263.43386261539843
 20
238.47566889638
 30
0.0
  0
VERTEX
  5
305
  8
0
 10
263.43566086288132
 20
238.57340622209429
 30
0.0
  0
VERTEX
  5
306
  8
0
 10
263.4392880005052
 20
238.67186629904461
 30
0.0
  0
VERTEX
  5
307
  8
0
 10
263.44476356781649
 20
238.7709844755733
 30
0.0
  0
VERTEX
  5
308
  8
0
 10
263.45209367381977
 20
238.87069500984811
 30
0.0
  0
VERTEX
  5
309
  8
0
 10
263.46127089971839
 20
238.97093233664981
 30
0.0
  0
VERTEX
  5
30A
  8
0
 10
263.46654622148668
 20
239.02122839673149
 30
0.0
  0
VERTEX
  5
30B
  8
0
 10
263.47227455531493
 20
239.0716322376056
 30
0.0
  0
VERTEX
  5
30C
  8
0
 10
263.4850712616913
 20
239.17273289392531
 30
0.0
  0
VERTEX
  5
30D
  8
0
 10
263.49961581838318
 20
239.2741758066181
 30
0.0
  0
VERTEX
  5
30E
  8
0
 10
263.50752644693881
 20
239.3250084132919
 30
0.0
  0
SEQEND
  5
30F
  8
0
  0
POLYLINE
  5
178
  8
0
 66
     1
 10
0.0
 20
0.0
 30
0.0
  0
VERTEX
  5
310
  8
0
 10
263.50752644693881
 20
239.3250084132919
 30
0.0
  0
VERTEX
  5
311
  8
0
 10
263.54923459998912
 20
239.56014154558
 30
0.0
  0
VERTEX
  5
312
  8
0
 10
263.65513496546117
 20
240.0319846464109
 30
0.0
  0
VERTEX
  5
313
  8
0
 10
263.78293179709652
 20
240.50199282354311
 30
0.0
  0
VERTEX
  5
314
  8
0
 10
263.85183271190112
 20
240.73501861700581
 30
0.0
  0
SEQEND
  5
315
  8
0
  0
ARC
  5
179
  8
0
 10
271.51169363673222
 20
238.42709084251939
 30
0.0
 40
8.0
 50
201.83758481834329
 51
158.16159767929091
  0
CIRCLE
  5
17A
  8
0
 10
271.51169363673222
 20
238.42709084251939
 30
0.0
 40
5.0
  0
LINE
  5
17B
  8
1
 10
285.34463461721992
 20
238.42709084251939
 30
0.0
 11
165.03562240142281
 21
238.42709084251979
 31
0.0
  0
LINE
  5
17C
  8
1
 10
271.51169363673222
 20
224.5941498620318
 30
0.0
 11
271.51169363673228
 21
252.2600318230071
 31
0.0
  0
CIRCLE
  5
17D
  8
0
 10
271.51169363673222
 20
238.42709084251939
 30
0.0
 40
4.0
  0
ARC
  5
17E
  8
0
 10
271.51169363673222
 20
238.42709084251939
 30
0.0
 40
4.7999999999999892
 50
169.19305282085099
 51
190.80694717914881
  0
LINE
  5
17F
  8
0
 10
266.59336095176712
 20
239.32709284251951
 30
0.0
 11
266.79682392485302
 21
239.32709284251951
 31
0.0
  0
LINE
  5
180
  8
0
 10
266.59336095176712
 20
237.5270888425195
 30
0.0
 11
266.79682392485302
 21
237.5270888425195
 31
0.0
  0
CIRCLE
  5
181
  8
0
 10
271.51169363673222
 20
238.42709084251939
 30
0.0
 40
5.0
  0
ARC
  5
182
  8
0
 10
271.75169859910778
 20
238.42709084251939
 30
0.0
 40
6.3600300376244068
 50
220.9885324072402
 51
139.0114675927596
  0
ARC
  5
183
  8
0
 10
265.71066064166132
 20
243.67632737582309
 30
0.0
 40
1.6430083721685049
 50
264.42866050903399
 51
319.0123955422448
  0
ARC
  5
184
  8
0
 10
265.39164048930542
 20
240.40574909989661
 30
0.0
 40
1.6430920701028069
 50
84.429049016648705
 51
162.72084535076249
  0
ARC
  5
185
  8
0
 10
271.75274826933588
 20
238.4269248439916
 30
0.0
 40
8.304881441073487
 50
162.72019755941099
 51
173.7774723847663
  0
LINE
  5
186
  8
0
 10
266.59336095176712
 20
239.32709284251951
 30
0.0
 11
263.49679566986481
 21
239.32709284251951
 31
0.0
  0
ARC
  5
187
  8
0
 10
271.7527537785644
 20
238.4272577120569
 30
0.0
 40
8.3048970122461743
 50
186.2225219470285
 51
197.27987486480001
  0
TEXT
  5
21B
  8
0
 62
     3
 10
0.0
 20
0.0
 30
0.0
 40
10.0
  1
RWK10075
  7
STANDARD1
  0
ENDSEC
  0
EOF
