  0
SECTION
  2
HEADER
  9
$ACADVER
  1
AC1009
  9
$INSBASE
 10
0.0
 20
0.0
 30
0.0
  9
$EXTMIN
 10
0.0
 20
-2.960436562073669
 30
0.0
  9
$EXTMAX
 10
1673.19638530578
 20
672.27541546327188
 30
0.0
  9
$LIMMIN
 10
0.0
 20
0.0
  9
$LIMMAX
 10
187.5
 20
135.0
  9
$ORTHOMODE
 70
     0
  9
$REGENMODE
 70
     1
  9
$FILLMODE
 70
     1
  9
$QTEXTMODE
 70
     0
  9
$MIRRTEXT
 70
     0
  9
$DRAGMODE
 70
     2
  9
$LTSCALE
 40
10.0
  9
$OSMODE
 70
    55
  9
$ATTMODE
 70
     1
  9
$TEXTSIZE
 40
2.5
  9
$TRACEWID
 40
0.05
  9
$TEXTSTYLE
  7
STANDARD
  9
$CLAYER
  8
0
  9
$CELTYPE
  6
BYLAYER
  9
$CECOLOR
 62
   256
  9
$DIMSCALE
 40
0.5
  9
$DIMASZ
 40
3.0
  9
$DIMEXO
 40
2.0
  9
$DIMDLI
 40
10.0
  9
$DIMRND
 40
0.0
  9
$DIMDLE
 40
0.0
  9
$DIMEXE
 40
2.0
  9
$DIMTP
 40
0.0
  9
$DIMTM
 40
0.0
  9
$DIMTXT
 40
3.0
  9
$DIMCEN
 40
0.09
  9
$DIMTSZ
 40
0.0
  9
$DIMTOL
 70
     0
  9
$DIMLIM
 70
     0
  9
$DIMTIH
 70
     0
  9
$DIMTOH
 70
     0
  9
$DIMSE1
 70
     0
  9
$DIMSE2
 70
     0
  9
$DIMTAD
 70
     1
  9
$DIMZIN
 70
     0
  9
$DIMBLK
  1

  9
$DIMASO
 70
     0
  9
$DIMSHO
 70
     0
  9
$DIMPOST
  1

  9
$DIMAPOST
  1

  9
$DIMALT
 70
     0
  9
$DIMALTD
 70
     2
  9
$DIMALTF
 40
25.399999999999999
  9
$DIMLFAC
 40
1.0
  9
$DIMTOFL
 70
     1
  9
$DIMTVP
 40
1.6000000000000001
  9
$DIMTIX
 70
     1
  9
$DIMSOXD
 70
     0
  9
$DIMSAH
 70
     0
  9
$DIMBLK1
  1

  9
$DIMBLK2
  1

  9
$DIMSTYLE
  2
STANDARD
  9
$DIMCLRD
 70
     0
  9
$DIMCLRE
 70
     0
  9
$DIMCLRT
 70
     0
  9
$DIMTFAC
 40
1.0
  9
$DIMGAP
 40
0.09
  9
$LUNITS
 70
     2
  9
$LUPREC
 70
     4
  9
$SKETCHINC
 40
0.1
  9
$FILLETRAD
 40
0.0
  9
$AUNITS
 70
     0
  9
$AUPREC
 70
     0
  9
$MENU
  1
E:\r13\win\SUPPORT\ACAD
  9
$ELEVATION
 40
0.0
  9
$PELEVATION
 40
0.0
  9
$THICKNESS
 40
0.0
  9
$LIMCHECK
 70
     0
  9
$BLIPMODE
 70
     0
  9
$CHAMFERA
 40
1.6000000000000001
  9
$CHAMFERB
 40
1.6000000000000001
  9
$SKPOLY
 70
     0
  9
$TDCREATE
 40
2449840.5944097228
  9
$TDUPDATE
 40
2456598.6048698849
  9
$TDINDWG
 40
0.4121714005
  9
$TDUSRTIMER
 40
0.4121714005
  9
$USRTIMER
 70
     1
  9
$ANGBASE
 50
0.0
  9
$ANGDIR
 70
     0
  9
$PDMODE
 70
     0
  9
$PDSIZE
 40
0.0
  9
$PLINEWID
 40
0.0
  9
$COORDS
 70
     1
  9
$SPLFRAME
 70
     0
  9
$SPLINETYPE
 70
     6
  9
$SPLINESEGS
 70
     8
  9
$ATTDIA
 70
     0
  9
$ATTREQ
 70
     1
  9
$HANDLING
 70
     1
  9
$HANDSEED
  5
486A
  9
$SURFTAB1
 70
     6
  9
$SURFTAB2
 70
     6
  9
$SURFTYPE
 70
     6
  9
$SURFU
 70
     6
  9
$SURFV
 70
     6
  9
$UCSNAME
  2

  9
$UCSORG
 10
0.0
 20
0.0
 30
0.0
  9
$UCSXDIR
 10
1.0
 20
0.0
 30
0.0
  9
$UCSYDIR
 10
0.0
 20
1.0
 30
0.0
  9
$PUCSNAME
  2

  9
$PUCSORG
 10
0.0
 20
0.0
 30
0.0
  9
$PUCSXDIR
 10
1.0
 20
0.0
 30
0.0
  9
$PUCSYDIR
 10
0.0
 20
1.0
 30
0.0
  9
$USERI1
 70
     0
  9
$USERI2
 70
     1
  9
$USERI3
 70
     1
  9
$USERI4
 70
     0
  9
$USERI5
 70
     0
  9
$USERR1
 40
0.0
  9
$USERR2
 40
0.0
  9
$USERR3
 40
0.0
  9
$USERR4
 40
0.0
  9
$USERR5
 40
0.0
  9
$WORLDVIEW
 70
     1
  9
$SHADEDGE
 70
     3
  9
$SHADEDIF
 70
    70
  9
$TILEMODE
 70
     1
  9
$MAXACTVP
 70
    16
  9
$PLIMCHECK
 70
     0
  9
$PEXTMIN
 10
1.0000000000000000E+020
 20
1.0000000000000000E+020
 30
1.0000000000000000E+020
  9
$PEXTMAX
 10
-1.0000000000000000E+020
 20
-1.0000000000000000E+020
 30
-1.0000000000000000E+020
  9
$PLIMMIN
 10
0.0
 20
0.0
  9
$PLIMMAX
 10
12.0
 20
9.0
  9
$UNITMODE
 70
     0
  9
$VISRETAIN
 70
     0
  9
$PLINEGEN
 70
     0
  9
$PSLTSCALE
 70
     0
  0
ENDSEC
  0
SECTION
  2
TABLES
  0
TABLE
  2
VPORT
 70
     1
  0
VPORT
  2
*ACTIVE
 70
     0
 10
0.0
 20
0.0
 11
1.0
 21
1.0
 12
836.59819654860371
 22
486.22778863826147
 13
0.0
 23
0.0
 14
5.0
 24
5.0
 15
5.0
 25
5.0
 16
0.0
 26
0.0
 36
1.0
 17
0.0
 27
0.0
 37
0.0
 40
987.91301012619829
 41
1.7807262569832401
 42
50.0
 43
0.0
 44
0.0
 50
0.0
 51
0.0
 71
     0
 72
   100
 73
     1
 74
     0
 75
     0
 76
     0
 77
     0
 78
     0
  0
ENDTAB
  0
TABLE
  2
LTYPE
 70
     4
  0
LTYPE
  2
CONTINUOUS
 70
     0
  3
Solid Line
 72
    65
 73
     0
 40
0.0
  0
LTYPE
  2
CENTER
 70
     0
  3
____ _ ____ _ ____ _ ____ _ ____ _ ____ _ ____
 72
    65
 73
     4
 40
2.0
 49
1.25
 49
-0.25
 49
0.25
 49
-0.25
  0
LTYPE
  2
HIDDEN
 70
     0
  3
_ _ _ _ _ _ _ _ _ _ _ _ _ _ _ _ _ _ _ _ _ _ _
 72
    65
 73
     2
 40
0.375
 49
0.25
 49
-0.125
  0
LTYPE
  2
PHANTOM2
 70
     0
  3
___ _ _ ___ _ _ ___ _ _ ___ _ _
 72
    65
 73
     6
 40
1.25
 49
0.625
 49
-0.125
 49
0.125
 49
-0.125
 49
0.125
 49
-0.125
  0
ENDTAB
  0
TABLE
  2
LAYER
 70
     4
  0
LAYER
  2
0
 70
     0
 62
     7
  6
CONTINUOUS
  0
LAYER
  2
1
 70
     0
 62
     1
  6
CENTER
  0
LAYER
  2
2
 70
     0
 62
     2
  6
HIDDEN
  0
LAYER
  2
4
 70
     0
 62
     1
  6
CONTINUOUS
  0
ENDTAB
  0
TABLE
  2
STYLE
 70
     5
  0
STYLE
  2
STANDARD
 70
     0
 40
0.0
 41
1.0
 50
0.0
 71
     0
 42
2.5
  3
TXT
  4
BIGFONT
  0
STYLE
  2
KANJI
 70
     0
 40
0.0
 41
1.0
 50
0.0
 71
     0
 42
5.0
  3
TXT.SHX
  4
bigfont
  0
STYLE
  2
STYLE2
 70
     0
 40
13.0
 41
1.0
 50
0.0
 71
     0
 42
2.5
  3
C:\Program Files\AutoCAD LT\txt.shx
  4
C:\Program Files\AutoCAD LT\bigfont.shx
  0
STYLE
  2
STANDARD2
 70
     0
 40
8.0
 41
1.0
 50
0.0
 71
     0
 42
0.2
  3
C:\Program Files\AutoCAD LT\txt.shx
  4
C:\Program Files\AutoCAD LT\bigfont.shx
  0
STYLE
  2
STANDARD1
 70
     0
 40
0.0
 41
1.0
 50
0.0
 71
     0
 42
3.0
  3
txt
  4

  0
ENDTAB
  0
TABLE
  2
VIEW
 70
     1
  0
VIEW
  2
ALL
 70
     0
 40
135.0
 10
110.49579799999999
 20
67.5
 41
0.0
 11
0.0
 21
0.0
 31
1.0
 12
0.0
 22
0.0
 32
0.0
 42
0.0
 43
0.0
 44
0.0
 50
0.0
 71
     0
  0
ENDTAB
  0
TABLE
  2
UCS
 70
     0
  0
ENDTAB
  0
TABLE
  2
APPID
 70
     4
  0
APPID
  2
ACAD
 70
     0
  0
APPID
  2
DCO15
 70
     0
  0
APPID
  2
ACAD_MLEADERVER
 70
     0
  0
APPID
  2
ACAD_NAV_VCDISPLAY
 70
     0
  0
ENDTAB
  0
TABLE
  2
DIMSTYLE
 70
     1
  0
DIMSTYLE
  2
STANDARD
 70
     0
  3

  4

  5

  6

  7

 40
1.0
 41
0.18
 42
0.0625
 43
0.38
 44
0.18
 45
0.0
 46
0.0
 47
0.0
 48
0.0
140
0.18
141
0.09
142
0.0
143
25.399999999999999
144
1.0
145
0.0
146
1.0
147
0.09
 71
     0
 72
     0
 73
     1
 74
     1
 75
     0
 76
     0
 77
     0
 78
     0
170
     0
171
     2
172
     0
173
     0
174
     0
175
     0
176
     0
177
     0
178
     0
  0
ENDTAB
  0
ENDSEC
  0
SECTION
  2
BLOCKS
  0
BLOCK
  8
0
  2
$MODEL_SPACE
 70
     0
 10
0.0
 20
0.0
 30
0.0
  3
$MODEL_SPACE
  1

  0
ENDBLK
  5
15D
  8
0
  0
BLOCK
 67
     1
  8
0
  2
$PAPER_SPACE
 70
     0
 10
0.0
 20
0.0
 30
0.0
  3
$PAPER_SPACE
  1

  0
ENDBLK
  5
15B
 67
     1
  8
0
  0
BLOCK
  8
0
  2
STDGX5
 70
     0
 10
0.0
 20
0.0
 30
0.0
  3
STDGX5
  1

  0
ENDBLK
  5
41
  8
0
  0
ENDSEC
  0
SECTION
  2
ENTITIES
  0
INSERT
  5
CA
  8
0
  2
STDGX5
 10
0.0
 20
0.0
 30
0.0
  0
INSERT
  5
69A
  8
0
  2
STDGX5
 10
194.3272563481562
 20
13.52129245667936
 30
0.0
  0
INSERT
  5
1343
  8
0
  2
STDGX5
 10
563.10080863610574
 20
-59.557035590067017
 30
0.0
  0
INSERT
  5
1345
  8
0
  2
STDGX5
 10
757.42806498426194
 20
-46.035743133387648
 30
0.0
  0
LINE
  5
2641
  8
0
 10
150.29638530577949
 20
643.83819246327175
 30
0.0
 11
150.29638530577949
 21
665.36263946327165
 31
0.0
  0
LINE
  5
2642
  8
0
 10
148.74638530577951
 20
643.83819246327175
 30
0.0
 11
148.74638530577951
 21
665.36263946327165
 31
0.0
  0
LINE
  5
2643
  8
0
 10
139.19638530577959
 20
643.83819246327175
 30
0.0
 11
139.19638530577959
 21
665.36263946327165
 31
0.0
  0
LINE
  5
2644
  8
0
 10
143.69638530577959
 20
643.53856246327177
 30
0.0
 11
143.69638530577959
 21
644.1764754632718
 31
0.0
  0
ARC
  5
2645
  8
0
 10
145.84638530577951
 20
640.68541546327185
 30
0.0
 40
4.0999999999999988
 50
48.493283999998241
 51
121.62720400000229
  0
LINE
  5
2646
  8
0
 10
134.14638530577949
 20
643.53856246327177
 30
0.0
 11
134.14638530577949
 21
644.1764754632718
 31
0.0
  0
ARC
  5
2647
  8
0
 10
136.29638530577949
 20
640.68541546327185
 30
0.0
 40
4.0999999999999988
 50
48.493283999998241
 51
121.62720400000229
  0
LINE
  5
2648
  8
0
 10
142.39638530577949
 20
641.03939746327183
 30
0.0
 11
142.39638530577949
 21
668.16143346327181
 31
0.0
  0
LINE
  5
2649
  8
0
 10
140.74638530577951
 20
641.03939746327183
 30
0.0
 11
140.74638530577951
 21
668.16143346327181
 31
0.0
  0
LINE
  5
264A
  8
0
 10
132.84638530577951
 20
641.03939746327183
 30
0.0
 11
132.84638530577951
 21
668.16143346327181
 31
0.0
  0
LINE
  5
264B
  8
0
 10
142.64638530577949
 20
641.66469046327188
 30
0.0
 11
142.64638530577949
 21
648.75041546327191
 31
0.0
  0
LINE
  5
264C
  8
0
 10
143.14638530577949
 20
641.66469046327188
 30
0.0
 11
143.14638530577949
 21
648.75041546327191
 31
0.0
  0
LINE
  5
264D
  8
0
 10
133.59638530577951
 20
641.66469046327188
 30
0.0
 11
133.59638530577951
 21
648.75041546327191
 31
0.0
  0
LINE
  5
264E
  8
0
 10
133.09638530577951
 20
641.66469046327188
 30
0.0
 11
133.09638530577951
 21
648.75041546327191
 31
0.0
  0
LINE
  5
264F
  8
0
 10
131.19638530577959
 20
641.03939746327183
 30
0.0
 11
131.19638530577959
 21
668.16143346327181
 31
0.0
  0
ARC
  5
2650
  8
0
 10
148.6363853057795
 20
643.83819246327175
 30
0.0
 40
0.11
 50
228.4932839999982
 51
0.0
  0
ARC
  5
2651
  8
0
 10
139.08638530577949
 20
643.83819246327175
 30
0.0
 40
0.11
 50
228.4932839999982
 51
0.0
  0
ARC
  5
2652
  8
0
 10
145.84781530577959
 20
640.88270446327192
 30
0.0
 40
2.399999999999999
 50
7.8069229999993377
 51
21.539564000001231
  0
LINE
  5
2653
  8
0
 10
148.51413230577961
 20
641.9446154632717
 30
0.0
 11
148.08020930577959
 21
641.76384946327175
 31
0.0
  0
ARC
  5
2654
  8
0
 10
145.84781530577959
 20
640.88270446327192
 30
0.0
 40
2.8700000000000001
 50
6.0208820000001513
 51
21.71585500000073
  0
LINE
  5
2655
  8
0
 10
149.6168193057795
 20
640.63511046327187
 30
0.0
 11
149.6429873057796
 21
641.13442546327178
 31
0.0
  0
ARC
  5
2656
  8
0
 10
142.64638530577949
 20
641.03939746327183
 30
0.0
 40
0.25
 50
180.0
 51
223.82118700000069
  0
ARC
  5
2657
  8
0
 10
143.34638530577951
 20
641.66469046327188
 30
0.0
 40
0.7
 50
180.0
 51
267.00000000000091
  0
ARC
  5
2658
  8
0
 10
143.34638530577951
 20
641.66469046327188
 30
0.0
 40
0.2
 50
180.0
 51
267.00000000000091
  0
LINE
  5
2659
  8
0
 10
143.33591830577959
 20
641.46496446327183
 30
0.0
 11
149.6429873057796
 21
641.13442546327178
 31
0.0
  0
LINE
  5
265A
  8
0
 10
143.30975030577949
 20
640.96565046327191
 30
0.0
 11
149.6168193057795
 21
640.63511046327187
 31
0.0
  0
ARC
  5
265B
  8
0
 10
145.8085633057795
 20
640.13373246327183
 30
0.0
 40
2.0
 50
33.869898000000177
 51
140.13010199999951
  0
LINE
  5
265C
  8
0
 10
140.06681930577949
 20
640.63511046327187
 30
0.0
 11
140.09298730577959
 21
641.13442546327178
 31
0.0
  0
ARC
  5
265D
  8
0
 10
136.29781530577961
 20
640.88270446327192
 30
0.0
 40
2.8700000000000001
 50
6.0208820000001513
 51
21.71585500000073
  0
LINE
  5
265E
  8
0
 10
138.96413230577949
 20
641.9446154632717
 30
0.0
 11
138.53020930577949
 21
641.76384946327175
 31
0.0
  0
ARC
  5
265F
  8
0
 10
136.29781530577961
 20
640.88270446327192
 30
0.0
 40
2.399999999999999
 50
7.8069229999993377
 51
21.539564000001231
  0
ARC
  5
2660
  8
0
 10
133.79638530577949
 20
641.66469046327188
 30
0.0
 40
0.2
 50
180.0
 51
267.00000000000091
  0
ARC
  5
2661
  8
0
 10
133.79638530577949
 20
641.66469046327188
 30
0.0
 40
0.7
 50
180.0
 51
267.00000000000091
  0
ARC
  5
2662
  8
0
 10
133.09638530577951
 20
641.03939746327183
 30
0.0
 40
0.25
 50
180.0
 51
223.82118700000069
  0
ARC
  5
2663
  8
0
 10
136.2585633057796
 20
640.13373246327183
 30
0.0
 40
2.0
 50
33.869898000000177
 51
140.13010199999951
  0
LINE
  5
2664
  8
0
 10
133.75975030577951
 20
640.96565046327191
 30
0.0
 11
140.06681930577949
 21
640.63511046327187
 31
0.0
  0
LINE
  5
2665
  8
0
 10
133.78591830577949
 20
641.46496446327183
 30
0.0
 11
140.09298730577959
 21
641.13442546327178
 31
0.0
  0
LINE
  5
2666
  8
0
 10
148.2101373057796
 20
639.80695446327184
 30
0.0
 11
149.30638530577949
 21
638.71070646327189
 31
0.0
  0
LINE
  5
2668
  8
0
 10
147.64927530577961
 20
639.22252546327184
 30
0.0
 11
148.2101373057796
 21
639.80695446327184
 31
0.0
  0
LINE
  5
2669
  8
0
 10
142.84724730577949
 20
638.12627746327189
 30
0.0
 11
141.2476773057796
 21
639.79305946327179
 31
0.0
  0
ARC
  5
266A
  8
0
 10
145.84638530577951
 20
641.02541546327188
 30
0.0
 40
2.5499999999999989
 50
222.3264279999992
 51
315.0
  0
ARC
  5
266B
  8
0
 10
145.74638530577951
 20
641.02541546327188
 30
0.0
 40
4.0999999999999988
 50
225.0
 51
315.0
  0
LINE
  5
266C
  8
0
 10
138.09927530577951
 20
639.22252546327184
 30
0.0
 11
138.66013730577961
 21
639.80695446327184
 31
0.0
  0
LINE
  5
266E
  8
0
 10
138.66013730577961
 20
639.80695446327184
 30
0.0
 11
139.7563853057795
 21
638.71070646327189
 31
0.0
  0
ARC
  5
266F
  8
0
 10
136.19638530577959
 20
641.02541546327188
 30
0.0
 40
4.0999999999999988
 50
225.0
 51
315.0
  0
ARC
  5
2670
  8
0
 10
136.29638530577949
 20
641.02541546327188
 30
0.0
 40
2.5499999999999989
 50
222.3264279999992
 51
315.0
  0
ARC
  5
2671
  8
0
 10
142.54638530577949
 20
641.03939746327183
 30
0.0
 40
1.8
 50
180.0
 51
223.82118700000069
  0
LINE
  5
2672
  8
0
 10
143.96111730577951
 20
639.30836346327192
 30
0.0
 11
142.46600930577961
 21
640.86629546327185
 31
0.0
  0
ARC
  5
2673
  8
0
 10
145.84638530577951
 20
640.8554154632717
 30
0.0
 40
2.379999999999999
 50
177.5458540000011
 51
356.45414600000072
  0
LINE
  5
2674
  8
0
 10
134.41111730577961
 20
639.30836346327192
 30
0.0
 11
132.91600930577951
 21
640.86629546327185
 31
0.0
  0
ARC
  5
2675
  8
0
 10
136.29638530577949
 20
640.8554154632717
 30
0.0
 40
2.379999999999999
 50
177.5458540000011
 51
356.45414600000072
  0
ARC
  5
2676
  8
0
 10
148.6363853057795
 20
643.83819246327175
 30
0.0
 40
1.659999999999999
 50
228.4932839999982
 51
0.0
  0
LINE
  5
2677
  8
0
 10
144.31175730577951
 20
642.72193646327185
 30
0.0
 11
143.69638530577959
 21
643.53856246327177
 31
0.0
  0
ARC
  5
2678
  8
0
 10
145.84638530577951
 20
640.8554154632717
 30
0.0
 40
2.379999999999999
 50
8.5695469999987441
 51
165.43045300000159
  0
ARC
  5
2679
  8
0
 10
145.84638530577951
 20
640.68541546327185
 30
0.0
 40
2.5499999999999989
 50
48.549999999999031
 51
127.000000000002
  0
ARC
  5
267A
  8
0
 10
139.08638530577949
 20
643.83819246327175
 30
0.0
 40
1.659999999999999
 50
228.4932839999982
 51
0.0
  0
LINE
  5
267B
  8
0
 10
134.76175730577961
 20
642.72193646327185
 30
0.0
 11
134.14638530577949
 21
643.53856246327177
 31
0.0
  0
ARC
  5
267C
  8
0
 10
136.29638530577949
 20
640.68541546327185
 30
0.0
 40
2.5499999999999989
 50
48.549999999999031
 51
127.000000000002
  0
ARC
  5
267D
  8
0
 10
136.29638530577949
 20
640.8554154632717
 30
0.0
 40
2.379999999999999
 50
8.5695469999987441
 51
165.43045300000159
  0
ARC
  5
267E
  8
0
 10
132.99638530577951
 20
641.03939746327183
 30
0.0
 40
1.8
 50
180.0
 51
223.82118700000069
  0
LINE
  5
267F
  8
0
 10
133.29724730577959
 20
638.12627746327189
 30
0.0
 11
131.69767730577951
 21
639.79305946327179
 31
0.0
  0
LINE
  5
2680
  8
1
 10
126.3963853057795
 20
654.60041546327193
 30
0.0
 11
155.29638530577949
 21
654.60041546327193
 31
0.0
  0
LINE
  5
2682
  8
0
 10
147.64927530577961
 20
669.97830546327179
 30
0.0
 11
148.2101373057796
 21
669.39387746327179
 31
0.0
  0
LINE
  5
2683
  8
0
 10
148.2101373057796
 20
669.39387746327179
 30
0.0
 11
149.30638530577949
 21
670.49012446327185
 31
0.0
  0
LINE
  5
2684
  8
0
 10
142.84724730577949
 20
671.07455346327185
 30
0.0
 11
141.2476773057796
 21
669.40777146327184
 31
0.0
  0
ARC
  5
2685
  8
0
 10
145.84638530577951
 20
668.17541546327175
 30
0.0
 40
2.5499999999999989
 50
45.0
 51
137.6735720000008
  0
ARC
  5
2686
  8
0
 10
145.74638530577951
 20
668.17541546327175
 30
0.0
 40
4.0999999999999988
 50
45.0
 51
135.0
  0
LINE
  5
2687
  8
0
 10
138.66013730577961
 20
669.39387746327179
 30
0.0
 11
139.7563853057795
 21
670.49012446327185
 31
0.0
  0
LINE
  5
2688
  8
0
 10
138.09927530577951
 20
669.97830546327179
 30
0.0
 11
138.66013730577961
 21
669.39387746327179
 31
0.0
  0
ARC
  5
268A
  8
0
 10
136.29638530577949
 20
668.17541546327175
 30
0.0
 40
2.5499999999999989
 50
45.0
 51
137.6735720000008
  0
ARC
  5
268B
  8
0
 10
136.19638530577959
 20
668.17541546327175
 30
0.0
 40
4.0999999999999988
 50
45.0
 51
135.0
  0
LINE
  5
268C
  8
0
 10
145.84638530577951
 20
649.65041546327177
 30
0.0
 11
145.84638530577951
 21
659.55041546327186
 31
0.0
  0
LINE
  5
268D
  8
0
 10
145.34638530577951
 20
649.65041546327177
 30
0.0
 11
145.34638530577951
 21
659.55041546327186
 31
0.0
  0
LINE
  5
268E
  8
0
 10
136.29638530577949
 20
649.65041546327177
 30
0.0
 11
136.29638530577949
 21
659.55041546327186
 31
0.0
  0
LINE
  5
268F
  8
0
 10
135.79638530577949
 20
649.65041546327177
 30
0.0
 11
135.79638530577949
 21
659.55041546327186
 31
0.0
  0
LINE
  5
2690
  8
0
 10
143.34638530577951
 20
648.95041546327184
 30
0.0
 11
145.14638530577949
 21
648.95041546327184
 31
0.0
  0
LINE
  5
2691
  8
0
 10
143.34638530577951
 20
649.45041546327184
 30
0.0
 11
145.14638530577949
 21
649.45041546327184
 31
0.0
  0
ARC
  5
2692
  8
0
 10
143.34638530577951
 20
648.75041546327191
 30
0.0
 40
0.7
 50
90.0
 51
180.0
  0
ARC
  5
2693
  8
0
 10
143.34638530577951
 20
648.75041546327191
 30
0.0
 40
0.2
 50
90.0
 51
180.0
  0
ARC
  5
2694
  8
0
 10
145.14638530577949
 20
649.65041546327177
 30
0.0
 40
0.2
 50
270.0
 51
0.0
  0
ARC
  5
2695
  8
0
 10
145.14638530577949
 20
649.65041546327177
 30
0.0
 40
0.7
 50
270.0
 51
0.0
  0
ARC
  5
2696
  8
0
 10
135.59638530577951
 20
649.65041546327177
 30
0.0
 40
0.2
 50
270.0
 51
0.0
  0
ARC
  5
2697
  8
0
 10
133.79638530577949
 20
648.75041546327191
 30
0.0
 40
0.2
 50
90.0
 51
180.0
  0
ARC
  5
2698
  8
0
 10
133.79638530577949
 20
648.75041546327191
 30
0.0
 40
0.7
 50
90.0
 51
180.0
  0
LINE
  5
2699
  8
0
 10
133.79638530577949
 20
649.45041546327184
 30
0.0
 11
135.59638530577951
 21
649.45041546327184
 31
0.0
  0
LINE
  5
269A
  8
0
 10
133.79638530577949
 20
648.95041546327184
 30
0.0
 11
135.59638530577951
 21
648.95041546327184
 31
0.0
  0
ARC
  5
269B
  8
0
 10
135.59638530577951
 20
649.65041546327177
 30
0.0
 40
0.7
 50
270.0
 51
0.0
  0
ARC
  5
269C
  8
0
 10
148.6363853057795
 20
665.36263946327165
 30
0.0
 40
1.659999999999999
 50
0.0
 51
131.50671600000169
  0
ARC
  5
269D
  8
0
 10
148.6363853057795
 20
665.36263946327165
 30
0.0
 40
0.11
 50
0.0
 51
131.50671600000169
  0
ARC
  5
269E
  8
0
 10
145.84781530577959
 20
668.31812646327182
 30
0.0
 40
2.399999999999999
 50
338.46043599999871
 51
352.1930770000007
  0
ARC
  5
269F
  8
0
 10
145.84781530577959
 20
668.31812646327182
 30
0.0
 40
2.8700000000000001
 50
338.28414499999928
 51
353.97911799999991
  0
LINE
  5
26A0
  8
0
 10
148.51413230577961
 20
667.25621546327193
 30
0.0
 11
148.08020930577959
 21
667.43698246327176
 31
0.0
  0
LINE
  5
26A1
  8
0
 10
144.31175730577951
 20
666.47889546327178
 30
0.0
 11
143.69638530577959
 21
665.66226946327185
 31
0.0
  0
LINE
  5
26A2
  8
0
 10
143.69638530577959
 20
665.66226946327185
 30
0.0
 11
143.69638530577959
 21
665.02435546327183
 31
0.0
  0
ARC
  5
26A3
  8
0
 10
142.64638530577949
 20
668.16143346327181
 30
0.0
 40
0.25
 50
136.17881299999931
 51
180.0
  0
ARC
  5
26A4
  8
0
 10
143.34638530577951
 20
667.53614046327175
 30
0.0
 40
0.7
 50
92.999999999999105
 51
180.0
  0
ARC
  5
26A5
  8
0
 10
143.34638530577951
 20
667.53614046327175
 30
0.0
 40
0.2
 50
92.999999999999105
 51
180.0
  0
ARC
  5
26A6
  8
0
 10
145.84638530577951
 20
668.51541546327178
 30
0.0
 40
4.0999999999999988
 50
238.37279599999769
 51
311.5067160000018
  0
ARC
  5
26A7
  8
0
 10
145.84638530577951
 20
668.34541546327182
 30
0.0
 40
2.379999999999999
 50
194.56954699999829
 51
351.43045300000119
  0
LINE
  5
26A8
  8
0
 10
143.33591830577959
 20
667.7358664632718
 30
0.0
 11
149.6429873057796
 21
668.06640546327185
 31
0.0
  0
ARC
  5
26A9
  8
0
 10
145.84638530577951
 20
668.51541546327178
 30
0.0
 40
2.5499999999999989
 50
232.9999999999979
 51
311.45000000000101
  0
ARC
  5
26AA
  8
0
 10
145.8085633057795
 20
669.06709946327192
 30
0.0
 40
2.0
 50
219.8698980000004
 51
326.13010199999979
  0
LINE
  5
26AB
  8
0
 10
138.96413230577949
 20
667.25621546327193
 30
0.0
 11
138.53020930577949
 21
667.43698246327176
 31
0.0
  0
ARC
  5
26AC
  8
0
 10
136.29781530577961
 20
668.31812646327182
 30
0.0
 40
2.8700000000000001
 50
338.28414499999928
 51
353.97911799999991
  0
ARC
  5
26AD
  8
0
 10
136.29781530577961
 20
668.31812646327182
 30
0.0
 40
2.399999999999999
 50
338.46043599999871
 51
352.1930770000007
  0
ARC
  5
26AE
  8
0
 10
139.08638530577949
 20
665.36263946327165
 30
0.0
 40
0.11
 50
0.0
 51
131.50671600000169
  0
ARC
  5
26AF
  8
0
 10
139.08638530577949
 20
665.36263946327165
 30
0.0
 40
1.659999999999999
 50
0.0
 51
131.50671600000169
  0
LINE
  5
26B0
  8
0
 10
143.34638530577951
 20
660.25041546327179
 30
0.0
 11
145.14638530577949
 21
660.25041546327179
 31
0.0
  0
LINE
  5
26B1
  8
0
 10
143.34638530577951
 20
659.75041546327179
 30
0.0
 11
145.14638530577949
 21
659.75041546327179
 31
0.0
  0
ARC
  5
26B2
  8
0
 10
143.34638530577951
 20
660.45041546327184
 30
0.0
 40
0.7
 50
180.0
 51
270.0
  0
ARC
  5
26B3
  8
0
 10
143.34638530577951
 20
660.45041546327184
 30
0.0
 40
0.2
 50
180.0
 51
270.0
  0
ARC
  5
26B4
  8
0
 10
145.14638530577949
 20
659.55041546327186
 30
0.0
 40
0.2
 50
0.0
 51
90.0
  0
ARC
  5
26B5
  8
0
 10
145.14638530577949
 20
659.55041546327186
 30
0.0
 40
0.7
 50
0.0
 51
90.0
  0
LINE
  5
26B6
  8
0
 10
143.14638530577949
 20
667.53614046327175
 30
0.0
 11
143.14638530577949
 21
660.45041546327184
 31
0.0
  0
LINE
  5
26B7
  8
0
 10
142.64638530577949
 20
667.53614046327175
 30
0.0
 11
142.64638530577949
 21
660.45041546327184
 31
0.0
  0
ARC
  5
26B8
  8
0
 10
133.79638530577949
 20
667.53614046327175
 30
0.0
 40
0.2
 50
92.999999999999105
 51
180.0
  0
ARC
  5
26B9
  8
0
 10
133.79638530577949
 20
667.53614046327175
 30
0.0
 40
0.7
 50
92.999999999999105
 51
180.0
  0
ARC
  5
26BA
  8
0
 10
133.09638530577951
 20
668.16143346327181
 30
0.0
 40
0.25
 50
136.17881299999931
 51
180.0
  0
LINE
  5
26BB
  8
0
 10
134.14638530577949
 20
665.66226946327185
 30
0.0
 11
134.14638530577949
 21
665.02435546327183
 31
0.0
  0
LINE
  5
26BC
  8
0
 10
134.76175730577961
 20
666.47889546327178
 30
0.0
 11
134.14638530577949
 21
665.66226946327185
 31
0.0
  0
ARC
  5
26BD
  8
0
 10
135.59638530577951
 20
659.55041546327186
 30
0.0
 40
0.2
 50
0.0
 51
90.0
  0
ARC
  5
26BE
  8
0
 10
133.79638530577949
 20
660.45041546327184
 30
0.0
 40
0.2
 50
180.0
 51
270.0
  0
ARC
  5
26BF
  8
0
 10
133.79638530577949
 20
660.45041546327184
 30
0.0
 40
0.7
 50
180.0
 51
270.0
  0
LINE
  5
26C0
  8
0
 10
133.79638530577949
 20
659.75041546327179
 30
0.0
 11
135.59638530577951
 21
659.75041546327179
 31
0.0
  0
LINE
  5
26C1
  8
0
 10
133.79638530577949
 20
660.25041546327179
 30
0.0
 11
135.59638530577951
 21
660.25041546327179
 31
0.0
  0
LINE
  5
26C2
  8
0
 10
133.09638530577951
 20
667.53614046327175
 30
0.0
 11
133.09638530577951
 21
660.45041546327184
 31
0.0
  0
LINE
  5
26C3
  8
0
 10
133.59638530577951
 20
667.53614046327175
 30
0.0
 11
133.59638530577951
 21
660.45041546327184
 31
0.0
  0
ARC
  5
26C4
  8
0
 10
136.2585633057796
 20
669.06709946327192
 30
0.0
 40
2.0
 50
219.8698980000004
 51
326.13010199999979
  0
ARC
  5
26C5
  8
0
 10
136.29638530577949
 20
668.51541546327178
 30
0.0
 40
2.5499999999999989
 50
232.9999999999979
 51
311.45000000000101
  0
LINE
  5
26C6
  8
0
 10
133.78591830577949
 20
667.7358664632718
 30
0.0
 11
140.09298730577959
 21
668.06640546327185
 31
0.0
  0
ARC
  5
26C7
  8
0
 10
136.29638530577949
 20
668.34541546327182
 30
0.0
 40
2.379999999999999
 50
194.56954699999829
 51
351.43045300000119
  0
ARC
  5
26C8
  8
0
 10
135.59638530577951
 20
659.55041546327186
 30
0.0
 40
0.7
 50
0.0
 51
90.0
  0
ARC
  5
26C9
  8
0
 10
136.29638530577949
 20
668.51541546327178
 30
0.0
 40
4.0999999999999988
 50
238.37279599999769
 51
311.5067160000018
  0
ARC
  5
26CA
  8
0
 10
142.54638530577949
 20
668.16143346327181
 30
0.0
 40
1.8
 50
136.17881299999931
 51
180.0
  0
LINE
  5
26CB
  8
0
 10
149.6168193057795
 20
668.56572046327176
 30
0.0
 11
149.6429873057796
 21
668.06640546327185
 31
0.0
  0
LINE
  5
26CC
  8
0
 10
143.96111730577951
 20
669.89246746327183
 30
0.0
 11
142.46600930577961
 21
668.33453646327177
 31
0.0
  0
LINE
  5
26CD
  8
0
 10
143.30975030577949
 20
668.23518146327183
 30
0.0
 11
149.6168193057795
 21
668.56572046327176
 31
0.0
  0
ARC
  5
26CE
  8
0
 10
145.84638530577951
 20
668.34541546327182
 30
0.0
 40
2.379999999999999
 50
3.545853999999327
 51
182.45414599999879
  0
LINE
  5
26CF
  8
0
 10
140.06681930577949
 20
668.56572046327176
 30
0.0
 11
140.09298730577959
 21
668.06640546327185
 31
0.0
  0
LINE
  5
26D0
  8
0
 10
134.41111730577961
 20
669.89246746327183
 30
0.0
 11
132.91600930577951
 21
668.33453646327177
 31
0.0
  0
ARC
  5
26D1
  8
0
 10
136.29638530577949
 20
668.34541546327182
 30
0.0
 40
2.379999999999999
 50
3.545853999999327
 51
182.45414599999879
  0
LINE
  5
26D2
  8
0
 10
133.75975030577951
 20
668.23518146327183
 30
0.0
 11
140.06681930577949
 21
668.56572046327176
 31
0.0
  0
ARC
  5
26D3
  8
0
 10
132.99638530577951
 20
668.16143346327181
 30
0.0
 40
1.8
 50
136.17881299999931
 51
180.0
  0
LINE
  5
26D4
  8
0
 10
133.29724730577959
 20
671.07455346327185
 30
0.0
 11
131.69767730577951
 21
669.40777146327184
 31
0.0
  0
LINE
  5
2A2E
  8
0
 10
149.30638530577949
 20
670.49012446327185
 30
0.0
 11
148.6455231086444
 21
671.07455326613672
 31
0.0
  0
LINE
  5
2A2F
  8
0
 10
148.6455231086444
 20
638.12627766040691
 30
0.0
 11
149.30638530577949
 21
638.71070646327189
 31
0.0
  0
LINE
  5
2A30
  8
0
 10
139.0955231086443
 20
671.07455326613672
 30
0.0
 11
139.7563853057795
 21
670.49012446327185
 31
0.0
  0
LINE
  5
2A31
  8
0
 10
139.0955231086443
 20
638.12627766040691
 30
0.0
 11
139.7563853057795
 21
638.71070646327189
 31
0.0
  0
LINE
  5
409F
  8
2
 10
949.89638530577975
 20
667.02263846327185
 30
0.0
 11
1302.2963853057799
 21
667.02263846327185
 31
0.0
  0
LINE
  5
40A0
  8
2
 10
949.89638530577975
 20
664.41541546327176
 30
0.0
 11
1303.8963853057801
 21
664.41541546327176
 31
0.0
  0
LINE
  5
40A1
  8
2
 10
949.89638530577975
 20
644.78541546327176
 30
0.0
 11
1303.8963853057801
 21
644.78541546327176
 31
0.0
  0
LINE
  5
40A2
  8
2
 10
949.89638530577975
 20
642.1781914632719
 30
0.0
 11
1302.2963853057799
 21
642.1781914632719
 31
0.0
  0
LINE
  5
40A3
  8
0
 10
615.19638530577959
 20
639.80695346327195
 30
0.0
 11
1326.3963853057801
 21
639.80695346327195
 31
0.0
  0
LINE
  5
40A4
  8
0
 10
615.19638530577959
 20
636.92541546327186
 30
0.0
 11
1326.3963853057801
 21
636.92541546327186
 31
0.0
  0
LINE
  5
40A5
  8
0
 10
615.19638530577959
 20
669.39387646327191
 30
0.0
 11
1326.3963853057801
 21
669.39387646327191
 31
0.0
  0
LINE
  5
40A6
  8
0
 10
615.19638530577959
 20
672.27541546327188
 30
0.0
 11
1326.3963853057801
 21
672.27541546327188
 31
0.0
  0
LINE
  5
40A7
  8
1
 10
205.29638530577949
 20
654.60041546327193
 30
0.0
 11
1673.19638530578
 21
654.60041546327204
 31
0.0
  0
LINE
  5
40A9
  8
2
 10
215.29638530577949
 20
664.41541546327176
 30
0.0
 11
922.49638530577931
 21
664.41541546327176
 31
0.0
  0
LINE
  5
40AA
  8
0
 10
215.29638530577949
 20
667.02263846327185
 30
0.0
 11
922.49638530577931
 21
667.02263846327185
 31
0.0
  0
LINE
  5
40AB
  8
2
 10
215.29638530577949
 20
644.78541546327176
 30
0.0
 11
922.49638530577931
 21
644.78541546327176
 31
0.0
  0
LINE
  5
40AC
  8
0
 10
215.29638530577949
 20
642.1781914632719
 30
0.0
 11
922.49638530577931
 21
642.1781914632719
 31
0.0
  0
LINE
  5
40AD
  8
0
 10
215.29638530577949
 20
667.02263846327185
 30
0.0
 11
215.29638530577949
 21
642.1781914632719
 31
0.0
  0
LINE
  5
40AE
  8
0
 10
246.1463853057794
 20
655.00041546327191
 30
0.0
 11
246.1463853057794
 21
654.20041546327195
 31
0.0
  0
ARC
  5
40AF
  8
0
 10
231.19638530577959
 20
655.00041546327191
 30
0.0
 40
2.25
 50
0.0
 51
180.0
  0
ARC
  5
40B0
  8
0
 10
231.19638530577959
 20
654.20041546327195
 30
0.0
 40
2.25
 50
180.0
 51
0.0
  0
LINE
  5
40B1
  8
0
 10
228.94638530577959
 20
654.20041546327195
 30
0.0
 11
228.94638530577959
 21
655.00041546327191
 31
0.0
  0
LINE
  5
40B2
  8
0
 10
233.44638530577959
 20
654.20041546327195
 30
0.0
 11
233.44638530577959
 21
655.00041546327191
 31
0.0
  0
LINE
  5
40B3
  8
0
 10
241.6463853057794
 20
655.00041546327191
 30
0.0
 11
241.6463853057794
 21
654.20041546327195
 31
0.0
  0
ARC
  5
40B4
  8
0
 10
243.8963853057794
 20
654.20041546327195
 30
0.0
 40
2.25
 50
180.0
 51
0.0
  0
ARC
  5
40B5
  8
0
 10
243.8963853057794
 20
655.00041546327191
 30
0.0
 40
2.25
 50
0.0
 51
180.0
  0
LINE
  5
40B6
  8
1
 10
243.8963853057794
 20
660.60041546327193
 30
0.0
 11
243.8963853057794
 21
648.60041546327193
 31
0.0
  0
LINE
  5
40B7
  8
1
 10
231.19638530577959
 20
660.60041546327193
 30
0.0
 11
231.19638530577959
 21
648.60041546327193
 31
0.0
  0
LINE
  5
40B8
  8
0
 10
627.09638530577956
 20
668.50041546327191
 30
0.0
 11
635.09638530577956
 21
668.50041546327191
 31
0.0
  0
LINE
  5
40B9
  8
0
 10
627.09638530577956
 20
668.80041546327197
 30
0.0
 11
635.09638530577956
 21
668.80041546327197
 31
0.0
  0
LINE
  5
40BA
  8
2
 10
612.09638530577956
 20
662.35041546327193
 30
0.0
 11
687.59638530577968
 21
662.35041546327193
 31
0.0
  0
LINE
  5
40BB
  8
0
 10
627.09638530577956
 20
640.40041546327177
 30
0.0
 11
635.09638530577956
 21
640.40041546327177
 31
0.0
  0
LINE
  5
40BC
  8
0
 10
627.09638530577956
 20
640.70041546327195
 30
0.0
 11
635.09638530577956
 21
640.70041546327195
 31
0.0
  0
LINE
  5
40BD
  8
2
 10
612.09638530577956
 20
646.85041546327193
 30
0.0
 11
687.59638530577968
 21
646.85041546327193
 31
0.0
  0
ARC
  5
40BE
  8
0
 10
354.59638530577968
 20
654.60041546327193
 30
0.0
 40
2.25
 50
90.0
 51
270.0
  0
ARC
  5
40BF
  8
0
 10
355.3963853057794
 20
654.60041546327193
 30
0.0
 40
2.25
 50
270.0
 51
90.0
  0
LINE
  5
40C0
  8
0
 10
354.59638530577968
 20
652.35041546327193
 30
0.0
 11
355.3963853057794
 21
652.35041546327193
 31
0.0
  0
LINE
  5
40C1
  8
0
 10
354.59638530577968
 20
656.85041546327193
 30
0.0
 11
355.3963853057794
 21
656.85041546327193
 31
0.0
  0
LINE
  5
40C2
  8
1
 10
354.99638530577931
 20
660.60041546327193
 30
0.0
 11
354.99638530577931
 21
648.60041546327193
 31
0.0
  0
LINE
  5
40C4
  8
2
 10
627.09638530577956
 20
667.02263846327185
 30
0.0
 11
627.09638530577956
 21
642.1781914632719
 31
0.0
  0
ARC
  5
40C6
  8
0
 10
594.19638530577959
 20
651.18641546327194
 30
0.0
 40
2.0
 50
180.0
 51
249.4439550000063
  0
ARC
  5
40C7
  8
0
 10
593.59638530577956
 20
650.95041546327195
 30
0.0
 40
2.6000000000000001
 50
180.0
 51
0.0
  0
ARC
  5
40C8
  8
0
 10
593.59638530577956
 20
658.25041546327191
 30
0.0
 40
2.6000000000000001
 50
0.0
 51
180.0
  0
ARC
  5
40C9
  8
0
 10
594.19638530577959
 20
658.01441446327181
 30
0.0
 40
2.0
 50
110.5560449999936
 51
180.0
  0
LINE
  5
40CA
  8
1
 10
570.89638530577929
 20
660.60041546327193
 30
0.0
 11
570.89638530577929
 21
648.60041546327193
 31
0.0
  0
LINE
  5
40CB
  8
0
 10
590.99638530577931
 20
650.95041546327195
 30
0.0
 11
590.99638530577931
 21
658.25041546327191
 31
0.0
  0
LINE
  5
40CC
  8
0
 10
592.19638530577947
 20
651.18641546327194
 30
0.0
 11
592.19638530577947
 21
658.01441446327181
 31
0.0
  0
ARC
  5
40CD
  8
0
 10
571.29638530577949
 20
654.60041546327193
 30
0.0
 40
2.25
 50
270.0
 51
90.0
  0
LINE
  5
40CE
  8
0
 10
570.49638530577931
 20
652.35041546327193
 30
0.0
 11
571.29638530577949
 21
652.35041546327193
 31
0.0
  0
LINE
  5
40CF
  8
0
 10
570.49638530577931
 20
656.85041546327193
 30
0.0
 11
571.29638530577949
 21
656.85041546327193
 31
0.0
  0
ARC
  5
40D0
  8
0
 10
570.49638530577931
 20
654.60041546327193
 30
0.0
 40
2.25
 50
90.0
 51
270.0
  0
CIRCLE
  5
40D1
  8
2
 10
631.09638530577956
 20
661.75041546327191
 30
0.0
 40
2.1000000000000001
  0
CIRCLE
  5
40D2
  8
2
 10
631.09638530577956
 20
661.75041546327191
 30
0.0
 40
1.149999999999999
  0
LINE
  5
40D3
  8
2
 10
612.09638530577956
 20
662.35041546327193
 30
0.0
 11
596.19638530577947
 21
660.90041546327177
 31
0.0
  0
LINE
  5
40D4
  8
2
 10
596.19638530577947
 20
660.90041546327177
 30
0.0
 11
594.98737590202563
 21
660.4470367690858
 31
0.0
  0
LINE
  5
40D5
  8
2
 10
616.04638530577949
 20
651.95041546327195
 30
0.0
 11
621.34638530577956
 21
651.95041546327195
 31
0.0
  0
LINE
  5
40D6
  8
2
 10
616.04638530577949
 20
657.25041546327191
 30
0.0
 11
621.34638530577956
 21
657.25041546327191
 31
0.0
  0
POLYLINE
  8
0
  5
435A
  66
     1
 10
0.000000
 20
0.000000
 30
0.000000
  70
     8
  0
VERTEX
  8
0
  5
435B
 10
617.496
 20
640.307
 30
0.000000
  70
    32
  0
VERTEX
  8
0
  5
435C
 10
617.512
 20
640.325
 30
0.000000
  70
    32
  0
VERTEX
  8
0
  5
435D
 10
617.527
 20
640.342
 30
0.000000
  70
    32
  0
VERTEX
  8
0
  5
435E
 10
617.543
 20
640.360
 30
0.000000
  70
    32
  0
VERTEX
  8
0
  5
435F
 10
617.558
 20
640.377
 30
0.000000
  70
    32
  0
VERTEX
  8
0
  5
4360
 10
617.574
 20
640.395
 30
0.000000
  70
    32
  0
VERTEX
  8
0
  5
4361
 10
617.589
 20
640.413
 30
0.000000
  70
    32
  0
VERTEX
  8
0
  5
4362
 10
617.604
 20
640.430
 30
0.000000
  70
    32
  0
VERTEX
  8
0
  5
4363
 10
617.620
 20
640.448
 30
0.000000
  70
    32
  0
VERTEX
  8
0
  5
4364
 10
617.635
 20
640.465
 30
0.000000
  70
    32
  0
VERTEX
  8
0
  5
4365
 10
617.651
 20
640.483
 30
0.000000
  70
    32
  0
VERTEX
  8
0
  5
4366
 10
617.666
 20
640.500
 30
0.000000
  70
    32
  0
VERTEX
  8
0
  5
4367
 10
617.682
 20
640.518
 30
0.000000
  70
    32
  0
VERTEX
  8
0
  5
4368
 10
617.697
 20
640.535
 30
0.000000
  70
    32
  0
VERTEX
  8
0
  5
4369
 10
617.713
 20
640.553
 30
0.000000
  70
    32
  0
VERTEX
  8
0
  5
436A
 10
617.728
 20
640.570
 30
0.000000
  70
    32
  0
VERTEX
  8
0
  5
436B
 10
617.744
 20
640.588
 30
0.000000
  70
    32
  0
VERTEX
  8
0
  5
436C
 10
617.759
 20
640.605
 30
0.000000
  70
    32
  0
VERTEX
  8
0
  5
436D
 10
617.775
 20
640.623
 30
0.000000
  70
    32
  0
VERTEX
  8
0
  5
436E
 10
617.791
 20
640.640
 30
0.000000
  70
    32
  0
VERTEX
  8
0
  5
436F
 10
617.806
 20
640.657
 30
0.000000
  70
    32
  0
VERTEX
  8
0
  5
4370
 10
617.822
 20
640.674
 30
0.000000
  70
    32
  0
VERTEX
  8
0
  5
4371
 10
617.838
 20
640.692
 30
0.000000
  70
    32
  0
VERTEX
  8
0
  5
4372
 10
617.853
 20
640.709
 30
0.000000
  70
    32
  0
VERTEX
  8
0
  5
4373
 10
617.869
 20
640.726
 30
0.000000
  70
    32
  0
VERTEX
  8
0
  5
4374
 10
617.885
 20
640.743
 30
0.000000
  70
    32
  0
VERTEX
  8
0
  5
4375
 10
617.900
 20
640.760
 30
0.000000
  70
    32
  0
VERTEX
  8
0
  5
4376
 10
617.916
 20
640.777
 30
0.000000
  70
    32
  0
VERTEX
  8
0
  5
4377
 10
617.932
 20
640.794
 30
0.000000
  70
    32
  0
VERTEX
  8
0
  5
4378
 10
617.948
 20
640.811
 30
0.000000
  70
    32
  0
VERTEX
  8
0
  5
4379
 10
617.964
 20
640.828
 30
0.000000
  70
    32
  0
VERTEX
  8
0
  5
437A
 10
617.980
 20
640.845
 30
0.000000
  70
    32
  0
VERTEX
  8
0
  5
437B
 10
617.996
 20
640.862
 30
0.000000
  70
    32
  0
VERTEX
  8
0
  5
437C
 10
618.012
 20
640.878
 30
0.000000
  70
    32
  0
VERTEX
  8
0
  5
437D
 10
618.028
 20
640.895
 30
0.000000
  70
    32
  0
VERTEX
  8
0
  5
437E
 10
618.044
 20
640.912
 30
0.000000
  70
    32
  0
VERTEX
  8
0
  5
437F
 10
618.060
 20
640.928
 30
0.000000
  70
    32
  0
VERTEX
  8
0
  5
4380
 10
618.076
 20
640.945
 30
0.000000
  70
    32
  0
VERTEX
  8
0
  5
4381
 10
618.092
 20
640.961
 30
0.000000
  70
    32
  0
VERTEX
  8
0
  5
4382
 10
618.108
 20
640.977
 30
0.000000
  70
    32
  0
VERTEX
  8
0
  5
4383
 10
618.124
 20
640.994
 30
0.000000
  70
    32
  0
VERTEX
  8
0
  5
4384
 10
618.141
 20
641.010
 30
0.000000
  70
    32
  0
VERTEX
  8
0
  5
4385
 10
618.157
 20
641.026
 30
0.000000
  70
    32
  0
VERTEX
  8
0
  5
4386
 10
618.173
 20
641.042
 30
0.000000
  70
    32
  0
VERTEX
  8
0
  5
4387
 10
618.190
 20
641.058
 30
0.000000
  70
    32
  0
VERTEX
  8
0
  5
4388
 10
618.206
 20
641.074
 30
0.000000
  70
    32
  0
VERTEX
  8
0
  5
4389
 10
618.222
 20
641.090
 30
0.000000
  70
    32
  0
VERTEX
  8
0
  5
438A
 10
618.239
 20
641.106
 30
0.000000
  70
    32
  0
VERTEX
  8
0
  5
438B
 10
618.256
 20
641.121
 30
0.000000
  70
    32
  0
VERTEX
  8
0
  5
438C
 10
618.272
 20
641.137
 30
0.000000
  70
    32
  0
VERTEX
  8
0
  5
438D
 10
618.289
 20
641.152
 30
0.000000
  70
    32
  0
VERTEX
  8
0
  5
438E
 10
618.306
 20
641.168
 30
0.000000
  70
    32
  0
VERTEX
  8
0
  5
438F
 10
618.322
 20
641.183
 30
0.000000
  70
    32
  0
VERTEX
  8
0
  5
4390
 10
618.339
 20
641.198
 30
0.000000
  70
    32
  0
VERTEX
  8
0
  5
4391
 10
618.356
 20
641.214
 30
0.000000
  70
    32
  0
VERTEX
  8
0
  5
4392
 10
618.373
 20
641.229
 30
0.000000
  70
    32
  0
VERTEX
  8
0
  5
4393
 10
618.390
 20
641.244
 30
0.000000
  70
    32
  0
VERTEX
  8
0
  5
4394
 10
618.407
 20
641.259
 30
0.000000
  70
    32
  0
VERTEX
  8
0
  5
4395
 10
618.424
 20
641.273
 30
0.000000
  70
    32
  0
VERTEX
  8
0
  5
4396
 10
618.441
 20
641.288
 30
0.000000
  70
    32
  0
VERTEX
  8
0
  5
4397
 10
618.458
 20
641.303
 30
0.000000
  70
    32
  0
VERTEX
  8
0
  5
4398
 10
618.476
 20
641.317
 30
0.000000
  70
    32
  0
VERTEX
  8
0
  5
4399
 10
618.493
 20
641.331
 30
0.000000
  70
    32
  0
VERTEX
  8
0
  5
439A
 10
618.510
 20
641.346
 30
0.000000
  70
    32
  0
VERTEX
  8
0
  5
439B
 10
618.528
 20
641.360
 30
0.000000
  70
    32
  0
VERTEX
  8
0
  5
439C
 10
618.545
 20
641.374
 30
0.000000
  70
    32
  0
VERTEX
  8
0
  5
439D
 10
618.563
 20
641.388
 30
0.000000
  70
    32
  0
VERTEX
  8
0
  5
439E
 10
618.581
 20
641.402
 30
0.000000
  70
    32
  0
VERTEX
  8
0
  5
439F
 10
618.598
 20
641.415
 30
0.000000
  70
    32
  0
VERTEX
  8
0
  5
43A0
 10
618.616
 20
641.429
 30
0.000000
  70
    32
  0
VERTEX
  8
0
  5
43A1
 10
618.634
 20
641.442
 30
0.000000
  70
    32
  0
VERTEX
  8
0
  5
43A2
 10
618.652
 20
641.456
 30
0.000000
  70
    32
  0
VERTEX
  8
0
  5
43A3
 10
618.670
 20
641.469
 30
0.000000
  70
    32
  0
VERTEX
  8
0
  5
43A4
 10
618.688
 20
641.482
 30
0.000000
  70
    32
  0
VERTEX
  8
0
  5
43A5
 10
618.706
 20
641.495
 30
0.000000
  70
    32
  0
VERTEX
  8
0
  5
43A6
 10
618.724
 20
641.508
 30
0.000000
  70
    32
  0
VERTEX
  8
0
  5
43A7
 10
618.743
 20
641.521
 30
0.000000
  70
    32
  0
VERTEX
  8
0
  5
43A8
 10
618.761
 20
641.533
 30
0.000000
  70
    32
  0
VERTEX
  8
0
  5
43A9
 10
618.780
 20
641.546
 30
0.000000
  70
    32
  0
VERTEX
  8
0
  5
43AA
 10
618.798
 20
641.558
 30
0.000000
  70
    32
  0
VERTEX
  8
0
  5
43AB
 10
618.817
 20
641.570
 30
0.000000
  70
    32
  0
VERTEX
  8
0
  5
43AC
 10
618.835
 20
641.582
 30
0.000000
  70
    32
  0
VERTEX
  8
0
  5
43AD
 10
618.854
 20
641.594
 30
0.000000
  70
    32
  0
VERTEX
  8
0
  5
43AE
 10
618.873
 20
641.606
 30
0.000000
  70
    32
  0
VERTEX
  8
0
  5
43AF
 10
618.892
 20
641.618
 30
0.000000
  70
    32
  0
VERTEX
  8
0
  5
43B0
 10
618.911
 20
641.629
 30
0.000000
  70
    32
  0
VERTEX
  8
0
  5
43B1
 10
618.930
 20
641.640
 30
0.000000
  70
    32
  0
VERTEX
  8
0
  5
43B2
 10
618.949
 20
641.652
 30
0.000000
  70
    32
  0
VERTEX
  8
0
  5
43B3
 10
618.969
 20
641.663
 30
0.000000
  70
    32
  0
VERTEX
  8
0
  5
43B4
 10
618.988
 20
641.674
 30
0.000000
  70
    32
  0
VERTEX
  8
0
  5
43B5
 10
619.008
 20
641.684
 30
0.000000
  70
    32
  0
VERTEX
  8
0
  5
43B6
 10
619.027
 20
641.695
 30
0.000000
  70
    32
  0
VERTEX
  8
0
  5
43B7
 10
619.047
 20
641.705
 30
0.000000
  70
    32
  0
VERTEX
  8
0
  5
43B8
 10
619.067
 20
641.716
 30
0.000000
  70
    32
  0
VERTEX
  8
0
  5
43B9
 10
619.086
 20
641.726
 30
0.000000
  70
    32
  0
VERTEX
  8
0
  5
43BA
 10
619.106
 20
641.736
 30
0.000000
  70
    32
  0
VERTEX
  8
0
  5
43BB
 10
619.126
 20
641.746
 30
0.000000
  70
    32
  0
VERTEX
  8
0
  5
43BC
 10
619.146
 20
641.755
 30
0.000000
  70
    32
  0
VERTEX
  8
0
  5
43BD
 10
619.166
 20
641.765
 30
0.000000
  70
    32
  0
VERTEX
  8
0
  5
43BE
 10
619.187
 20
641.774
 30
0.000000
  70
    32
  0
VERTEX
  8
0
  5
43BF
 10
619.207
 20
641.784
 30
0.000000
  70
    32
  0
VERTEX
  8
0
  5
43C0
 10
619.227
 20
641.793
 30
0.000000
  70
    32
  0
VERTEX
  8
0
  5
43C1
 10
619.248
 20
641.802
 30
0.000000
  70
    32
  0
VERTEX
  8
0
  5
43C2
 10
619.268
 20
641.811
 30
0.000000
  70
    32
  0
VERTEX
  8
0
  5
43C3
 10
619.289
 20
641.820
 30
0.000000
  70
    32
  0
VERTEX
  8
0
  5
43C4
 10
619.310
 20
641.828
 30
0.000000
  70
    32
  0
VERTEX
  8
0
  5
43C5
 10
619.330
 20
641.837
 30
0.000000
  70
    32
  0
VERTEX
  8
0
  5
43C6
 10
619.351
 20
641.845
 30
0.000000
  70
    32
  0
VERTEX
  8
0
  5
43C7
 10
619.372
 20
641.854
 30
0.000000
  70
    32
  0
VERTEX
  8
0
  5
43C8
 10
619.393
 20
641.862
 30
0.000000
  70
    32
  0
VERTEX
  8
0
  5
43C9
 10
619.414
 20
641.870
 30
0.000000
  70
    32
  0
VERTEX
  8
0
  5
43CA
 10
619.435
 20
641.878
 30
0.000000
  70
    32
  0
VERTEX
  8
0
  5
43CB
 10
619.456
 20
641.886
 30
0.000000
  70
    32
  0
VERTEX
  8
0
  5
43CC
 10
619.478
 20
641.894
 30
0.000000
  70
    32
  0
VERTEX
  8
0
  5
43CD
 10
619.499
 20
641.901
 30
0.000000
  70
    32
  0
VERTEX
  8
0
  5
43CE
 10
619.520
 20
641.909
 30
0.000000
  70
    32
  0
VERTEX
  8
0
  5
43CF
 10
619.541
 20
641.917
 30
0.000000
  70
    32
  0
VERTEX
  8
0
  5
43D0
 10
619.563
 20
641.924
 30
0.000000
  70
    32
  0
VERTEX
  8
0
  5
43D1
 10
619.584
 20
641.931
 30
0.000000
  70
    32
  0
VERTEX
  8
0
  5
43D2
 10
619.606
 20
641.938
 30
0.000000
  70
    32
  0
VERTEX
  8
0
  5
43D3
 10
619.628
 20
641.946
 30
0.000000
  70
    32
  0
VERTEX
  8
0
  5
43D4
 10
619.649
 20
641.953
 30
0.000000
  70
    32
  0
VERTEX
  8
0
  5
43D5
 10
619.671
 20
641.960
 30
0.000000
  70
    32
  0
VERTEX
  8
0
  5
43D6
 10
619.693
 20
641.966
 30
0.000000
  70
    32
  0
VERTEX
  8
0
  5
43D7
 10
619.714
 20
641.973
 30
0.000000
  70
    32
  0
VERTEX
  8
0
  5
43D8
 10
619.736
 20
641.980
 30
0.000000
  70
    32
  0
VERTEX
  8
0
  5
43D9
 10
619.758
 20
641.987
 30
0.000000
  70
    32
  0
VERTEX
  8
0
  5
43DA
 10
619.780
 20
641.993
 30
0.000000
  70
    32
  0
VERTEX
  8
0
  5
43DB
 10
619.802
 20
642.000
 30
0.000000
  70
    32
  0
VERTEX
  8
0
  5
43DC
 10
619.824
 20
642.006
 30
0.000000
  70
    32
  0
VERTEX
  8
0
  5
43DD
 10
619.846
 20
642.012
 30
0.000000
  70
    32
  0
VERTEX
  8
0
  5
43DE
 10
619.868
 20
642.019
 30
0.000000
  70
    32
  0
VERTEX
  8
0
  5
43DF
 10
619.890
 20
642.025
 30
0.000000
  70
    32
  0
VERTEX
  8
0
  5
43E0
 10
619.912
 20
642.031
 30
0.000000
  70
    32
  0
VERTEX
  8
0
  5
43E1
 10
619.935
 20
642.037
 30
0.000000
  70
    32
  0
VERTEX
  8
0
  5
43E2
 10
619.957
 20
642.043
 30
0.000000
  70
    32
  0
VERTEX
  8
0
  5
43E3
 10
619.979
 20
642.049
 30
0.000000
  70
    32
  0
VERTEX
  8
0
  5
43E4
 10
620.001
 20
642.055
 30
0.000000
  70
    32
  0
VERTEX
  8
0
  5
43E5
 10
620.024
 20
642.061
 30
0.000000
  70
    32
  0
VERTEX
  8
0
  5
43E6
 10
620.046
 20
642.067
 30
0.000000
  70
    32
  0
VERTEX
  8
0
  5
43E7
 10
620.068
 20
642.073
 30
0.000000
  70
    32
  0
VERTEX
  8
0
  5
43E8
 10
620.091
 20
642.079
 30
0.000000
  70
    32
  0
VERTEX
  8
0
  5
43E9
 10
620.113
 20
642.085
 30
0.000000
  70
    32
  0
VERTEX
  8
0
  5
43EA
 10
620.136
 20
642.090
 30
0.000000
  70
    32
  0
VERTEX
  8
0
  5
43EB
 10
620.158
 20
642.096
 30
0.000000
  70
    32
  0
VERTEX
  8
0
  5
43EC
 10
620.180
 20
642.102
 30
0.000000
  70
    32
  0
VERTEX
  8
0
  5
43ED
 10
620.203
 20
642.107
 30
0.000000
  70
    32
  0
VERTEX
  8
0
  5
43EE
 10
620.225
 20
642.113
 30
0.000000
  70
    32
  0
VERTEX
  8
0
  5
43EF
 10
620.248
 20
642.118
 30
0.000000
  70
    32
  0
VERTEX
  8
0
  5
43F0
 10
620.271
 20
642.124
 30
0.000000
  70
    32
  0
VERTEX
  8
0
  5
43F1
 10
620.293
 20
642.129
 30
0.000000
  70
    32
  0
VERTEX
  8
0
  5
43F2
 10
620.316
 20
642.135
 30
0.000000
  70
    32
  0
VERTEX
  8
0
  5
43F3
 10
620.338
 20
642.140
 30
0.000000
  70
    32
  0
VERTEX
  8
0
  5
43F4
 10
620.361
 20
642.146
 30
0.000000
  70
    32
  0
VERTEX
  8
0
  5
43F5
 10
620.383
 20
642.151
 30
0.000000
  70
    32
  0
VERTEX
  8
0
  5
43F6
 10
620.406
 20
642.157
 30
0.000000
  70
    32
  0
VERTEX
  8
0
  5
43F7
 10
620.429
 20
642.162
 30
0.000000
  70
    32
  0
VERTEX
  8
0
  5
43F8
 10
620.451
 20
642.167
 30
0.000000
  70
    32
  0
VERTEX
  8
0
  5
43F9
 10
620.474
 20
642.173
 30
0.000000
  70
    32
  0
VERTEX
  8
0
  5
43FA
 10
620.496
 20
642.178
 30
0.000000
  70
    32
  0
SEQEND
  8
0
  5
43FB
  0
LINE
  5
40D8
  8
2
 10
618.69638530577959
 20
651.95041546327195
 30
0.0
 11
618.69638530577959
 21
657.25041546327191
 31
0.0
  0
LINE
  5
40D9
  8
2
 10
616.04638530577949
 20
651.95041546327195
 30
0.0
 11
616.04638530577949
 21
657.25041546327191
 31
0.0
  0
LINE
  5
40DA
  8
0
 10
615.19638530577959
 20
636.92541546327186
 30
0.0
 11
615.19638530577959
 21
642.1781914632719
 31
0.0
  0
LINE
  5
40DB
  8
0
 10
617.49638530577931
 20
640.30695346327195
 30
0.0
 11
617.49638530577931
 21
639.80695346327195
 31
0.0
  0
LINE
  5
40DC
  8
2
 10
621.34638530577956
 20
651.95041546327195
 30
0.0
 11
621.34638530577956
 21
657.25041546327191
 31
0.0
  0
LINE
  5
40DD
  8
2
 10
621.34638530577956
 20
650.60041546327193
 30
0.0
 11
621.34638530577956
 21
658.60041546327193
 31
0.0
  0
LINE
  5
40DE
  8
0
 10
627.09638530577956
 20
640.40041546327177
 30
0.0
 11
627.09638530577956
 21
642.1781914632719
 31
0.0
  0
CIRCLE
  5
40DF
  8
2
 10
631.09638530577956
 20
647.45041546327195
 30
0.0
 40
2.1000000000000001
  0
CIRCLE
  5
40E0
  8
2
 10
631.09638530577956
 20
647.45041546327195
 30
0.0
 40
1.149999999999999
  0
LINE
  5
40E1
  8
2
 10
612.09638530577956
 20
646.85041546327193
 30
0.0
 11
596.19638530577947
 21
648.30041546327197
 31
0.0
  0
ARC
  5
40E2
  8
0
 10
609.8963853057794
 20
653.20041546327195
 30
0.0
 40
2.5
 50
180.0
 51
0.0
  0
ARC
  5
40E3
  8
0
 10
609.8963853057794
 20
656.00041546327191
 30
0.0
 40
2.5
 50
0.0
 51
180.0
  0
LINE
  5
40E4
  8
0
 10
596.19638530577947
 20
650.95041546327195
 30
0.0
 11
596.19638530577947
 21
658.25041546327191
 31
0.0
  0
LINE
  5
40E5
  8
0
 10
607.3963853057794
 20
653.20041546327195
 30
0.0
 11
607.3963853057794
 21
656.00041546327191
 31
0.0
  0
LINE
  5
40E6
  8
0
 10
612.3963853057794
 20
653.20041546327195
 30
0.0
 11
612.3963853057794
 21
656.00041546327191
 31
0.0
  0
LINE
  5
40E7
  8
2
 10
611.34638530577968
 20
650.60041546327193
 30
0.0
 11
611.34638530577968
 21
651.16387427783047
 31
0.0
  0
LINE
  5
40E8
  8
0
 10
594.98737545827339
 20
648.75379387645614
 30
0.0
 11
593.49413830577942
 21
649.31375746327194
 31
0.0
  0
LINE
  5
40E9
  8
2
 10
611.34638530577968
 20
650.60041546327193
 30
0.0
 11
621.34638530577956
 21
650.60041546327193
 31
0.0
  0
LINE
  5
40EA
  8
2
 10
611.34638530577968
 20
658.60041546327193
 30
0.0
 11
621.34638530577956
 21
658.60041546327193
 31
0.0
  0
LINE
  5
40EB
  8
0
 10
615.19638530577959
 20
667.02263846327185
 30
0.0
 11
615.19638530577959
 21
672.27541546327188
 31
0.0
  0
POLYLINE
  8
0
  5
43FC
  66
     1
 10
0.000000
 20
0.000000
 30
0.000000
  70
     8
  0
VERTEX
  8
0
  5
43FD
 10
617.496
 20
668.894
 30
0.000000
  70
    32
  0
VERTEX
  8
0
  5
43FE
 10
617.512
 20
668.876
 30
0.000000
  70
    32
  0
VERTEX
  8
0
  5
43FF
 10
617.527
 20
668.859
 30
0.000000
  70
    32
  0
VERTEX
  8
0
  5
4400
 10
617.543
 20
668.841
 30
0.000000
  70
    32
  0
VERTEX
  8
0
  5
4401
 10
617.558
 20
668.823
 30
0.000000
  70
    32
  0
VERTEX
  8
0
  5
4402
 10
617.574
 20
668.806
 30
0.000000
  70
    32
  0
VERTEX
  8
0
  5
4403
 10
617.589
 20
668.788
 30
0.000000
  70
    32
  0
VERTEX
  8
0
  5
4404
 10
617.604
 20
668.771
 30
0.000000
  70
    32
  0
VERTEX
  8
0
  5
4405
 10
617.620
 20
668.753
 30
0.000000
  70
    32
  0
VERTEX
  8
0
  5
4406
 10
617.635
 20
668.735
 30
0.000000
  70
    32
  0
VERTEX
  8
0
  5
4407
 10
617.651
 20
668.718
 30
0.000000
  70
    32
  0
VERTEX
  8
0
  5
4408
 10
617.666
 20
668.700
 30
0.000000
  70
    32
  0
VERTEX
  8
0
  5
4409
 10
617.682
 20
668.683
 30
0.000000
  70
    32
  0
VERTEX
  8
0
  5
440A
 10
617.697
 20
668.665
 30
0.000000
  70
    32
  0
VERTEX
  8
0
  5
440B
 10
617.713
 20
668.648
 30
0.000000
  70
    32
  0
VERTEX
  8
0
  5
440C
 10
617.728
 20
668.630
 30
0.000000
  70
    32
  0
VERTEX
  8
0
  5
440D
 10
617.744
 20
668.613
 30
0.000000
  70
    32
  0
VERTEX
  8
0
  5
440E
 10
617.759
 20
668.596
 30
0.000000
  70
    32
  0
VERTEX
  8
0
  5
440F
 10
617.775
 20
668.578
 30
0.000000
  70
    32
  0
VERTEX
  8
0
  5
4410
 10
617.791
 20
668.561
 30
0.000000
  70
    32
  0
VERTEX
  8
0
  5
4411
 10
617.806
 20
668.544
 30
0.000000
  70
    32
  0
VERTEX
  8
0
  5
4412
 10
617.822
 20
668.526
 30
0.000000
  70
    32
  0
VERTEX
  8
0
  5
4413
 10
617.838
 20
668.509
 30
0.000000
  70
    32
  0
VERTEX
  8
0
  5
4414
 10
617.853
 20
668.492
 30
0.000000
  70
    32
  0
VERTEX
  8
0
  5
4415
 10
617.869
 20
668.475
 30
0.000000
  70
    32
  0
VERTEX
  8
0
  5
4416
 10
617.885
 20
668.458
 30
0.000000
  70
    32
  0
VERTEX
  8
0
  5
4417
 10
617.900
 20
668.441
 30
0.000000
  70
    32
  0
VERTEX
  8
0
  5
4418
 10
617.916
 20
668.424
 30
0.000000
  70
    32
  0
VERTEX
  8
0
  5
4419
 10
617.932
 20
668.407
 30
0.000000
  70
    32
  0
VERTEX
  8
0
  5
441A
 10
617.948
 20
668.390
 30
0.000000
  70
    32
  0
VERTEX
  8
0
  5
441B
 10
617.964
 20
668.373
 30
0.000000
  70
    32
  0
VERTEX
  8
0
  5
441C
 10
617.980
 20
668.356
 30
0.000000
  70
    32
  0
VERTEX
  8
0
  5
441D
 10
617.996
 20
668.339
 30
0.000000
  70
    32
  0
VERTEX
  8
0
  5
441E
 10
618.012
 20
668.323
 30
0.000000
  70
    32
  0
VERTEX
  8
0
  5
441F
 10
618.028
 20
668.306
 30
0.000000
  70
    32
  0
VERTEX
  8
0
  5
4420
 10
618.044
 20
668.289
 30
0.000000
  70
    32
  0
VERTEX
  8
0
  5
4421
 10
618.060
 20
668.273
 30
0.000000
  70
    32
  0
VERTEX
  8
0
  5
4422
 10
618.076
 20
668.256
 30
0.000000
  70
    32
  0
VERTEX
  8
0
  5
4423
 10
618.092
 20
668.240
 30
0.000000
  70
    32
  0
VERTEX
  8
0
  5
4424
 10
618.108
 20
668.224
 30
0.000000
  70
    32
  0
VERTEX
  8
0
  5
4425
 10
618.124
 20
668.207
 30
0.000000
  70
    32
  0
VERTEX
  8
0
  5
4426
 10
618.141
 20
668.191
 30
0.000000
  70
    32
  0
VERTEX
  8
0
  5
4427
 10
618.157
 20
668.175
 30
0.000000
  70
    32
  0
VERTEX
  8
0
  5
4428
 10
618.173
 20
668.159
 30
0.000000
  70
    32
  0
VERTEX
  8
0
  5
4429
 10
618.190
 20
668.143
 30
0.000000
  70
    32
  0
VERTEX
  8
0
  5
442A
 10
618.206
 20
668.127
 30
0.000000
  70
    32
  0
VERTEX
  8
0
  5
442B
 10
618.222
 20
668.111
 30
0.000000
  70
    32
  0
VERTEX
  8
0
  5
442C
 10
618.239
 20
668.095
 30
0.000000
  70
    32
  0
VERTEX
  8
0
  5
442D
 10
618.256
 20
668.080
 30
0.000000
  70
    32
  0
VERTEX
  8
0
  5
442E
 10
618.272
 20
668.064
 30
0.000000
  70
    32
  0
VERTEX
  8
0
  5
442F
 10
618.289
 20
668.048
 30
0.000000
  70
    32
  0
VERTEX
  8
0
  5
4430
 10
618.306
 20
668.033
 30
0.000000
  70
    32
  0
VERTEX
  8
0
  5
4431
 10
618.322
 20
668.018
 30
0.000000
  70
    32
  0
VERTEX
  8
0
  5
4432
 10
618.339
 20
668.002
 30
0.000000
  70
    32
  0
VERTEX
  8
0
  5
4433
 10
618.356
 20
667.987
 30
0.000000
  70
    32
  0
VERTEX
  8
0
  5
4434
 10
618.373
 20
667.972
 30
0.000000
  70
    32
  0
VERTEX
  8
0
  5
4435
 10
618.390
 20
667.957
 30
0.000000
  70
    32
  0
VERTEX
  8
0
  5
4436
 10
618.407
 20
667.942
 30
0.000000
  70
    32
  0
VERTEX
  8
0
  5
4437
 10
618.424
 20
667.928
 30
0.000000
  70
    32
  0
VERTEX
  8
0
  5
4438
 10
618.441
 20
667.913
 30
0.000000
  70
    32
  0
VERTEX
  8
0
  5
4439
 10
618.458
 20
667.898
 30
0.000000
  70
    32
  0
VERTEX
  8
0
  5
443A
 10
618.476
 20
667.884
 30
0.000000
  70
    32
  0
VERTEX
  8
0
  5
443B
 10
618.493
 20
667.869
 30
0.000000
  70
    32
  0
VERTEX
  8
0
  5
443C
 10
618.510
 20
667.855
 30
0.000000
  70
    32
  0
VERTEX
  8
0
  5
443D
 10
618.528
 20
667.841
 30
0.000000
  70
    32
  0
VERTEX
  8
0
  5
443E
 10
618.545
 20
667.827
 30
0.000000
  70
    32
  0
VERTEX
  8
0
  5
443F
 10
618.563
 20
667.813
 30
0.000000
  70
    32
  0
VERTEX
  8
0
  5
4440
 10
618.581
 20
667.799
 30
0.000000
  70
    32
  0
VERTEX
  8
0
  5
4441
 10
618.598
 20
667.785
 30
0.000000
  70
    32
  0
VERTEX
  8
0
  5
4442
 10
618.616
 20
667.772
 30
0.000000
  70
    32
  0
VERTEX
  8
0
  5
4443
 10
618.634
 20
667.758
 30
0.000000
  70
    32
  0
VERTEX
  8
0
  5
4444
 10
618.652
 20
667.745
 30
0.000000
  70
    32
  0
VERTEX
  8
0
  5
4445
 10
618.670
 20
667.732
 30
0.000000
  70
    32
  0
VERTEX
  8
0
  5
4446
 10
618.688
 20
667.719
 30
0.000000
  70
    32
  0
VERTEX
  8
0
  5
4447
 10
618.706
 20
667.706
 30
0.000000
  70
    32
  0
VERTEX
  8
0
  5
4448
 10
618.724
 20
667.693
 30
0.000000
  70
    32
  0
VERTEX
  8
0
  5
4449
 10
618.743
 20
667.680
 30
0.000000
  70
    32
  0
VERTEX
  8
0
  5
444A
 10
618.761
 20
667.668
 30
0.000000
  70
    32
  0
VERTEX
  8
0
  5
444B
 10
618.780
 20
667.655
 30
0.000000
  70
    32
  0
VERTEX
  8
0
  5
444C
 10
618.798
 20
667.643
 30
0.000000
  70
    32
  0
VERTEX
  8
0
  5
444D
 10
618.817
 20
667.631
 30
0.000000
  70
    32
  0
VERTEX
  8
0
  5
444E
 10
618.835
 20
667.619
 30
0.000000
  70
    32
  0
VERTEX
  8
0
  5
444F
 10
618.854
 20
667.607
 30
0.000000
  70
    32
  0
VERTEX
  8
0
  5
4450
 10
618.873
 20
667.595
 30
0.000000
  70
    32
  0
VERTEX
  8
0
  5
4451
 10
618.892
 20
667.583
 30
0.000000
  70
    32
  0
VERTEX
  8
0
  5
4452
 10
618.911
 20
667.572
 30
0.000000
  70
    32
  0
VERTEX
  8
0
  5
4453
 10
618.930
 20
667.560
 30
0.000000
  70
    32
  0
VERTEX
  8
0
  5
4454
 10
618.949
 20
667.549
 30
0.000000
  70
    32
  0
VERTEX
  8
0
  5
4455
 10
618.969
 20
667.538
 30
0.000000
  70
    32
  0
VERTEX
  8
0
  5
4456
 10
618.988
 20
667.527
 30
0.000000
  70
    32
  0
VERTEX
  8
0
  5
4457
 10
619.008
 20
667.516
 30
0.000000
  70
    32
  0
VERTEX
  8
0
  5
4458
 10
619.027
 20
667.506
 30
0.000000
  70
    32
  0
VERTEX
  8
0
  5
4459
 10
619.047
 20
667.495
 30
0.000000
  70
    32
  0
VERTEX
  8
0
  5
445A
 10
619.067
 20
667.485
 30
0.000000
  70
    32
  0
VERTEX
  8
0
  5
445B
 10
619.086
 20
667.475
 30
0.000000
  70
    32
  0
VERTEX
  8
0
  5
445C
 10
619.106
 20
667.465
 30
0.000000
  70
    32
  0
VERTEX
  8
0
  5
445D
 10
619.126
 20
667.455
 30
0.000000
  70
    32
  0
VERTEX
  8
0
  5
445E
 10
619.146
 20
667.445
 30
0.000000
  70
    32
  0
VERTEX
  8
0
  5
445F
 10
619.166
 20
667.436
 30
0.000000
  70
    32
  0
VERTEX
  8
0
  5
4460
 10
619.187
 20
667.426
 30
0.000000
  70
    32
  0
VERTEX
  8
0
  5
4461
 10
619.207
 20
667.417
 30
0.000000
  70
    32
  0
VERTEX
  8
0
  5
4462
 10
619.227
 20
667.408
 30
0.000000
  70
    32
  0
VERTEX
  8
0
  5
4463
 10
619.248
 20
667.399
 30
0.000000
  70
    32
  0
VERTEX
  8
0
  5
4464
 10
619.268
 20
667.390
 30
0.000000
  70
    32
  0
VERTEX
  8
0
  5
4465
 10
619.289
 20
667.381
 30
0.000000
  70
    32
  0
VERTEX
  8
0
  5
4466
 10
619.310
 20
667.372
 30
0.000000
  70
    32
  0
VERTEX
  8
0
  5
4467
 10
619.330
 20
667.364
 30
0.000000
  70
    32
  0
VERTEX
  8
0
  5
4468
 10
619.351
 20
667.355
 30
0.000000
  70
    32
  0
VERTEX
  8
0
  5
4469
 10
619.372
 20
667.347
 30
0.000000
  70
    32
  0
VERTEX
  8
0
  5
446A
 10
619.393
 20
667.339
 30
0.000000
  70
    32
  0
VERTEX
  8
0
  5
446B
 10
619.414
 20
667.331
 30
0.000000
  70
    32
  0
VERTEX
  8
0
  5
446C
 10
619.435
 20
667.323
 30
0.000000
  70
    32
  0
VERTEX
  8
0
  5
446D
 10
619.456
 20
667.315
 30
0.000000
  70
    32
  0
VERTEX
  8
0
  5
446E
 10
619.478
 20
667.307
 30
0.000000
  70
    32
  0
VERTEX
  8
0
  5
446F
 10
619.499
 20
667.299
 30
0.000000
  70
    32
  0
VERTEX
  8
0
  5
4470
 10
619.520
 20
667.292
 30
0.000000
  70
    32
  0
VERTEX
  8
0
  5
4471
 10
619.541
 20
667.284
 30
0.000000
  70
    32
  0
VERTEX
  8
0
  5
4472
 10
619.563
 20
667.277
 30
0.000000
  70
    32
  0
VERTEX
  8
0
  5
4473
 10
619.584
 20
667.270
 30
0.000000
  70
    32
  0
VERTEX
  8
0
  5
4474
 10
619.606
 20
667.262
 30
0.000000
  70
    32
  0
VERTEX
  8
0
  5
4475
 10
619.628
 20
667.255
 30
0.000000
  70
    32
  0
VERTEX
  8
0
  5
4476
 10
619.649
 20
667.248
 30
0.000000
  70
    32
  0
VERTEX
  8
0
  5
4477
 10
619.671
 20
667.241
 30
0.000000
  70
    32
  0
VERTEX
  8
0
  5
4478
 10
619.693
 20
667.234
 30
0.000000
  70
    32
  0
VERTEX
  8
0
  5
4479
 10
619.714
 20
667.228
 30
0.000000
  70
    32
  0
VERTEX
  8
0
  5
447A
 10
619.736
 20
667.221
 30
0.000000
  70
    32
  0
VERTEX
  8
0
  5
447B
 10
619.758
 20
667.214
 30
0.000000
  70
    32
  0
VERTEX
  8
0
  5
447C
 10
619.780
 20
667.208
 30
0.000000
  70
    32
  0
VERTEX
  8
0
  5
447D
 10
619.802
 20
667.201
 30
0.000000
  70
    32
  0
VERTEX
  8
0
  5
447E
 10
619.824
 20
667.195
 30
0.000000
  70
    32
  0
VERTEX
  8
0
  5
447F
 10
619.846
 20
667.188
 30
0.000000
  70
    32
  0
VERTEX
  8
0
  5
4480
 10
619.868
 20
667.182
 30
0.000000
  70
    32
  0
VERTEX
  8
0
  5
4481
 10
619.890
 20
667.176
 30
0.000000
  70
    32
  0
VERTEX
  8
0
  5
4482
 10
619.912
 20
667.170
 30
0.000000
  70
    32
  0
VERTEX
  8
0
  5
4483
 10
619.935
 20
667.163
 30
0.000000
  70
    32
  0
VERTEX
  8
0
  5
4484
 10
619.957
 20
667.157
 30
0.000000
  70
    32
  0
VERTEX
  8
0
  5
4485
 10
619.979
 20
667.151
 30
0.000000
  70
    32
  0
VERTEX
  8
0
  5
4486
 10
620.001
 20
667.145
 30
0.000000
  70
    32
  0
VERTEX
  8
0
  5
4487
 10
620.024
 20
667.140
 30
0.000000
  70
    32
  0
VERTEX
  8
0
  5
4488
 10
620.046
 20
667.134
 30
0.000000
  70
    32
  0
VERTEX
  8
0
  5
4489
 10
620.068
 20
667.128
 30
0.000000
  70
    32
  0
VERTEX
  8
0
  5
448A
 10
620.091
 20
667.122
 30
0.000000
  70
    32
  0
VERTEX
  8
0
  5
448B
 10
620.113
 20
667.116
 30
0.000000
  70
    32
  0
VERTEX
  8
0
  5
448C
 10
620.136
 20
667.111
 30
0.000000
  70
    32
  0
VERTEX
  8
0
  5
448D
 10
620.158
 20
667.105
 30
0.000000
  70
    32
  0
VERTEX
  8
0
  5
448E
 10
620.180
 20
667.099
 30
0.000000
  70
    32
  0
VERTEX
  8
0
  5
448F
 10
620.203
 20
667.094
 30
0.000000
  70
    32
  0
VERTEX
  8
0
  5
4490
 10
620.225
 20
667.088
 30
0.000000
  70
    32
  0
VERTEX
  8
0
  5
4491
 10
620.248
 20
667.083
 30
0.000000
  70
    32
  0
VERTEX
  8
0
  5
4492
 10
620.271
 20
667.077
 30
0.000000
  70
    32
  0
VERTEX
  8
0
  5
4493
 10
620.293
 20
667.072
 30
0.000000
  70
    32
  0
VERTEX
  8
0
  5
4494
 10
620.316
 20
667.066
 30
0.000000
  70
    32
  0
VERTEX
  8
0
  5
4495
 10
620.338
 20
667.061
 30
0.000000
  70
    32
  0
VERTEX
  8
0
  5
4496
 10
620.361
 20
667.055
 30
0.000000
  70
    32
  0
VERTEX
  8
0
  5
4497
 10
620.383
 20
667.050
 30
0.000000
  70
    32
  0
VERTEX
  8
0
  5
4498
 10
620.406
 20
667.044
 30
0.000000
  70
    32
  0
VERTEX
  8
0
  5
4499
 10
620.429
 20
667.039
 30
0.000000
  70
    32
  0
VERTEX
  8
0
  5
449A
 10
620.451
 20
667.033
 30
0.000000
  70
    32
  0
VERTEX
  8
0
  5
449B
 10
620.474
 20
667.028
 30
0.000000
  70
    32
  0
VERTEX
  8
0
  5
449C
 10
620.496
 20
667.023
 30
0.000000
  70
    32
  0
SEQEND
  8
0
  5
449D
  0
LINE
  5
40ED
  8
0
 10
617.49638530577931
 20
668.89387646327191
 30
0.0
 11
617.49638530577931
 21
669.39387646327191
 31
0.0
  0
LINE
  5
40EE
  8
0
 10
627.09638530577956
 20
668.80041546327197
 30
0.0
 11
627.09638530577956
 21
667.02263846327185
 31
0.0
  0
ARC
  5
40EF
  8
0
 10
799.09638530577956
 20
654.60041546327193
 30
0.0
 40
2.25
 50
90.0
 51
270.0
  0
LINE
  5
40F0
  8
2
 10
635.09638530577956
 20
667.02263846327185
 30
0.0
 11
635.09638530577956
 21
642.1781914632719
 31
0.0
  0
CIRCLE
  5
40F1
  8
0
 10
674.8963853057794
 20
654.60041546327193
 30
0.0
 40
2.25
  0
CIRCLE
  5
40F2
  8
0
 10
674.8963853057794
 20
654.60041546327193
 30
0.0
 40
1.149999999999999
  0
LINE
  5
40F3
  8
2
 10
644.79638530577938
 20
663.55041546327197
 30
0.0
 11
651.19638530577947
 21
663.55041546327197
 31
0.0
  0
LINE
  5
40F4
  8
2
 10
644.79638530577938
 20
659.75041546327179
 30
0.0
 11
651.19638530577947
 21
659.75041546327179
 31
0.0
  0
LINE
  5
40F5
  8
2
 10
649.19638530577959
 20
660.55041546327186
 30
0.0
 11
649.19638530577959
 21
662.75041546327191
 31
0.0
  0
LINE
  5
40F6
  8
2
 10
651.19638530577947
 20
659.75041546327179
 30
0.0
 11
651.19638530577947
 21
663.55041546327197
 31
0.0
  0
LINE
  5
40F7
  8
2
 10
644.79638530577938
 20
649.45041546327195
 30
0.0
 11
651.19638530577947
 21
649.45041546327195
 31
0.0
  0
LINE
  5
40F8
  8
2
 10
644.79638530577938
 20
645.65041546327177
 30
0.0
 11
651.19638530577947
 21
645.65041546327177
 31
0.0
  0
LINE
  5
40F9
  8
0
 10
635.09638530577956
 20
640.40041546327177
 30
0.0
 11
635.09638530577956
 21
642.1781914632719
 31
0.0
  0
POLYLINE
  8
0
  5
449E
  66
     1
 10
0.000000
 20
0.000000
 30
0.000000
  70
     8
  0
VERTEX
  8
0
  5
449F
 10
644.696
 20
640.307
 30
0.000000
  70
    32
  0
VERTEX
  8
0
  5
44A0
 10
644.681
 20
640.325
 30
0.000000
  70
    32
  0
VERTEX
  8
0
  5
44A1
 10
644.666
 20
640.342
 30
0.000000
  70
    32
  0
VERTEX
  8
0
  5
44A2
 10
644.650
 20
640.360
 30
0.000000
  70
    32
  0
VERTEX
  8
0
  5
44A3
 10
644.635
 20
640.377
 30
0.000000
  70
    32
  0
VERTEX
  8
0
  5
44A4
 10
644.619
 20
640.395
 30
0.000000
  70
    32
  0
VERTEX
  8
0
  5
44A5
 10
644.604
 20
640.413
 30
0.000000
  70
    32
  0
VERTEX
  8
0
  5
44A6
 10
644.588
 20
640.430
 30
0.000000
  70
    32
  0
VERTEX
  8
0
  5
44A7
 10
644.573
 20
640.448
 30
0.000000
  70
    32
  0
VERTEX
  8
0
  5
44A8
 10
644.557
 20
640.465
 30
0.000000
  70
    32
  0
VERTEX
  8
0
  5
44A9
 10
644.542
 20
640.483
 30
0.000000
  70
    32
  0
VERTEX
  8
0
  5
44AA
 10
644.526
 20
640.500
 30
0.000000
  70
    32
  0
VERTEX
  8
0
  5
44AB
 10
644.511
 20
640.518
 30
0.000000
  70
    32
  0
VERTEX
  8
0
  5
44AC
 10
644.495
 20
640.535
 30
0.000000
  70
    32
  0
VERTEX
  8
0
  5
44AD
 10
644.480
 20
640.553
 30
0.000000
  70
    32
  0
VERTEX
  8
0
  5
44AE
 10
644.464
 20
640.570
 30
0.000000
  70
    32
  0
VERTEX
  8
0
  5
44AF
 10
644.449
 20
640.588
 30
0.000000
  70
    32
  0
VERTEX
  8
0
  5
44B0
 10
644.433
 20
640.605
 30
0.000000
  70
    32
  0
VERTEX
  8
0
  5
44B1
 10
644.418
 20
640.623
 30
0.000000
  70
    32
  0
VERTEX
  8
0
  5
44B2
 10
644.402
 20
640.640
 30
0.000000
  70
    32
  0
VERTEX
  8
0
  5
44B3
 10
644.386
 20
640.657
 30
0.000000
  70
    32
  0
VERTEX
  8
0
  5
44B4
 10
644.371
 20
640.674
 30
0.000000
  70
    32
  0
VERTEX
  8
0
  5
44B5
 10
644.355
 20
640.692
 30
0.000000
  70
    32
  0
VERTEX
  8
0
  5
44B6
 10
644.340
 20
640.709
 30
0.000000
  70
    32
  0
VERTEX
  8
0
  5
44B7
 10
644.324
 20
640.726
 30
0.000000
  70
    32
  0
VERTEX
  8
0
  5
44B8
 10
644.308
 20
640.743
 30
0.000000
  70
    32
  0
VERTEX
  8
0
  5
44B9
 10
644.292
 20
640.760
 30
0.000000
  70
    32
  0
VERTEX
  8
0
  5
44BA
 10
644.277
 20
640.777
 30
0.000000
  70
    32
  0
VERTEX
  8
0
  5
44BB
 10
644.261
 20
640.794
 30
0.000000
  70
    32
  0
VERTEX
  8
0
  5
44BC
 10
644.245
 20
640.811
 30
0.000000
  70
    32
  0
VERTEX
  8
0
  5
44BD
 10
644.229
 20
640.828
 30
0.000000
  70
    32
  0
VERTEX
  8
0
  5
44BE
 10
644.213
 20
640.845
 30
0.000000
  70
    32
  0
VERTEX
  8
0
  5
44BF
 10
644.197
 20
640.862
 30
0.000000
  70
    32
  0
VERTEX
  8
0
  5
44C0
 10
644.181
 20
640.878
 30
0.000000
  70
    32
  0
VERTEX
  8
0
  5
44C1
 10
644.165
 20
640.895
 30
0.000000
  70
    32
  0
VERTEX
  8
0
  5
44C2
 10
644.149
 20
640.912
 30
0.000000
  70
    32
  0
VERTEX
  8
0
  5
44C3
 10
644.133
 20
640.928
 30
0.000000
  70
    32
  0
VERTEX
  8
0
  5
44C4
 10
644.117
 20
640.945
 30
0.000000
  70
    32
  0
VERTEX
  8
0
  5
44C5
 10
644.101
 20
640.961
 30
0.000000
  70
    32
  0
VERTEX
  8
0
  5
44C6
 10
644.085
 20
640.977
 30
0.000000
  70
    32
  0
VERTEX
  8
0
  5
44C7
 10
644.069
 20
640.994
 30
0.000000
  70
    32
  0
VERTEX
  8
0
  5
44C8
 10
644.052
 20
641.010
 30
0.000000
  70
    32
  0
VERTEX
  8
0
  5
44C9
 10
644.036
 20
641.026
 30
0.000000
  70
    32
  0
VERTEX
  8
0
  5
44CA
 10
644.020
 20
641.042
 30
0.000000
  70
    32
  0
VERTEX
  8
0
  5
44CB
 10
644.003
 20
641.058
 30
0.000000
  70
    32
  0
VERTEX
  8
0
  5
44CC
 10
643.987
 20
641.074
 30
0.000000
  70
    32
  0
VERTEX
  8
0
  5
44CD
 10
643.970
 20
641.090
 30
0.000000
  70
    32
  0
VERTEX
  8
0
  5
44CE
 10
643.954
 20
641.106
 30
0.000000
  70
    32
  0
VERTEX
  8
0
  5
44CF
 10
643.937
 20
641.121
 30
0.000000
  70
    32
  0
VERTEX
  8
0
  5
44D0
 10
643.921
 20
641.137
 30
0.000000
  70
    32
  0
VERTEX
  8
0
  5
44D1
 10
643.904
 20
641.152
 30
0.000000
  70
    32
  0
VERTEX
  8
0
  5
44D2
 10
643.887
 20
641.168
 30
0.000000
  70
    32
  0
VERTEX
  8
0
  5
44D3
 10
643.870
 20
641.183
 30
0.000000
  70
    32
  0
VERTEX
  8
0
  5
44D4
 10
643.854
 20
641.198
 30
0.000000
  70
    32
  0
VERTEX
  8
0
  5
44D5
 10
643.837
 20
641.214
 30
0.000000
  70
    32
  0
VERTEX
  8
0
  5
44D6
 10
643.820
 20
641.229
 30
0.000000
  70
    32
  0
VERTEX
  8
0
  5
44D7
 10
643.803
 20
641.244
 30
0.000000
  70
    32
  0
VERTEX
  8
0
  5
44D8
 10
643.786
 20
641.259
 30
0.000000
  70
    32
  0
VERTEX
  8
0
  5
44D9
 10
643.769
 20
641.273
 30
0.000000
  70
    32
  0
VERTEX
  8
0
  5
44DA
 10
643.752
 20
641.288
 30
0.000000
  70
    32
  0
VERTEX
  8
0
  5
44DB
 10
643.734
 20
641.303
 30
0.000000
  70
    32
  0
VERTEX
  8
0
  5
44DC
 10
643.717
 20
641.317
 30
0.000000
  70
    32
  0
VERTEX
  8
0
  5
44DD
 10
643.700
 20
641.331
 30
0.000000
  70
    32
  0
VERTEX
  8
0
  5
44DE
 10
643.682
 20
641.346
 30
0.000000
  70
    32
  0
VERTEX
  8
0
  5
44DF
 10
643.665
 20
641.360
 30
0.000000
  70
    32
  0
VERTEX
  8
0
  5
44E0
 10
643.647
 20
641.374
 30
0.000000
  70
    32
  0
VERTEX
  8
0
  5
44E1
 10
643.630
 20
641.388
 30
0.000000
  70
    32
  0
VERTEX
  8
0
  5
44E2
 10
643.612
 20
641.402
 30
0.000000
  70
    32
  0
VERTEX
  8
0
  5
44E3
 10
643.594
 20
641.415
 30
0.000000
  70
    32
  0
VERTEX
  8
0
  5
44E4
 10
643.577
 20
641.429
 30
0.000000
  70
    32
  0
VERTEX
  8
0
  5
44E5
 10
643.559
 20
641.442
 30
0.000000
  70
    32
  0
VERTEX
  8
0
  5
44E6
 10
643.541
 20
641.456
 30
0.000000
  70
    32
  0
VERTEX
  8
0
  5
44E7
 10
643.523
 20
641.469
 30
0.000000
  70
    32
  0
VERTEX
  8
0
  5
44E8
 10
643.505
 20
641.482
 30
0.000000
  70
    32
  0
VERTEX
  8
0
  5
44E9
 10
643.487
 20
641.495
 30
0.000000
  70
    32
  0
VERTEX
  8
0
  5
44EA
 10
643.468
 20
641.508
 30
0.000000
  70
    32
  0
VERTEX
  8
0
  5
44EB
 10
643.450
 20
641.521
 30
0.000000
  70
    32
  0
VERTEX
  8
0
  5
44EC
 10
643.432
 20
641.533
 30
0.000000
  70
    32
  0
VERTEX
  8
0
  5
44ED
 10
643.413
 20
641.546
 30
0.000000
  70
    32
  0
VERTEX
  8
0
  5
44EE
 10
643.395
 20
641.558
 30
0.000000
  70
    32
  0
VERTEX
  8
0
  5
44EF
 10
643.376
 20
641.570
 30
0.000000
  70
    32
  0
VERTEX
  8
0
  5
44F0
 10
643.357
 20
641.582
 30
0.000000
  70
    32
  0
VERTEX
  8
0
  5
44F1
 10
643.339
 20
641.594
 30
0.000000
  70
    32
  0
VERTEX
  8
0
  5
44F2
 10
643.320
 20
641.606
 30
0.000000
  70
    32
  0
VERTEX
  8
0
  5
44F3
 10
643.301
 20
641.618
 30
0.000000
  70
    32
  0
VERTEX
  8
0
  5
44F4
 10
643.282
 20
641.629
 30
0.000000
  70
    32
  0
VERTEX
  8
0
  5
44F5
 10
643.263
 20
641.640
 30
0.000000
  70
    32
  0
VERTEX
  8
0
  5
44F6
 10
643.243
 20
641.652
 30
0.000000
  70
    32
  0
VERTEX
  8
0
  5
44F7
 10
643.224
 20
641.663
 30
0.000000
  70
    32
  0
VERTEX
  8
0
  5
44F8
 10
643.205
 20
641.674
 30
0.000000
  70
    32
  0
VERTEX
  8
0
  5
44F9
 10
643.185
 20
641.684
 30
0.000000
  70
    32
  0
VERTEX
  8
0
  5
44FA
 10
643.166
 20
641.695
 30
0.000000
  70
    32
  0
VERTEX
  8
0
  5
44FB
 10
643.146
 20
641.705
 30
0.000000
  70
    32
  0
VERTEX
  8
0
  5
44FC
 10
643.126
 20
641.716
 30
0.000000
  70
    32
  0
VERTEX
  8
0
  5
44FD
 10
643.106
 20
641.726
 30
0.000000
  70
    32
  0
VERTEX
  8
0
  5
44FE
 10
643.087
 20
641.736
 30
0.000000
  70
    32
  0
VERTEX
  8
0
  5
44FF
 10
643.067
 20
641.746
 30
0.000000
  70
    32
  0
VERTEX
  8
0
  5
4500
 10
643.046
 20
641.755
 30
0.000000
  70
    32
  0
VERTEX
  8
0
  5
4501
 10
643.026
 20
641.765
 30
0.000000
  70
    32
  0
VERTEX
  8
0
  5
4502
 10
643.006
 20
641.774
 30
0.000000
  70
    32
  0
VERTEX
  8
0
  5
4503
 10
642.986
 20
641.784
 30
0.000000
  70
    32
  0
VERTEX
  8
0
  5
4504
 10
642.965
 20
641.793
 30
0.000000
  70
    32
  0
VERTEX
  8
0
  5
4505
 10
642.945
 20
641.802
 30
0.000000
  70
    32
  0
VERTEX
  8
0
  5
4506
 10
642.924
 20
641.811
 30
0.000000
  70
    32
  0
VERTEX
  8
0
  5
4507
 10
642.904
 20
641.820
 30
0.000000
  70
    32
  0
VERTEX
  8
0
  5
4508
 10
642.883
 20
641.828
 30
0.000000
  70
    32
  0
VERTEX
  8
0
  5
4509
 10
642.862
 20
641.837
 30
0.000000
  70
    32
  0
VERTEX
  8
0
  5
450A
 10
642.842
 20
641.845
 30
0.000000
  70
    32
  0
VERTEX
  8
0
  5
450B
 10
642.821
 20
641.854
 30
0.000000
  70
    32
  0
VERTEX
  8
0
  5
450C
 10
642.800
 20
641.862
 30
0.000000
  70
    32
  0
VERTEX
  8
0
  5
450D
 10
642.779
 20
641.870
 30
0.000000
  70
    32
  0
VERTEX
  8
0
  5
450E
 10
642.758
 20
641.878
 30
0.000000
  70
    32
  0
VERTEX
  8
0
  5
450F
 10
642.736
 20
641.886
 30
0.000000
  70
    32
  0
VERTEX
  8
0
  5
4510
 10
642.715
 20
641.894
 30
0.000000
  70
    32
  0
VERTEX
  8
0
  5
4511
 10
642.694
 20
641.901
 30
0.000000
  70
    32
  0
VERTEX
  8
0
  5
4512
 10
642.673
 20
641.909
 30
0.000000
  70
    32
  0
VERTEX
  8
0
  5
4513
 10
642.651
 20
641.917
 30
0.000000
  70
    32
  0
VERTEX
  8
0
  5
4514
 10
642.630
 20
641.924
 30
0.000000
  70
    32
  0
VERTEX
  8
0
  5
4515
 10
642.608
 20
641.931
 30
0.000000
  70
    32
  0
VERTEX
  8
0
  5
4516
 10
642.587
 20
641.938
 30
0.000000
  70
    32
  0
VERTEX
  8
0
  5
4517
 10
642.565
 20
641.946
 30
0.000000
  70
    32
  0
VERTEX
  8
0
  5
4518
 10
642.544
 20
641.953
 30
0.000000
  70
    32
  0
VERTEX
  8
0
  5
4519
 10
642.522
 20
641.960
 30
0.000000
  70
    32
  0
VERTEX
  8
0
  5
451A
 10
642.500
 20
641.966
 30
0.000000
  70
    32
  0
VERTEX
  8
0
  5
451B
 10
642.478
 20
641.973
 30
0.000000
  70
    32
  0
VERTEX
  8
0
  5
451C
 10
642.457
 20
641.980
 30
0.000000
  70
    32
  0
VERTEX
  8
0
  5
451D
 10
642.435
 20
641.987
 30
0.000000
  70
    32
  0
VERTEX
  8
0
  5
451E
 10
642.413
 20
641.993
 30
0.000000
  70
    32
  0
VERTEX
  8
0
  5
451F
 10
642.391
 20
642.000
 30
0.000000
  70
    32
  0
VERTEX
  8
0
  5
4520
 10
642.369
 20
642.006
 30
0.000000
  70
    32
  0
VERTEX
  8
0
  5
4521
 10
642.347
 20
642.012
 30
0.000000
  70
    32
  0
VERTEX
  8
0
  5
4522
 10
642.325
 20
642.019
 30
0.000000
  70
    32
  0
VERTEX
  8
0
  5
4523
 10
642.303
 20
642.025
 30
0.000000
  70
    32
  0
VERTEX
  8
0
  5
4524
 10
642.280
 20
642.031
 30
0.000000
  70
    32
  0
VERTEX
  8
0
  5
4525
 10
642.258
 20
642.037
 30
0.000000
  70
    32
  0
VERTEX
  8
0
  5
4526
 10
642.236
 20
642.043
 30
0.000000
  70
    32
  0
VERTEX
  8
0
  5
4527
 10
642.214
 20
642.049
 30
0.000000
  70
    32
  0
VERTEX
  8
0
  5
4528
 10
642.191
 20
642.055
 30
0.000000
  70
    32
  0
VERTEX
  8
0
  5
4529
 10
642.169
 20
642.061
 30
0.000000
  70
    32
  0
VERTEX
  8
0
  5
452A
 10
642.147
 20
642.067
 30
0.000000
  70
    32
  0
VERTEX
  8
0
  5
452B
 10
642.124
 20
642.073
 30
0.000000
  70
    32
  0
VERTEX
  8
0
  5
452C
 10
642.102
 20
642.079
 30
0.000000
  70
    32
  0
VERTEX
  8
0
  5
452D
 10
642.080
 20
642.085
 30
0.000000
  70
    32
  0
VERTEX
  8
0
  5
452E
 10
642.057
 20
642.090
 30
0.000000
  70
    32
  0
VERTEX
  8
0
  5
452F
 10
642.035
 20
642.096
 30
0.000000
  70
    32
  0
VERTEX
  8
0
  5
4530
 10
642.012
 20
642.102
 30
0.000000
  70
    32
  0
VERTEX
  8
0
  5
4531
 10
641.990
 20
642.107
 30
0.000000
  70
    32
  0
VERTEX
  8
0
  5
4532
 10
641.967
 20
642.113
 30
0.000000
  70
    32
  0
VERTEX
  8
0
  5
4533
 10
641.945
 20
642.118
 30
0.000000
  70
    32
  0
VERTEX
  8
0
  5
4534
 10
641.922
 20
642.124
 30
0.000000
  70
    32
  0
VERTEX
  8
0
  5
4535
 10
641.900
 20
642.129
 30
0.000000
  70
    32
  0
VERTEX
  8
0
  5
4536
 10
641.877
 20
642.135
 30
0.000000
  70
    32
  0
VERTEX
  8
0
  5
4537
 10
641.855
 20
642.140
 30
0.000000
  70
    32
  0
VERTEX
  8
0
  5
4538
 10
641.832
 20
642.146
 30
0.000000
  70
    32
  0
VERTEX
  8
0
  5
4539
 10
641.809
 20
642.151
 30
0.000000
  70
    32
  0
VERTEX
  8
0
  5
453A
 10
641.787
 20
642.157
 30
0.000000
  70
    32
  0
VERTEX
  8
0
  5
453B
 10
641.764
 20
642.162
 30
0.000000
  70
    32
  0
VERTEX
  8
0
  5
453C
 10
641.742
 20
642.167
 30
0.000000
  70
    32
  0
VERTEX
  8
0
  5
453D
 10
641.719
 20
642.173
 30
0.000000
  70
    32
  0
VERTEX
  8
0
  5
453E
 10
641.696
 20
642.178
 30
0.000000
  70
    32
  0
SEQEND
  8
0
  5
453F
  0
LINE
  5
40FB
  8
0
 10
644.69638530577959
 20
640.30695346327195
 30
0.0
 11
644.69638530577959
 21
639.80695346327195
 31
0.0
  0
LINE
  5
40FC
  8
2
 10
649.19638530577959
 20
648.65041546327188
 30
0.0
 11
649.19638530577959
 21
646.45041546327195
 31
0.0
  0
LINE
  5
40FD
  8
2
 10
651.19638530577947
 20
649.45041546327195
 30
0.0
 11
651.19638530577947
 21
645.65041546327177
 31
0.0
  0
CIRCLE
  5
40FE
  8
0
 10
679.6463853057794
 20
660.35041546327193
 30
0.0
 40
1.399999999999999
  0
CIRCLE
  5
40FF
  8
0
 10
684.39638530577929
 20
654.60041546327193
 30
0.0
 40
2.25
  0
CIRCLE
  5
4100
  8
0
 10
684.39638530577929
 20
654.60041546327193
 30
0.0
 40
1.149999999999999
  0
CIRCLE
  5
4101
  8
0
 10
679.6463853057794
 20
648.85041546327193
 30
0.0
 40
1.399999999999999
  0
LINE
  5
4103
  8
2
 10
687.59638530577968
 20
646.85041546327193
 30
0.0
 11
687.59638530577968
 21
662.35041546327193
 31
0.0
  0
LINE
  5
4104
  8
0
 10
635.09638530577956
 20
668.80041546327197
 30
0.0
 11
635.09638530577956
 21
667.02263846327185
 31
0.0
  0
POLYLINE
  8
0
  5
4540
  66
     1
 10
0.000000
 20
0.000000
 30
0.000000
  70
     8
  0
VERTEX
  8
0
  5
4541
 10
644.696
 20
668.894
 30
0.000000
  70
    32
  0
VERTEX
  8
0
  5
4542
 10
644.681
 20
668.876
 30
0.000000
  70
    32
  0
VERTEX
  8
0
  5
4543
 10
644.666
 20
668.859
 30
0.000000
  70
    32
  0
VERTEX
  8
0
  5
4544
 10
644.650
 20
668.841
 30
0.000000
  70
    32
  0
VERTEX
  8
0
  5
4545
 10
644.635
 20
668.823
 30
0.000000
  70
    32
  0
VERTEX
  8
0
  5
4546
 10
644.619
 20
668.806
 30
0.000000
  70
    32
  0
VERTEX
  8
0
  5
4547
 10
644.604
 20
668.788
 30
0.000000
  70
    32
  0
VERTEX
  8
0
  5
4548
 10
644.588
 20
668.771
 30
0.000000
  70
    32
  0
VERTEX
  8
0
  5
4549
 10
644.573
 20
668.753
 30
0.000000
  70
    32
  0
VERTEX
  8
0
  5
454A
 10
644.557
 20
668.735
 30
0.000000
  70
    32
  0
VERTEX
  8
0
  5
454B
 10
644.542
 20
668.718
 30
0.000000
  70
    32
  0
VERTEX
  8
0
  5
454C
 10
644.526
 20
668.700
 30
0.000000
  70
    32
  0
VERTEX
  8
0
  5
454D
 10
644.511
 20
668.683
 30
0.000000
  70
    32
  0
VERTEX
  8
0
  5
454E
 10
644.495
 20
668.665
 30
0.000000
  70
    32
  0
VERTEX
  8
0
  5
454F
 10
644.480
 20
668.648
 30
0.000000
  70
    32
  0
VERTEX
  8
0
  5
4550
 10
644.464
 20
668.630
 30
0.000000
  70
    32
  0
VERTEX
  8
0
  5
4551
 10
644.449
 20
668.613
 30
0.000000
  70
    32
  0
VERTEX
  8
0
  5
4552
 10
644.433
 20
668.596
 30
0.000000
  70
    32
  0
VERTEX
  8
0
  5
4553
 10
644.418
 20
668.578
 30
0.000000
  70
    32
  0
VERTEX
  8
0
  5
4554
 10
644.402
 20
668.561
 30
0.000000
  70
    32
  0
VERTEX
  8
0
  5
4555
 10
644.386
 20
668.544
 30
0.000000
  70
    32
  0
VERTEX
  8
0
  5
4556
 10
644.371
 20
668.526
 30
0.000000
  70
    32
  0
VERTEX
  8
0
  5
4557
 10
644.355
 20
668.509
 30
0.000000
  70
    32
  0
VERTEX
  8
0
  5
4558
 10
644.340
 20
668.492
 30
0.000000
  70
    32
  0
VERTEX
  8
0
  5
4559
 10
644.324
 20
668.475
 30
0.000000
  70
    32
  0
VERTEX
  8
0
  5
455A
 10
644.308
 20
668.458
 30
0.000000
  70
    32
  0
VERTEX
  8
0
  5
455B
 10
644.292
 20
668.441
 30
0.000000
  70
    32
  0
VERTEX
  8
0
  5
455C
 10
644.277
 20
668.424
 30
0.000000
  70
    32
  0
VERTEX
  8
0
  5
455D
 10
644.261
 20
668.407
 30
0.000000
  70
    32
  0
VERTEX
  8
0
  5
455E
 10
644.245
 20
668.390
 30
0.000000
  70
    32
  0
VERTEX
  8
0
  5
455F
 10
644.229
 20
668.373
 30
0.000000
  70
    32
  0
VERTEX
  8
0
  5
4560
 10
644.213
 20
668.356
 30
0.000000
  70
    32
  0
VERTEX
  8
0
  5
4561
 10
644.197
 20
668.339
 30
0.000000
  70
    32
  0
VERTEX
  8
0
  5
4562
 10
644.181
 20
668.323
 30
0.000000
  70
    32
  0
VERTEX
  8
0
  5
4563
 10
644.165
 20
668.306
 30
0.000000
  70
    32
  0
VERTEX
  8
0
  5
4564
 10
644.149
 20
668.289
 30
0.000000
  70
    32
  0
VERTEX
  8
0
  5
4565
 10
644.133
 20
668.273
 30
0.000000
  70
    32
  0
VERTEX
  8
0
  5
4566
 10
644.117
 20
668.256
 30
0.000000
  70
    32
  0
VERTEX
  8
0
  5
4567
 10
644.101
 20
668.240
 30
0.000000
  70
    32
  0
VERTEX
  8
0
  5
4568
 10
644.085
 20
668.224
 30
0.000000
  70
    32
  0
VERTEX
  8
0
  5
4569
 10
644.069
 20
668.207
 30
0.000000
  70
    32
  0
VERTEX
  8
0
  5
456A
 10
644.052
 20
668.191
 30
0.000000
  70
    32
  0
VERTEX
  8
0
  5
456B
 10
644.036
 20
668.175
 30
0.000000
  70
    32
  0
VERTEX
  8
0
  5
456C
 10
644.020
 20
668.159
 30
0.000000
  70
    32
  0
VERTEX
  8
0
  5
456D
 10
644.003
 20
668.143
 30
0.000000
  70
    32
  0
VERTEX
  8
0
  5
456E
 10
643.987
 20
668.127
 30
0.000000
  70
    32
  0
VERTEX
  8
0
  5
456F
 10
643.970
 20
668.111
 30
0.000000
  70
    32
  0
VERTEX
  8
0
  5
4570
 10
643.954
 20
668.095
 30
0.000000
  70
    32
  0
VERTEX
  8
0
  5
4571
 10
643.937
 20
668.080
 30
0.000000
  70
    32
  0
VERTEX
  8
0
  5
4572
 10
643.921
 20
668.064
 30
0.000000
  70
    32
  0
VERTEX
  8
0
  5
4573
 10
643.904
 20
668.048
 30
0.000000
  70
    32
  0
VERTEX
  8
0
  5
4574
 10
643.887
 20
668.033
 30
0.000000
  70
    32
  0
VERTEX
  8
0
  5
4575
 10
643.870
 20
668.018
 30
0.000000
  70
    32
  0
VERTEX
  8
0
  5
4576
 10
643.854
 20
668.002
 30
0.000000
  70
    32
  0
VERTEX
  8
0
  5
4577
 10
643.837
 20
667.987
 30
0.000000
  70
    32
  0
VERTEX
  8
0
  5
4578
 10
643.820
 20
667.972
 30
0.000000
  70
    32
  0
VERTEX
  8
0
  5
4579
 10
643.803
 20
667.957
 30
0.000000
  70
    32
  0
VERTEX
  8
0
  5
457A
 10
643.786
 20
667.942
 30
0.000000
  70
    32
  0
VERTEX
  8
0
  5
457B
 10
643.769
 20
667.928
 30
0.000000
  70
    32
  0
VERTEX
  8
0
  5
457C
 10
643.752
 20
667.913
 30
0.000000
  70
    32
  0
VERTEX
  8
0
  5
457D
 10
643.734
 20
667.898
 30
0.000000
  70
    32
  0
VERTEX
  8
0
  5
457E
 10
643.717
 20
667.884
 30
0.000000
  70
    32
  0
VERTEX
  8
0
  5
457F
 10
643.700
 20
667.869
 30
0.000000
  70
    32
  0
VERTEX
  8
0
  5
4580
 10
643.682
 20
667.855
 30
0.000000
  70
    32
  0
VERTEX
  8
0
  5
4581
 10
643.665
 20
667.841
 30
0.000000
  70
    32
  0
VERTEX
  8
0
  5
4582
 10
643.647
 20
667.827
 30
0.000000
  70
    32
  0
VERTEX
  8
0
  5
4583
 10
643.630
 20
667.813
 30
0.000000
  70
    32
  0
VERTEX
  8
0
  5
4584
 10
643.612
 20
667.799
 30
0.000000
  70
    32
  0
VERTEX
  8
0
  5
4585
 10
643.594
 20
667.785
 30
0.000000
  70
    32
  0
VERTEX
  8
0
  5
4586
 10
643.577
 20
667.772
 30
0.000000
  70
    32
  0
VERTEX
  8
0
  5
4587
 10
643.559
 20
667.758
 30
0.000000
  70
    32
  0
VERTEX
  8
0
  5
4588
 10
643.541
 20
667.745
 30
0.000000
  70
    32
  0
VERTEX
  8
0
  5
4589
 10
643.523
 20
667.732
 30
0.000000
  70
    32
  0
VERTEX
  8
0
  5
458A
 10
643.505
 20
667.719
 30
0.000000
  70
    32
  0
VERTEX
  8
0
  5
458B
 10
643.487
 20
667.706
 30
0.000000
  70
    32
  0
VERTEX
  8
0
  5
458C
 10
643.468
 20
667.693
 30
0.000000
  70
    32
  0
VERTEX
  8
0
  5
458D
 10
643.450
 20
667.680
 30
0.000000
  70
    32
  0
VERTEX
  8
0
  5
458E
 10
643.432
 20
667.668
 30
0.000000
  70
    32
  0
VERTEX
  8
0
  5
458F
 10
643.413
 20
667.655
 30
0.000000
  70
    32
  0
VERTEX
  8
0
  5
4590
 10
643.395
 20
667.643
 30
0.000000
  70
    32
  0
VERTEX
  8
0
  5
4591
 10
643.376
 20
667.631
 30
0.000000
  70
    32
  0
VERTEX
  8
0
  5
4592
 10
643.357
 20
667.619
 30
0.000000
  70
    32
  0
VERTEX
  8
0
  5
4593
 10
643.339
 20
667.607
 30
0.000000
  70
    32
  0
VERTEX
  8
0
  5
4594
 10
643.320
 20
667.595
 30
0.000000
  70
    32
  0
VERTEX
  8
0
  5
4595
 10
643.301
 20
667.583
 30
0.000000
  70
    32
  0
VERTEX
  8
0
  5
4596
 10
643.282
 20
667.572
 30
0.000000
  70
    32
  0
VERTEX
  8
0
  5
4597
 10
643.263
 20
667.560
 30
0.000000
  70
    32
  0
VERTEX
  8
0
  5
4598
 10
643.243
 20
667.549
 30
0.000000
  70
    32
  0
VERTEX
  8
0
  5
4599
 10
643.224
 20
667.538
 30
0.000000
  70
    32
  0
VERTEX
  8
0
  5
459A
 10
643.205
 20
667.527
 30
0.000000
  70
    32
  0
VERTEX
  8
0
  5
459B
 10
643.185
 20
667.516
 30
0.000000
  70
    32
  0
VERTEX
  8
0
  5
459C
 10
643.166
 20
667.506
 30
0.000000
  70
    32
  0
VERTEX
  8
0
  5
459D
 10
643.146
 20
667.495
 30
0.000000
  70
    32
  0
VERTEX
  8
0
  5
459E
 10
643.126
 20
667.485
 30
0.000000
  70
    32
  0
VERTEX
  8
0
  5
459F
 10
643.106
 20
667.475
 30
0.000000
  70
    32
  0
VERTEX
  8
0
  5
45A0
 10
643.087
 20
667.465
 30
0.000000
  70
    32
  0
VERTEX
  8
0
  5
45A1
 10
643.067
 20
667.455
 30
0.000000
  70
    32
  0
VERTEX
  8
0
  5
45A2
 10
643.046
 20
667.445
 30
0.000000
  70
    32
  0
VERTEX
  8
0
  5
45A3
 10
643.026
 20
667.436
 30
0.000000
  70
    32
  0
VERTEX
  8
0
  5
45A4
 10
643.006
 20
667.426
 30
0.000000
  70
    32
  0
VERTEX
  8
0
  5
45A5
 10
642.986
 20
667.417
 30
0.000000
  70
    32
  0
VERTEX
  8
0
  5
45A6
 10
642.965
 20
667.408
 30
0.000000
  70
    32
  0
VERTEX
  8
0
  5
45A7
 10
642.945
 20
667.399
 30
0.000000
  70
    32
  0
VERTEX
  8
0
  5
45A8
 10
642.924
 20
667.390
 30
0.000000
  70
    32
  0
VERTEX
  8
0
  5
45A9
 10
642.904
 20
667.381
 30
0.000000
  70
    32
  0
VERTEX
  8
0
  5
45AA
 10
642.883
 20
667.372
 30
0.000000
  70
    32
  0
VERTEX
  8
0
  5
45AB
 10
642.862
 20
667.364
 30
0.000000
  70
    32
  0
VERTEX
  8
0
  5
45AC
 10
642.842
 20
667.355
 30
0.000000
  70
    32
  0
VERTEX
  8
0
  5
45AD
 10
642.821
 20
667.347
 30
0.000000
  70
    32
  0
VERTEX
  8
0
  5
45AE
 10
642.800
 20
667.339
 30
0.000000
  70
    32
  0
VERTEX
  8
0
  5
45AF
 10
642.779
 20
667.331
 30
0.000000
  70
    32
  0
VERTEX
  8
0
  5
45B0
 10
642.758
 20
667.323
 30
0.000000
  70
    32
  0
VERTEX
  8
0
  5
45B1
 10
642.736
 20
667.315
 30
0.000000
  70
    32
  0
VERTEX
  8
0
  5
45B2
 10
642.715
 20
667.307
 30
0.000000
  70
    32
  0
VERTEX
  8
0
  5
45B3
 10
642.694
 20
667.299
 30
0.000000
  70
    32
  0
VERTEX
  8
0
  5
45B4
 10
642.673
 20
667.292
 30
0.000000
  70
    32
  0
VERTEX
  8
0
  5
45B5
 10
642.651
 20
667.284
 30
0.000000
  70
    32
  0
VERTEX
  8
0
  5
45B6
 10
642.630
 20
667.277
 30
0.000000
  70
    32
  0
VERTEX
  8
0
  5
45B7
 10
642.608
 20
667.270
 30
0.000000
  70
    32
  0
VERTEX
  8
0
  5
45B8
 10
642.587
 20
667.262
 30
0.000000
  70
    32
  0
VERTEX
  8
0
  5
45B9
 10
642.565
 20
667.255
 30
0.000000
  70
    32
  0
VERTEX
  8
0
  5
45BA
 10
642.544
 20
667.248
 30
0.000000
  70
    32
  0
VERTEX
  8
0
  5
45BB
 10
642.522
 20
667.241
 30
0.000000
  70
    32
  0
VERTEX
  8
0
  5
45BC
 10
642.500
 20
667.234
 30
0.000000
  70
    32
  0
VERTEX
  8
0
  5
45BD
 10
642.478
 20
667.228
 30
0.000000
  70
    32
  0
VERTEX
  8
0
  5
45BE
 10
642.457
 20
667.221
 30
0.000000
  70
    32
  0
VERTEX
  8
0
  5
45BF
 10
642.435
 20
667.214
 30
0.000000
  70
    32
  0
VERTEX
  8
0
  5
45C0
 10
642.413
 20
667.208
 30
0.000000
  70
    32
  0
VERTEX
  8
0
  5
45C1
 10
642.391
 20
667.201
 30
0.000000
  70
    32
  0
VERTEX
  8
0
  5
45C2
 10
642.369
 20
667.195
 30
0.000000
  70
    32
  0
VERTEX
  8
0
  5
45C3
 10
642.347
 20
667.188
 30
0.000000
  70
    32
  0
VERTEX
  8
0
  5
45C4
 10
642.325
 20
667.182
 30
0.000000
  70
    32
  0
VERTEX
  8
0
  5
45C5
 10
642.303
 20
667.176
 30
0.000000
  70
    32
  0
VERTEX
  8
0
  5
45C6
 10
642.280
 20
667.170
 30
0.000000
  70
    32
  0
VERTEX
  8
0
  5
45C7
 10
642.258
 20
667.163
 30
0.000000
  70
    32
  0
VERTEX
  8
0
  5
45C8
 10
642.236
 20
667.157
 30
0.000000
  70
    32
  0
VERTEX
  8
0
  5
45C9
 10
642.214
 20
667.151
 30
0.000000
  70
    32
  0
VERTEX
  8
0
  5
45CA
 10
642.191
 20
667.145
 30
0.000000
  70
    32
  0
VERTEX
  8
0
  5
45CB
 10
642.169
 20
667.140
 30
0.000000
  70
    32
  0
VERTEX
  8
0
  5
45CC
 10
642.147
 20
667.134
 30
0.000000
  70
    32
  0
VERTEX
  8
0
  5
45CD
 10
642.124
 20
667.128
 30
0.000000
  70
    32
  0
VERTEX
  8
0
  5
45CE
 10
642.102
 20
667.122
 30
0.000000
  70
    32
  0
VERTEX
  8
0
  5
45CF
 10
642.080
 20
667.116
 30
0.000000
  70
    32
  0
VERTEX
  8
0
  5
45D0
 10
642.057
 20
667.111
 30
0.000000
  70
    32
  0
VERTEX
  8
0
  5
45D1
 10
642.035
 20
667.105
 30
0.000000
  70
    32
  0
VERTEX
  8
0
  5
45D2
 10
642.012
 20
667.099
 30
0.000000
  70
    32
  0
VERTEX
  8
0
  5
45D3
 10
641.990
 20
667.094
 30
0.000000
  70
    32
  0
VERTEX
  8
0
  5
45D4
 10
641.967
 20
667.088
 30
0.000000
  70
    32
  0
VERTEX
  8
0
  5
45D5
 10
641.945
 20
667.083
 30
0.000000
  70
    32
  0
VERTEX
  8
0
  5
45D6
 10
641.922
 20
667.077
 30
0.000000
  70
    32
  0
VERTEX
  8
0
  5
45D7
 10
641.900
 20
667.072
 30
0.000000
  70
    32
  0
VERTEX
  8
0
  5
45D8
 10
641.877
 20
667.066
 30
0.000000
  70
    32
  0
VERTEX
  8
0
  5
45D9
 10
641.855
 20
667.061
 30
0.000000
  70
    32
  0
VERTEX
  8
0
  5
45DA
 10
641.832
 20
667.055
 30
0.000000
  70
    32
  0
VERTEX
  8
0
  5
45DB
 10
641.809
 20
667.050
 30
0.000000
  70
    32
  0
VERTEX
  8
0
  5
45DC
 10
641.787
 20
667.044
 30
0.000000
  70
    32
  0
VERTEX
  8
0
  5
45DD
 10
641.764
 20
667.039
 30
0.000000
  70
    32
  0
VERTEX
  8
0
  5
45DE
 10
641.742
 20
667.033
 30
0.000000
  70
    32
  0
VERTEX
  8
0
  5
45DF
 10
641.719
 20
667.028
 30
0.000000
  70
    32
  0
VERTEX
  8
0
  5
45E0
 10
641.696
 20
667.023
 30
0.000000
  70
    32
  0
SEQEND
  8
0
  5
45E1
  0
LINE
  5
4106
  8
0
 10
644.69638530577959
 20
668.89387646327191
 30
0.0
 11
644.69638530577959
 21
669.39387646327191
 31
0.0
  0
LINE
  5
4107
  8
1
 10
775.19638530577947
 20
642.1781914632719
 30
0.0
 11
775.19638530577947
 21
667.02263846327185
 31
0.0
  0
CIRCLE
  5
4108
  8
2
 10
775.19638530577947
 20
654.60041546327193
 30
0.0
 40
6.5
  0
ARC
  5
4109
  8
0
 10
799.8963853057794
 20
654.60041546327193
 30
0.0
 40
2.25
 50
270.0
 51
90.0
  0
LINE
  5
410A
  8
0
 10
799.09638530577956
 20
656.85041546327193
 30
0.0
 11
799.8963853057794
 21
656.85041546327193
 31
0.0
  0
LINE
  5
410B
  8
0
 10
799.09638530577956
 20
652.35041546327193
 30
0.0
 11
799.8963853057794
 21
652.35041546327193
 31
0.0
  0
LINE
  5
410C
  8
1
 10
799.49638530577931
 20
660.60041546327193
 30
0.0
 11
799.49638530577931
 21
648.60041546327193
 31
0.0
  0
LINE
  5
410D
  8
2
 10
949.89638530577975
 20
667.02263846327185
 30
0.0
 11
949.89638530577975
 21
642.1781914632719
 31
0.0
  0
LINE
  5
410E
  8
0
 10
948.79638530577995
 20
672.27541546327188
 30
0.0
 11
948.79638530577995
 21
661.60041546327193
 31
0.0
  0
LINE
  5
410F
  8
0
 10
922.49638530577931
 20
667.02263846327185
 30
0.0
 11
922.49638530577931
 21
663.00041546327191
 31
0.0
  0
LINE
  5
4110
  8
0
 10
916.67008230577937
 20
661.43744146327185
 30
0.0
 11
922.14673830577965
 21
659.71065846327201
 31
0.0
  0
LINE
  5
4111
  8
0
 10
922.49638530577931
 20
663.00041546327191
 30
0.0
 11
916.91064630577921
 21
663.00041546327191
 31
0.0
  0
LINE
  5
4112
  8
0
 10
916.67008230577937
 20
647.76338846327189
 30
0.0
 11
922.14673830577965
 21
649.49017146327185
 31
0.0
  0
LINE
  5
4113
  8
0
 10
922.49638530577931
 20
646.20041546327195
 30
0.0
 11
916.91064630577921
 21
646.20041546327195
 31
0.0
  0
ARC
  5
4114
  8
0
 10
916.91064630577921
 20
662.20041546327195
 30
0.0
 40
0.8
 50
90.0
 51
252.5000000000056
  0
ARC
  5
4115
  8
0
 10
910.59638530577968
 20
654.20041546327195
 30
0.0
 40
2.25
 50
180.0
 51
0.0
  0
ARC
  5
4116
  8
0
 10
916.91064630577921
 20
647.00041546327191
 30
0.0
 40
0.8
 50
107.4999999999944
 51
270.0
  0
LINE
  5
4117
  8
0
 10
908.34638530577956
 20
655.00041546327191
 30
0.0
 11
908.34638530577956
 21
654.20041546327195
 31
0.0
  0
LINE
  5
4118
  8
0
 10
912.84638530577956
 20
655.00041546327191
 30
0.0
 11
912.84638530577956
 21
654.20041546327195
 31
0.0
  0
ARC
  5
4119
  8
0
 10
910.59638530577968
 20
655.00041546327191
 30
0.0
 40
2.25
 50
0.0
 51
180.0
  0
ARC
  5
411A
  8
0
 10
897.89638530577929
 20
654.20041546327195
 30
0.0
 40
2.25
 50
180.0
 51
0.0
  0
LINE
  5
411B
  8
0
 10
895.6463853057794
 20
654.20041546327195
 30
0.0
 11
895.6463853057794
 21
655.00041546327191
 31
0.0
  0
LINE
  5
411C
  8
0
 10
900.1463853057794
 20
654.20041546327195
 30
0.0
 11
900.1463853057794
 21
655.00041546327191
 31
0.0
  0
ARC
  5
411D
  8
0
 10
897.89638530577929
 20
655.00041546327191
 30
0.0
 40
2.25
 50
0.0
 51
180.0
  0
ARC
  5
411E
  8
0
 10
884.79638530577949
 20
654.60041546327193
 30
0.0
 40
2.25
 50
90.0
 51
270.0
  0
LINE
  5
411F
  8
0
 10
884.79638530577949
 20
652.35041546327193
 30
0.0
 11
885.59638530577968
 21
652.35041546327193
 31
0.0
  0
LINE
  5
4120
  8
0
 10
884.79638530577949
 20
656.85041546327193
 30
0.0
 11
885.59638530577968
 21
656.85041546327193
 31
0.0
  0
ARC
  5
4121
  8
0
 10
885.59638530577968
 20
654.60041546327193
 30
0.0
 40
2.25
 50
270.0
 51
90.0
  0
LINE
  5
4122
  8
0
 10
885.19638530577959
 20
660.60041546327193
 30
0.0
 11
885.19638530577959
 21
648.60041546327193
 31
0.0
  0
LINE
  5
4123
  8
1
 10
885.19638530577959
 20
660.60041546327193
 30
0.0
 11
885.19638530577959
 21
648.60041546327193
 31
0.0
  0
LINE
  5
4124
  8
1
 10
897.89638530577929
 20
660.60041546327193
 30
0.0
 11
897.89638530577929
 21
648.60041546327193
 31
0.0
  0
LINE
  5
4125
  8
1
 10
910.59638530577968
 20
660.60041546327193
 30
0.0
 11
910.59638530577968
 21
648.60041546327193
 31
0.0
  0
LINE
  5
4126
  8
0
 10
951.44638530578015
 20
662.10041546327193
 30
0.0
 11
948.79638530577995
 21
661.60041546327193
 31
0.0
  0
LINE
  5
4127
  8
2
 10
951.44638530578015
 20
662.10041546327193
 30
0.0
 11
952.99638530577965
 21
662.10041546327193
 31
0.0
  0
ARC
  5
4128
  8
0
 10
921.99638530577931
 20
659.23379946327179
 30
0.0
 40
0.5
 50
0.0
 51
72.500000000005585
  0
LINE
  5
4129
  8
0
 10
948.79638530577995
 20
647.60041546327193
 30
0.0
 11
951.44638530578015
 21
647.10041546327193
 31
0.0
  0
LINE
  5
412A
  8
2
 10
951.44638530578015
 20
647.10041546327193
 30
0.0
 11
952.99638530577965
 21
647.10041546327193
 31
0.0
  0
LINE
  5
412B
  8
0
 10
948.79638530577995
 20
647.60041546327193
 30
0.0
 11
948.79638530577995
 21
636.92541546327186
 31
0.0
  0
ARC
  5
4134
  8
0
 10
921.99638530577931
 20
649.96703046327195
 30
0.0
 40
0.5
 50
287.49999999999437
 51
0.0
  0
LINE
  5
4135
  8
0
 10
922.49638530577931
 20
642.1781914632719
 30
0.0
 11
922.49638530577931
 21
646.20041546327195
 31
0.0
  0
LINE
  5
4136
  8
0
 10
922.49638530577931
 20
659.23379946327179
 30
0.0
 11
922.49638530577931
 21
649.96703046327195
 31
0.0
  0
LINE
  5
4137
  8
0
 10
951.44638530578015
 20
662.10041546327193
 30
0.0
 11
951.44638530578015
 21
647.10041546327193
 31
0.0
  0
LINE
  5
4138
  8
2
 10
952.99638530577965
 20
662.10041546327193
 30
0.0
 11
952.99638530577965
 21
647.10041546327193
 31
0.0
  0
LINE
  5
4139
  8
0
 10
1326.3963853057801
 20
639.80695346327195
 30
0.0
 11
1659.9963853057791
 21
639.80695346327195
 31
0.0
  0
LINE
  5
413A
  8
0
 10
1326.3963853057801
 20
638.71070646327189
 30
0.0
 11
1659.9963853057791
 21
638.71070646327189
 31
0.0
  0
LINE
  5
413B
  8
0
 10
1326.3963853057801
 20
636.92541546327186
 30
0.0
 11
1659.9963853057791
 21
636.92541546327186
 31
0.0
  0
LINE
  5
413C
  8
0
 10
1326.3963853057801
 20
669.39387646327191
 30
0.0
 11
1659.9963853057791
 21
669.39387646327191
 31
0.0
  0
LINE
  5
413D
  8
0
 10
1326.3963853057801
 20
670.49012346327186
 30
0.0
 11
1659.9963853057791
 21
670.49012346327186
 31
0.0
  0
LINE
  5
413E
  8
0
 10
1326.3963853057801
 20
672.27541546327188
 30
0.0
 11
1659.9963853057791
 21
672.27541546327188
 31
0.0
  0
LINE
  5
413F
  8
0
 10
1268.8963853057801
 20
660.60041546327193
 30
0.0
 11
1288.8963853057801
 21
660.60041546327193
 31
0.0
  0
LINE
  5
4140
  8
0
 10
1268.8963853057801
 20
648.60041546327193
 30
0.0
 11
1288.8963853057801
 21
648.60041546327193
 31
0.0
  0
CIRCLE
  5
4141
  8
0
 10
1280.3963853057801
 20
654.60041546327193
 30
0.0
 40
6.0
  0
LINE
  5
4143
  8
2
 10
990.49638530577965
 20
656.85041546327193
 30
0.0
 11
989.69638530577993
 21
656.85041546327193
 31
0.0
  0
LINE
  5
4144
  8
2
 10
990.49638530577965
 20
652.35041546327193
 30
0.0
 11
989.69638530577993
 21
652.35041546327193
 31
0.0
  0
ARC
  5
4145
  8
2
 10
989.69638530577993
 20
654.60041546327193
 30
0.0
 40
2.25
 50
90.0
 51
270.0
  0
ARC
  5
4146
  8
2
 10
990.49638530577965
 20
654.60041546327193
 30
0.0
 40
2.25
 50
270.0
 51
90.0
  0
ARC
  5
414A
  8
2
 10
977.39638530577975
 20
655.00041546327191
 30
0.0
 40
2.25
 50
0.0
 51
180.0
  0
LINE
  5
414B
  8
2
 10
975.14638530577975
 20
655.00041546327191
 30
0.0
 11
975.14638530577975
 21
654.20041546327195
 31
0.0
  0
LINE
  5
414C
  8
2
 10
966.94638530578004
 20
655.00041546327191
 30
0.0
 11
966.94638530578004
 21
654.20041546327195
 31
0.0
  0
LINE
  5
414D
  8
2
 10
979.64638530577986
 20
655.00041546327191
 30
0.0
 11
979.64638530577986
 21
654.20041546327195
 31
0.0
  0
ARC
  5
414E
  8
2
 10
977.39638530577975
 20
654.20041546327195
 30
0.0
 40
2.25
 50
180.0
 51
0.0
  0
LINE
  5
415D
  8
2
 10
962.44638530578004
 20
655.00041546327191
 30
0.0
 11
962.44638530578004
 21
654.20041546327195
 31
0.0
  0
ARC
  5
415E
  8
2
 10
964.69638530577993
 20
655.00041546327191
 30
0.0
 40
2.25
 50
0.0
 51
180.0
  0
ARC
  5
415F
  8
2
 10
964.69638530577993
 20
654.20041546327195
 30
0.0
 40
2.25
 50
180.0
 51
0.0
  0
LINE
  5
4162
  8
1
 10
977.39638530577975
 20
660.60041546327193
 30
0.0
 11
977.39638530577975
 21
648.60041546327193
 31
0.0
  0
LINE
  5
4163
  8
1
 10
964.69638530577993
 20
660.60041546327193
 30
0.0
 11
964.69638530577993
 21
648.60041546327193
 31
0.0
  0
LINE
  5
4164
  8
1
 10
990.09638530577968
 20
660.60041546327193
 30
0.0
 11
990.09638530577968
 21
648.60041546327193
 31
0.0
  0
LINE
  5
416A
  8
2
 10
1076.19638530578
 20
656.85041546327193
 30
0.0
 11
1075.3963853057801
 21
656.85041546327193
 31
0.0
  0
LINE
  5
416B
  8
2
 10
1076.19638530578
 20
652.35041546327193
 30
0.0
 11
1075.3963853057801
 21
652.35041546327193
 31
0.0
  0
ARC
  5
416C
  8
2
 10
1075.3963853057801
 20
654.60041546327193
 30
0.0
 40
2.25
 50
90.0
 51
270.0
  0
ARC
  5
416D
  8
2
 10
1076.19638530578
 20
654.60041546327193
 30
0.0
 40
2.25
 50
270.0
 51
90.0
  0
LINE
  5
416E
  8
1
 10
1075.7963853057799
 20
660.60041546327193
 30
0.0
 11
1075.7963853057799
 21
648.60041546327193
 31
0.0
  0
LINE
  5
416F
  8
0
 10
1258.3963853057801
 20
660.55041546327186
 30
0.0
 11
1258.3963853057801
 21
662.75041546327191
 31
0.0
  0
LINE
  5
4170
  8
0
 10
1256.3963853057801
 20
659.75041546327179
 30
0.0
 11
1256.3963853057801
 21
663.55041546327197
 31
0.0
  0
LINE
  5
4171
  8
0
 10
1262.7963853057799
 20
663.55041546327197
 30
0.0
 11
1256.3963853057801
 21
663.55041546327197
 31
0.0
  0
LINE
  5
4172
  8
0
 10
1262.7963853057799
 20
659.75041546327179
 30
0.0
 11
1256.3963853057801
 21
659.75041546327179
 31
0.0
  0
CIRCLE
  5
4173
  8
0
 10
1280.3963853057801
 20
654.60041546327193
 30
0.0
 40
2.25
  0
CIRCLE
  5
4174
  8
0
 10
1280.3963853057801
 20
654.60041546327193
 30
0.0
 40
3.0
  0
LINE
  5
4175
  8
0
 10
1258.3963853057801
 20
648.65041546327188
 30
0.0
 11
1258.3963853057801
 21
646.45041546327195
 31
0.0
  0
LINE
  5
4176
  8
0
 10
1266.8963853057801
 20
658.60041546327193
 30
0.0
 11
1266.8963853057801
 21
650.60041546327193
 31
0.0
  0
ARC
  5
4177
  8
0
 10
1268.8963853057801
 20
650.60041546327193
 30
0.0
 40
2.0
 50
180.0
 51
270.0
  0
LINE
  5
417A
  8
0
 10
1256.3963853057801
 20
649.45041546327195
 30
0.0
 11
1256.3963853057801
 21
645.65041546327177
 31
0.0
  0
LINE
  5
417B
  8
0
 10
1262.7963853057799
 20
645.65041546327177
 30
0.0
 11
1256.3963853057801
 21
645.65041546327177
 31
0.0
  0
LINE
  5
417C
  8
0
 10
1262.7963853057799
 20
649.45041546327195
 30
0.0
 11
1256.3963853057801
 21
649.45041546327195
 31
0.0
  0
ARC
  5
417D
  8
0
 10
1268.8963853057801
 20
658.60041546327193
 30
0.0
 40
2.0
 50
90.0
 51
180.0
  0
ARC
  5
4180
  8
0
 10
1316.8963853057801
 20
665.40041546327177
 30
0.0
 40
1.0
 50
0.0
 51
90.0
  0
ARC
  5
4181
  8
0
 10
1305.3963853057801
 20
665.40041546327177
 30
0.0
 40
1.0
 50
90.0
 51
180.0
  0
LINE
  5
4182
  8
0
 10
1328.7963853057799
 20
669.40041546327177
 30
0.0
 11
1328.7963853057799
 21
639.80041546327197
 31
0.0
  0
LINE
  5
4183
  8
0
 10
1322.3963853057801
 20
669.39387646327191
 30
0.0
 11
1322.3963853057801
 21
639.80695346327195
 31
0.0
  0
LINE
  5
4184
  8
2
 10
1302.2963853057799
 20
667.02263846327185
 30
0.0
 11
1302.2963853057799
 21
642.1781914632719
 31
0.0
  0
LINE
  5
4185
  8
0
 10
1326.3963853057801
 20
638.80041546327186
 30
0.0
 11
1327.7963853057799
 21
638.80041546327186
 31
0.0
  0
LINE
  5
4188
  8
0
 10
1326.3963853057801
 20
664.30041546327197
 30
0.0
 11
1324.8463853057799
 21
664.30041546327197
 31
0.0
  0
POLYLINE
  8
0
  5
45E2
  66
     1
 10
0.000000
 20
0.000000
 30
0.000000
  70
     8
  0
VERTEX
  8
0
  5
45E3
 10
1305.12
 20
660.716
 30
0.000000
  70
    32
  0
VERTEX
  8
0
  5
45E4
 10
1305.13
 20
660.702
 30
0.000000
  70
    32
  0
VERTEX
  8
0
  5
45E5
 10
1305.15
 20
660.688
 30
0.000000
  70
    32
  0
VERTEX
  8
0
  5
45E6
 10
1305.16
 20
660.673
 30
0.000000
  70
    32
  0
VERTEX
  8
0
  5
45E7
 10
1305.17
 20
660.659
 30
0.000000
  70
    32
  0
VERTEX
  8
0
  5
45E8
 10
1305.18
 20
660.645
 30
0.000000
  70
    32
  0
VERTEX
  8
0
  5
45E9
 10
1305.19
 20
660.631
 30
0.000000
  70
    32
  0
VERTEX
  8
0
  5
45EA
 10
1305.21
 20
660.616
 30
0.000000
  70
    32
  0
VERTEX
  8
0
  5
45EB
 10
1305.22
 20
660.602
 30
0.000000
  70
    32
  0
VERTEX
  8
0
  5
45EC
 10
1305.23
 20
660.588
 30
0.000000
  70
    32
  0
VERTEX
  8
0
  5
45ED
 10
1305.24
 20
660.574
 30
0.000000
  70
    32
  0
VERTEX
  8
0
  5
45EE
 10
1305.25
 20
660.560
 30
0.000000
  70
    32
  0
VERTEX
  8
0
  5
45EF
 10
1305.26
 20
660.546
 30
0.000000
  70
    32
  0
VERTEX
  8
0
  5
45F0
 10
1305.28
 20
660.532
 30
0.000000
  70
    32
  0
VERTEX
  8
0
  5
45F1
 10
1305.29
 20
660.518
 30
0.000000
  70
    32
  0
VERTEX
  8
0
  5
45F2
 10
1305.30
 20
660.504
 30
0.000000
  70
    32
  0
VERTEX
  8
0
  5
45F3
 10
1305.31
 20
660.491
 30
0.000000
  70
    32
  0
VERTEX
  8
0
  5
45F4
 10
1305.32
 20
660.477
 30
0.000000
  70
    32
  0
VERTEX
  8
0
  5
45F5
 10
1305.33
 20
660.464
 30
0.000000
  70
    32
  0
VERTEX
  8
0
  5
45F6
 10
1305.35
 20
660.450
 30
0.000000
  70
    32
  0
VERTEX
  8
0
  5
45F7
 10
1305.36
 20
660.437
 30
0.000000
  70
    32
  0
VERTEX
  8
0
  5
45F8
 10
1305.37
 20
660.424
 30
0.000000
  70
    32
  0
VERTEX
  8
0
  5
45F9
 10
1305.38
 20
660.411
 30
0.000000
  70
    32
  0
VERTEX
  8
0
  5
45FA
 10
1305.39
 20
660.398
 30
0.000000
  70
    32
  0
VERTEX
  8
0
  5
45FB
 10
1305.40
 20
660.386
 30
0.000000
  70
    32
  0
VERTEX
  8
0
  5
45FC
 10
1305.42
 20
660.373
 30
0.000000
  70
    32
  0
VERTEX
  8
0
  5
45FD
 10
1305.43
 20
660.360
 30
0.000000
  70
    32
  0
VERTEX
  8
0
  5
45FE
 10
1305.44
 20
660.348
 30
0.000000
  70
    32
  0
VERTEX
  8
0
  5
45FF
 10
1305.45
 20
660.336
 30
0.000000
  70
    32
  0
VERTEX
  8
0
  5
4600
 10
1305.46
 20
660.324
 30
0.000000
  70
    32
  0
VERTEX
  8
0
  5
4601
 10
1305.47
 20
660.312
 30
0.000000
  70
    32
  0
VERTEX
  8
0
  5
4602
 10
1305.49
 20
660.301
 30
0.000000
  70
    32
  0
VERTEX
  8
0
  5
4603
 10
1305.50
 20
660.289
 30
0.000000
  70
    32
  0
VERTEX
  8
0
  5
4604
 10
1305.51
 20
660.278
 30
0.000000
  70
    32
  0
VERTEX
  8
0
  5
4605
 10
1305.52
 20
660.267
 30
0.000000
  70
    32
  0
VERTEX
  8
0
  5
4606
 10
1305.53
 20
660.256
 30
0.000000
  70
    32
  0
VERTEX
  8
0
  5
4607
 10
1305.54
 20
660.245
 30
0.000000
  70
    32
  0
VERTEX
  8
0
  5
4608
 10
1305.56
 20
660.235
 30
0.000000
  70
    32
  0
VERTEX
  8
0
  5
4609
 10
1305.57
 20
660.225
 30
0.000000
  70
    32
  0
VERTEX
  8
0
  5
460A
 10
1305.58
 20
660.215
 30
0.000000
  70
    32
  0
VERTEX
  8
0
  5
460B
 10
1305.59
 20
660.205
 30
0.000000
  70
    32
  0
VERTEX
  8
0
  5
460C
 10
1305.60
 20
660.196
 30
0.000000
  70
    32
  0
VERTEX
  8
0
  5
460D
 10
1305.61
 20
660.186
 30
0.000000
  70
    32
  0
VERTEX
  8
0
  5
460E
 10
1305.63
 20
660.177
 30
0.000000
  70
    32
  0
VERTEX
  8
0
  5
460F
 10
1305.64
 20
660.168
 30
0.000000
  70
    32
  0
VERTEX
  8
0
  5
4610
 10
1305.65
 20
660.160
 30
0.000000
  70
    32
  0
VERTEX
  8
0
  5
4611
 10
1305.66
 20
660.152
 30
0.000000
  70
    32
  0
VERTEX
  8
0
  5
4612
 10
1305.67
 20
660.144
 30
0.000000
  70
    32
  0
VERTEX
  8
0
  5
4613
 10
1305.68
 20
660.136
 30
0.000000
  70
    32
  0
VERTEX
  8
0
  5
4614
 10
1305.70
 20
660.129
 30
0.000000
  70
    32
  0
VERTEX
  8
0
  5
4615
 10
1305.71
 20
660.121
 30
0.000000
  70
    32
  0
VERTEX
  8
0
  5
4616
 10
1305.72
 20
660.115
 30
0.000000
  70
    32
  0
VERTEX
  8
0
  5
4617
 10
1305.73
 20
660.108
 30
0.000000
  70
    32
  0
VERTEX
  8
0
  5
4618
 10
1305.74
 20
660.102
 30
0.000000
  70
    32
  0
VERTEX
  8
0
  5
4619
 10
1305.75
 20
660.096
 30
0.000000
  70
    32
  0
VERTEX
  8
0
  5
461A
 10
1305.76
 20
660.090
 30
0.000000
  70
    32
  0
VERTEX
  8
0
  5
461B
 10
1305.78
 20
660.085
 30
0.000000
  70
    32
  0
VERTEX
  8
0
  5
461C
 10
1305.79
 20
660.080
 30
0.000000
  70
    32
  0
VERTEX
  8
0
  5
461D
 10
1305.80
 20
660.075
 30
0.000000
  70
    32
  0
VERTEX
  8
0
  5
461E
 10
1305.81
 20
660.071
 30
0.000000
  70
    32
  0
VERTEX
  8
0
  5
461F
 10
1305.82
 20
660.067
 30
0.000000
  70
    32
  0
VERTEX
  8
0
  5
4620
 10
1305.83
 20
660.064
 30
0.000000
  70
    32
  0
VERTEX
  8
0
  5
4621
 10
1305.84
 20
660.060
 30
0.000000
  70
    32
  0
VERTEX
  8
0
  5
4622
 10
1305.85
 20
660.058
 30
0.000000
  70
    32
  0
VERTEX
  8
0
  5
4623
 10
1305.87
 20
660.055
 30
0.000000
  70
    32
  0
VERTEX
  8
0
  5
4624
 10
1305.88
 20
660.053
 30
0.000000
  70
    32
  0
VERTEX
  8
0
  5
4625
 10
1305.89
 20
660.051
 30
0.000000
  70
    32
  0
VERTEX
  8
0
  5
4626
 10
1305.90
 20
660.050
 30
0.000000
  70
    32
  0
VERTEX
  8
0
  5
4627
 10
1305.91
 20
660.049
 30
0.000000
  70
    32
  0
VERTEX
  8
0
  5
4628
 10
1305.92
 20
660.049
 30
0.000000
  70
    32
  0
VERTEX
  8
0
  5
4629
 10
1305.93
 20
660.048
 30
0.000000
  70
    32
  0
VERTEX
  8
0
  5
462A
 10
1305.95
 20
660.049
 30
0.000000
  70
    32
  0
VERTEX
  8
0
  5
462B
 10
1305.96
 20
660.049
 30
0.000000
  70
    32
  0
VERTEX
  8
0
  5
462C
 10
1305.97
 20
660.050
 30
0.000000
  70
    32
  0
VERTEX
  8
0
  5
462D
 10
1305.98
 20
660.051
 30
0.000000
  70
    32
  0
VERTEX
  8
0
  5
462E
 10
1305.99
 20
660.053
 30
0.000000
  70
    32
  0
VERTEX
  8
0
  5
462F
 10
1306.00
 20
660.055
 30
0.000000
  70
    32
  0
VERTEX
  8
0
  5
4630
 10
1306.01
 20
660.058
 30
0.000000
  70
    32
  0
VERTEX
  8
0
  5
4631
 10
1306.02
 20
660.060
 30
0.000000
  70
    32
  0
VERTEX
  8
0
  5
4632
 10
1306.03
 20
660.063
 30
0.000000
  70
    32
  0
VERTEX
  8
0
  5
4633
 10
1306.05
 20
660.067
 30
0.000000
  70
    32
  0
VERTEX
  8
0
  5
4634
 10
1306.06
 20
660.071
 30
0.000000
  70
    32
  0
VERTEX
  8
0
  5
4635
 10
1306.07
 20
660.075
 30
0.000000
  70
    32
  0
VERTEX
  8
0
  5
4636
 10
1306.08
 20
660.079
 30
0.000000
  70
    32
  0
VERTEX
  8
0
  5
4637
 10
1306.09
 20
660.084
 30
0.000000
  70
    32
  0
VERTEX
  8
0
  5
4638
 10
1306.10
 20
660.089
 30
0.000000
  70
    32
  0
VERTEX
  8
0
  5
4639
 10
1306.11
 20
660.094
 30
0.000000
  70
    32
  0
VERTEX
  8
0
  5
463A
 10
1306.12
 20
660.100
 30
0.000000
  70
    32
  0
VERTEX
  8
0
  5
463B
 10
1306.13
 20
660.106
 30
0.000000
  70
    32
  0
VERTEX
  8
0
  5
463C
 10
1306.15
 20
660.112
 30
0.000000
  70
    32
  0
VERTEX
  8
0
  5
463D
 10
1306.16
 20
660.119
 30
0.000000
  70
    32
  0
VERTEX
  8
0
  5
463E
 10
1306.17
 20
660.126
 30
0.000000
  70
    32
  0
VERTEX
  8
0
  5
463F
 10
1306.18
 20
660.133
 30
0.000000
  70
    32
  0
VERTEX
  8
0
  5
4640
 10
1306.19
 20
660.140
 30
0.000000
  70
    32
  0
VERTEX
  8
0
  5
4641
 10
1306.20
 20
660.148
 30
0.000000
  70
    32
  0
VERTEX
  8
0
  5
4642
 10
1306.21
 20
660.156
 30
0.000000
  70
    32
  0
VERTEX
  8
0
  5
4643
 10
1306.22
 20
660.165
 30
0.000000
  70
    32
  0
VERTEX
  8
0
  5
4644
 10
1306.23
 20
660.173
 30
0.000000
  70
    32
  0
VERTEX
  8
0
  5
4645
 10
1306.24
 20
660.182
 30
0.000000
  70
    32
  0
VERTEX
  8
0
  5
4646
 10
1306.25
 20
660.191
 30
0.000000
  70
    32
  0
VERTEX
  8
0
  5
4647
 10
1306.27
 20
660.200
 30
0.000000
  70
    32
  0
VERTEX
  8
0
  5
4648
 10
1306.28
 20
660.210
 30
0.000000
  70
    32
  0
VERTEX
  8
0
  5
4649
 10
1306.29
 20
660.220
 30
0.000000
  70
    32
  0
VERTEX
  8
0
  5
464A
 10
1306.30
 20
660.230
 30
0.000000
  70
    32
  0
VERTEX
  8
0
  5
464B
 10
1306.31
 20
660.240
 30
0.000000
  70
    32
  0
VERTEX
  8
0
  5
464C
 10
1306.32
 20
660.251
 30
0.000000
  70
    32
  0
VERTEX
  8
0
  5
464D
 10
1306.33
 20
660.262
 30
0.000000
  70
    32
  0
VERTEX
  8
0
  5
464E
 10
1306.34
 20
660.273
 30
0.000000
  70
    32
  0
VERTEX
  8
0
  5
464F
 10
1306.35
 20
660.284
 30
0.000000
  70
    32
  0
VERTEX
  8
0
  5
4650
 10
1306.36
 20
660.295
 30
0.000000
  70
    32
  0
VERTEX
  8
0
  5
4651
 10
1306.37
 20
660.307
 30
0.000000
  70
    32
  0
VERTEX
  8
0
  5
4652
 10
1306.38
 20
660.319
 30
0.000000
  70
    32
  0
VERTEX
  8
0
  5
4653
 10
1306.40
 20
660.331
 30
0.000000
  70
    32
  0
VERTEX
  8
0
  5
4654
 10
1306.41
 20
660.343
 30
0.000000
  70
    32
  0
VERTEX
  8
0
  5
4655
 10
1306.42
 20
660.356
 30
0.000000
  70
    32
  0
VERTEX
  8
0
  5
4656
 10
1306.43
 20
660.368
 30
0.000000
  70
    32
  0
VERTEX
  8
0
  5
4657
 10
1306.44
 20
660.381
 30
0.000000
  70
    32
  0
VERTEX
  8
0
  5
4658
 10
1306.45
 20
660.394
 30
0.000000
  70
    32
  0
VERTEX
  8
0
  5
4659
 10
1306.46
 20
660.407
 30
0.000000
  70
    32
  0
VERTEX
  8
0
  5
465A
 10
1306.47
 20
660.421
 30
0.000000
  70
    32
  0
VERTEX
  8
0
  5
465B
 10
1306.48
 20
660.434
 30
0.000000
  70
    32
  0
VERTEX
  8
0
  5
465C
 10
1306.49
 20
660.448
 30
0.000000
  70
    32
  0
VERTEX
  8
0
  5
465D
 10
1306.50
 20
660.462
 30
0.000000
  70
    32
  0
VERTEX
  8
0
  5
465E
 10
1306.51
 20
660.476
 30
0.000000
  70
    32
  0
VERTEX
  8
0
  5
465F
 10
1306.52
 20
660.490
 30
0.000000
  70
    32
  0
VERTEX
  8
0
  5
4660
 10
1306.53
 20
660.505
 30
0.000000
  70
    32
  0
VERTEX
  8
0
  5
4661
 10
1306.55
 20
660.519
 30
0.000000
  70
    32
  0
VERTEX
  8
0
  5
4662
 10
1306.56
 20
660.534
 30
0.000000
  70
    32
  0
VERTEX
  8
0
  5
4663
 10
1306.57
 20
660.548
 30
0.000000
  70
    32
  0
VERTEX
  8
0
  5
4664
 10
1306.58
 20
660.563
 30
0.000000
  70
    32
  0
VERTEX
  8
0
  5
4665
 10
1306.59
 20
660.578
 30
0.000000
  70
    32
  0
VERTEX
  8
0
  5
4666
 10
1306.60
 20
660.593
 30
0.000000
  70
    32
  0
VERTEX
  8
0
  5
4667
 10
1306.61
 20
660.609
 30
0.000000
  70
    32
  0
VERTEX
  8
0
  5
4668
 10
1306.62
 20
660.624
 30
0.000000
  70
    32
  0
VERTEX
  8
0
  5
4669
 10
1306.63
 20
660.640
 30
0.000000
  70
    32
  0
VERTEX
  8
0
  5
466A
 10
1306.64
 20
660.655
 30
0.000000
  70
    32
  0
VERTEX
  8
0
  5
466B
 10
1306.65
 20
660.671
 30
0.000000
  70
    32
  0
VERTEX
  8
0
  5
466C
 10
1306.66
 20
660.687
 30
0.000000
  70
    32
  0
VERTEX
  8
0
  5
466D
 10
1306.67
 20
660.703
 30
0.000000
  70
    32
  0
VERTEX
  8
0
  5
466E
 10
1306.68
 20
660.719
 30
0.000000
  70
    32
  0
VERTEX
  8
0
  5
466F
 10
1306.69
 20
660.735
 30
0.000000
  70
    32
  0
VERTEX
  8
0
  5
4670
 10
1306.71
 20
660.751
 30
0.000000
  70
    32
  0
VERTEX
  8
0
  5
4671
 10
1306.72
 20
660.767
 30
0.000000
  70
    32
  0
VERTEX
  8
0
  5
4672
 10
1306.73
 20
660.783
 30
0.000000
  70
    32
  0
VERTEX
  8
0
  5
4673
 10
1306.74
 20
660.800
 30
0.000000
  70
    32
  0
VERTEX
  8
0
  5
4674
 10
1306.75
 20
660.816
 30
0.000000
  70
    32
  0
VERTEX
  8
0
  5
4675
 10
1306.76
 20
660.833
 30
0.000000
  70
    32
  0
VERTEX
  8
0
  5
4676
 10
1306.77
 20
660.849
 30
0.000000
  70
    32
  0
VERTEX
  8
0
  5
4677
 10
1306.78
 20
660.866
 30
0.000000
  70
    32
  0
VERTEX
  8
0
  5
4678
 10
1306.79
 20
660.882
 30
0.000000
  70
    32
  0
VERTEX
  8
0
  5
4679
 10
1306.80
 20
660.899
 30
0.000000
  70
    32
  0
VERTEX
  8
0
  5
467A
 10
1306.81
 20
660.916
 30
0.000000
  70
    32
  0
VERTEX
  8
0
  5
467B
 10
1306.82
 20
660.933
 30
0.000000
  70
    32
  0
VERTEX
  8
0
  5
467C
 10
1306.83
 20
660.949
 30
0.000000
  70
    32
  0
VERTEX
  8
0
  5
467D
 10
1306.84
 20
660.966
 30
0.000000
  70
    32
  0
VERTEX
  8
0
  5
467E
 10
1306.85
 20
660.983
 30
0.000000
  70
    32
  0
VERTEX
  8
0
  5
467F
 10
1306.86
 20
661.000
 30
0.000000
  70
    32
  0
VERTEX
  8
0
  5
4680
 10
1306.88
 20
661.017
 30
0.000000
  70
    32
  0
VERTEX
  8
0
  5
4681
 10
1306.89
 20
661.034
 30
0.000000
  70
    32
  0
VERTEX
  8
0
  5
4682
 10
1306.90
 20
661.050
 30
0.000000
  70
    32
  0
SEQEND
  8
0
  5
4683
  0
LINE
  5
418A
  8
0
 10
1305.1226593057791
 20
660.71649546327205
 30
0.0
 11
1305.1226593057791
 21
661.61243446327194
 31
0.0
  0
LINE
  5
418B
  8
0
 10
1305.17922830578
 20
661.62051646327188
 30
0.0
 11
1304.8963853057801
 21
663.60041546327193
 31
0.0
  0
LINE
  5
418C
  8
0
 10
1306.8963853057801
 20
662.35041546327193
 30
0.0
 11
1306.8963853057801
 21
661.05041546327186
 31
0.0
  0
LINE
  5
418D
  8
0
 10
1291.17922830578
 20
659.620516463272
 30
0.0
 11
1290.8963853057801
 21
661.60041546327193
 31
0.0
  0
POLYLINE
  8
0
  5
4684
  66
     1
 10
0.000000
 20
0.000000
 30
0.000000
  70
     8
  0
VERTEX
  8
0
  5
4685
 10
1288.90
 20
660.600
 30
0.000000
  70
    32
  0
VERTEX
  8
0
  5
4686
 10
1288.91
 20
660.574
 30
0.000000
  70
    32
  0
VERTEX
  8
0
  5
4687
 10
1288.92
 20
660.548
 30
0.000000
  70
    32
  0
VERTEX
  8
0
  5
4688
 10
1288.93
 20
660.522
 30
0.000000
  70
    32
  0
VERTEX
  8
0
  5
4689
 10
1288.94
 20
660.496
 30
0.000000
  70
    32
  0
VERTEX
  8
0
  5
468A
 10
1288.95
 20
660.470
 30
0.000000
  70
    32
  0
VERTEX
  8
0
  5
468B
 10
1288.96
 20
660.444
 30
0.000000
  70
    32
  0
VERTEX
  8
0
  5
468C
 10
1288.97
 20
660.418
 30
0.000000
  70
    32
  0
VERTEX
  8
0
  5
468D
 10
1288.98
 20
660.392
 30
0.000000
  70
    32
  0
VERTEX
  8
0
  5
468E
 10
1288.99
 20
660.366
 30
0.000000
  70
    32
  0
VERTEX
  8
0
  5
468F
 10
1289.00
 20
660.341
 30
0.000000
  70
    32
  0
VERTEX
  8
0
  5
4690
 10
1289.01
 20
660.315
 30
0.000000
  70
    32
  0
VERTEX
  8
0
  5
4691
 10
1289.02
 20
660.289
 30
0.000000
  70
    32
  0
VERTEX
  8
0
  5
4692
 10
1289.03
 20
660.264
 30
0.000000
  70
    32
  0
VERTEX
  8
0
  5
4693
 10
1289.05
 20
660.238
 30
0.000000
  70
    32
  0
VERTEX
  8
0
  5
4694
 10
1289.06
 20
660.213
 30
0.000000
  70
    32
  0
VERTEX
  8
0
  5
4695
 10
1289.07
 20
660.188
 30
0.000000
  70
    32
  0
VERTEX
  8
0
  5
4696
 10
1289.08
 20
660.163
 30
0.000000
  70
    32
  0
VERTEX
  8
0
  5
4697
 10
1289.09
 20
660.138
 30
0.000000
  70
    32
  0
VERTEX
  8
0
  5
4698
 10
1289.10
 20
660.113
 30
0.000000
  70
    32
  0
VERTEX
  8
0
  5
4699
 10
1289.11
 20
660.088
 30
0.000000
  70
    32
  0
VERTEX
  8
0
  5
469A
 10
1289.12
 20
660.063
 30
0.000000
  70
    32
  0
VERTEX
  8
0
  5
469B
 10
1289.13
 20
660.039
 30
0.000000
  70
    32
  0
VERTEX
  8
0
  5
469C
 10
1289.14
 20
660.015
 30
0.000000
  70
    32
  0
VERTEX
  8
0
  5
469D
 10
1289.15
 20
659.990
 30
0.000000
  70
    32
  0
VERTEX
  8
0
  5
469E
 10
1289.16
 20
659.966
 30
0.000000
  70
    32
  0
VERTEX
  8
0
  5
469F
 10
1289.18
 20
659.943
 30
0.000000
  70
    32
  0
VERTEX
  8
0
  5
46A0
 10
1289.19
 20
659.919
 30
0.000000
  70
    32
  0
VERTEX
  8
0
  5
46A1
 10
1289.20
 20
659.896
 30
0.000000
  70
    32
  0
VERTEX
  8
0
  5
46A2
 10
1289.21
 20
659.872
 30
0.000000
  70
    32
  0
VERTEX
  8
0
  5
46A3
 10
1289.22
 20
659.849
 30
0.000000
  70
    32
  0
VERTEX
  8
0
  5
46A4
 10
1289.23
 20
659.826
 30
0.000000
  70
    32
  0
VERTEX
  8
0
  5
46A5
 10
1289.24
 20
659.804
 30
0.000000
  70
    32
  0
VERTEX
  8
0
  5
46A6
 10
1289.25
 20
659.781
 30
0.000000
  70
    32
  0
VERTEX
  8
0
  5
46A7
 10
1289.26
 20
659.759
 30
0.000000
  70
    32
  0
VERTEX
  8
0
  5
46A8
 10
1289.28
 20
659.737
 30
0.000000
  70
    32
  0
VERTEX
  8
0
  5
46A9
 10
1289.29
 20
659.716
 30
0.000000
  70
    32
  0
VERTEX
  8
0
  5
46AA
 10
1289.30
 20
659.694
 30
0.000000
  70
    32
  0
VERTEX
  8
0
  5
46AB
 10
1289.31
 20
659.673
 30
0.000000
  70
    32
  0
VERTEX
  8
0
  5
46AC
 10
1289.32
 20
659.652
 30
0.000000
  70
    32
  0
VERTEX
  8
0
  5
46AD
 10
1289.33
 20
659.632
 30
0.000000
  70
    32
  0
VERTEX
  8
0
  5
46AE
 10
1289.34
 20
659.611
 30
0.000000
  70
    32
  0
VERTEX
  8
0
  5
46AF
 10
1289.35
 20
659.591
 30
0.000000
  70
    32
  0
VERTEX
  8
0
  5
46B0
 10
1289.37
 20
659.571
 30
0.000000
  70
    32
  0
VERTEX
  8
0
  5
46B1
 10
1289.38
 20
659.552
 30
0.000000
  70
    32
  0
VERTEX
  8
0
  5
46B2
 10
1289.39
 20
659.533
 30
0.000000
  70
    32
  0
VERTEX
  8
0
  5
46B3
 10
1289.40
 20
659.514
 30
0.000000
  70
    32
  0
VERTEX
  8
0
  5
46B4
 10
1289.41
 20
659.495
 30
0.000000
  70
    32
  0
VERTEX
  8
0
  5
46B5
 10
1289.42
 20
659.477
 30
0.000000
  70
    32
  0
VERTEX
  8
0
  5
46B6
 10
1289.44
 20
659.459
 30
0.000000
  70
    32
  0
VERTEX
  8
0
  5
46B7
 10
1289.45
 20
659.442
 30
0.000000
  70
    32
  0
VERTEX
  8
0
  5
46B8
 10
1289.46
 20
659.425
 30
0.000000
  70
    32
  0
VERTEX
  8
0
  5
46B9
 10
1289.47
 20
659.408
 30
0.000000
  70
    32
  0
VERTEX
  8
0
  5
46BA
 10
1289.48
 20
659.392
 30
0.000000
  70
    32
  0
VERTEX
  8
0
  5
46BB
 10
1289.50
 20
659.375
 30
0.000000
  70
    32
  0
VERTEX
  8
0
  5
46BC
 10
1289.51
 20
659.360
 30
0.000000
  70
    32
  0
VERTEX
  8
0
  5
46BD
 10
1289.52
 20
659.345
 30
0.000000
  70
    32
  0
VERTEX
  8
0
  5
46BE
 10
1289.53
 20
659.330
 30
0.000000
  70
    32
  0
VERTEX
  8
0
  5
46BF
 10
1289.54
 20
659.315
 30
0.000000
  70
    32
  0
VERTEX
  8
0
  5
46C0
 10
1289.56
 20
659.301
 30
0.000000
  70
    32
  0
VERTEX
  8
0
  5
46C1
 10
1289.57
 20
659.287
 30
0.000000
  70
    32
  0
VERTEX
  8
0
  5
46C2
 10
1289.58
 20
659.274
 30
0.000000
  70
    32
  0
VERTEX
  8
0
  5
46C3
 10
1289.59
 20
659.261
 30
0.000000
  70
    32
  0
VERTEX
  8
0
  5
46C4
 10
1289.61
 20
659.249
 30
0.000000
  70
    32
  0
VERTEX
  8
0
  5
46C5
 10
1289.62
 20
659.237
 30
0.000000
  70
    32
  0
VERTEX
  8
0
  5
46C6
 10
1289.63
 20
659.225
 30
0.000000
  70
    32
  0
VERTEX
  8
0
  5
46C7
 10
1289.65
 20
659.214
 30
0.000000
  70
    32
  0
VERTEX
  8
0
  5
46C8
 10
1289.66
 20
659.204
 30
0.000000
  70
    32
  0
VERTEX
  8
0
  5
46C9
 10
1289.67
 20
659.194
 30
0.000000
  70
    32
  0
VERTEX
  8
0
  5
46CA
 10
1289.68
 20
659.184
 30
0.000000
  70
    32
  0
VERTEX
  8
0
  5
46CB
 10
1289.70
 20
659.175
 30
0.000000
  70
    32
  0
VERTEX
  8
0
  5
46CC
 10
1289.71
 20
659.166
 30
0.000000
  70
    32
  0
VERTEX
  8
0
  5
46CD
 10
1289.72
 20
659.158
 30
0.000000
  70
    32
  0
VERTEX
  8
0
  5
46CE
 10
1289.74
 20
659.150
 30
0.000000
  70
    32
  0
VERTEX
  8
0
  5
46CF
 10
1289.75
 20
659.143
 30
0.000000
  70
    32
  0
VERTEX
  8
0
  5
46D0
 10
1289.76
 20
659.136
 30
0.000000
  70
    32
  0
VERTEX
  8
0
  5
46D1
 10
1289.78
 20
659.130
 30
0.000000
  70
    32
  0
VERTEX
  8
0
  5
46D2
 10
1289.79
 20
659.125
 30
0.000000
  70
    32
  0
VERTEX
  8
0
  5
46D3
 10
1289.80
 20
659.120
 30
0.000000
  70
    32
  0
VERTEX
  8
0
  5
46D4
 10
1289.82
 20
659.115
 30
0.000000
  70
    32
  0
VERTEX
  8
0
  5
46D5
 10
1289.83
 20
659.111
 30
0.000000
  70
    32
  0
VERTEX
  8
0
  5
46D6
 10
1289.85
 20
659.108
 30
0.000000
  70
    32
  0
VERTEX
  8
0
  5
46D7
 10
1289.86
 20
659.105
 30
0.000000
  70
    32
  0
VERTEX
  8
0
  5
46D8
 10
1289.87
 20
659.103
 30
0.000000
  70
    32
  0
VERTEX
  8
0
  5
46D9
 10
1289.89
 20
659.101
 30
0.000000
  70
    32
  0
VERTEX
  8
0
  5
46DA
 10
1289.90
 20
659.100
 30
0.000000
  70
    32
  0
VERTEX
  8
0
  5
46DB
 10
1289.92
 20
659.100
 30
0.000000
  70
    32
  0
VERTEX
  8
0
  5
46DC
 10
1289.93
 20
659.100
 30
0.000000
  70
    32
  0
VERTEX
  8
0
  5
46DD
 10
1289.94
 20
659.100
 30
0.000000
  70
    32
  0
VERTEX
  8
0
  5
46DE
 10
1289.96
 20
659.102
 30
0.000000
  70
    32
  0
VERTEX
  8
0
  5
46DF
 10
1289.97
 20
659.103
 30
0.000000
  70
    32
  0
VERTEX
  8
0
  5
46E0
 10
1289.99
 20
659.106
 30
0.000000
  70
    32
  0
VERTEX
  8
0
  5
46E1
 10
1290.00
 20
659.109
 30
0.000000
  70
    32
  0
VERTEX
  8
0
  5
46E2
 10
1290.02
 20
659.112
 30
0.000000
  70
    32
  0
VERTEX
  8
0
  5
46E3
 10
1290.03
 20
659.116
 30
0.000000
  70
    32
  0
VERTEX
  8
0
  5
46E4
 10
1290.05
 20
659.121
 30
0.000000
  70
    32
  0
VERTEX
  8
0
  5
46E5
 10
1290.06
 20
659.126
 30
0.000000
  70
    32
  0
VERTEX
  8
0
  5
46E6
 10
1290.08
 20
659.131
 30
0.000000
  70
    32
  0
VERTEX
  8
0
  5
46E7
 10
1290.09
 20
659.137
 30
0.000000
  70
    32
  0
VERTEX
  8
0
  5
46E8
 10
1290.11
 20
659.143
 30
0.000000
  70
    32
  0
VERTEX
  8
0
  5
46E9
 10
1290.12
 20
659.150
 30
0.000000
  70
    32
  0
VERTEX
  8
0
  5
46EA
 10
1290.14
 20
659.158
 30
0.000000
  70
    32
  0
VERTEX
  8
0
  5
46EB
 10
1290.15
 20
659.166
 30
0.000000
  70
    32
  0
VERTEX
  8
0
  5
46EC
 10
1290.17
 20
659.174
 30
0.000000
  70
    32
  0
VERTEX
  8
0
  5
46ED
 10
1290.19
 20
659.183
 30
0.000000
  70
    32
  0
VERTEX
  8
0
  5
46EE
 10
1290.20
 20
659.192
 30
0.000000
  70
    32
  0
VERTEX
  8
0
  5
46EF
 10
1290.22
 20
659.202
 30
0.000000
  70
    32
  0
VERTEX
  8
0
  5
46F0
 10
1290.23
 20
659.212
 30
0.000000
  70
    32
  0
VERTEX
  8
0
  5
46F1
 10
1290.25
 20
659.222
 30
0.000000
  70
    32
  0
VERTEX
  8
0
  5
46F2
 10
1290.26
 20
659.233
 30
0.000000
  70
    32
  0
VERTEX
  8
0
  5
46F3
 10
1290.28
 20
659.244
 30
0.000000
  70
    32
  0
VERTEX
  8
0
  5
46F4
 10
1290.30
 20
659.256
 30
0.000000
  70
    32
  0
VERTEX
  8
0
  5
46F5
 10
1290.31
 20
659.268
 30
0.000000
  70
    32
  0
VERTEX
  8
0
  5
46F6
 10
1290.33
 20
659.281
 30
0.000000
  70
    32
  0
VERTEX
  8
0
  5
46F7
 10
1290.34
 20
659.294
 30
0.000000
  70
    32
  0
VERTEX
  8
0
  5
46F8
 10
1290.36
 20
659.307
 30
0.000000
  70
    32
  0
VERTEX
  8
0
  5
46F9
 10
1290.38
 20
659.320
 30
0.000000
  70
    32
  0
VERTEX
  8
0
  5
46FA
 10
1290.39
 20
659.334
 30
0.000000
  70
    32
  0
VERTEX
  8
0
  5
46FB
 10
1290.41
 20
659.348
 30
0.000000
  70
    32
  0
VERTEX
  8
0
  5
46FC
 10
1290.43
 20
659.363
 30
0.000000
  70
    32
  0
VERTEX
  8
0
  5
46FD
 10
1290.44
 20
659.378
 30
0.000000
  70
    32
  0
VERTEX
  8
0
  5
46FE
 10
1290.46
 20
659.393
 30
0.000000
  70
    32
  0
VERTEX
  8
0
  5
46FF
 10
1290.48
 20
659.408
 30
0.000000
  70
    32
  0
VERTEX
  8
0
  5
4700
 10
1290.49
 20
659.424
 30
0.000000
  70
    32
  0
VERTEX
  8
0
  5
4701
 10
1290.51
 20
659.440
 30
0.000000
  70
    32
  0
VERTEX
  8
0
  5
4702
 10
1290.53
 20
659.456
 30
0.000000
  70
    32
  0
VERTEX
  8
0
  5
4703
 10
1290.54
 20
659.473
 30
0.000000
  70
    32
  0
VERTEX
  8
0
  5
4704
 10
1290.56
 20
659.490
 30
0.000000
  70
    32
  0
VERTEX
  8
0
  5
4705
 10
1290.58
 20
659.507
 30
0.000000
  70
    32
  0
VERTEX
  8
0
  5
4706
 10
1290.59
 20
659.524
 30
0.000000
  70
    32
  0
VERTEX
  8
0
  5
4707
 10
1290.61
 20
659.542
 30
0.000000
  70
    32
  0
VERTEX
  8
0
  5
4708
 10
1290.63
 20
659.560
 30
0.000000
  70
    32
  0
VERTEX
  8
0
  5
4709
 10
1290.64
 20
659.578
 30
0.000000
  70
    32
  0
VERTEX
  8
0
  5
470A
 10
1290.66
 20
659.596
 30
0.000000
  70
    32
  0
VERTEX
  8
0
  5
470B
 10
1290.68
 20
659.615
 30
0.000000
  70
    32
  0
VERTEX
  8
0
  5
470C
 10
1290.69
 20
659.633
 30
0.000000
  70
    32
  0
VERTEX
  8
0
  5
470D
 10
1290.71
 20
659.652
 30
0.000000
  70
    32
  0
VERTEX
  8
0
  5
470E
 10
1290.73
 20
659.671
 30
0.000000
  70
    32
  0
VERTEX
  8
0
  5
470F
 10
1290.75
 20
659.690
 30
0.000000
  70
    32
  0
VERTEX
  8
0
  5
4710
 10
1290.76
 20
659.710
 30
0.000000
  70
    32
  0
VERTEX
  8
0
  5
4711
 10
1290.78
 20
659.729
 30
0.000000
  70
    32
  0
VERTEX
  8
0
  5
4712
 10
1290.80
 20
659.749
 30
0.000000
  70
    32
  0
VERTEX
  8
0
  5
4713
 10
1290.81
 20
659.769
 30
0.000000
  70
    32
  0
VERTEX
  8
0
  5
4714
 10
1290.83
 20
659.789
 30
0.000000
  70
    32
  0
VERTEX
  8
0
  5
4715
 10
1290.85
 20
659.809
 30
0.000000
  70
    32
  0
VERTEX
  8
0
  5
4716
 10
1290.87
 20
659.829
 30
0.000000
  70
    32
  0
VERTEX
  8
0
  5
4717
 10
1290.88
 20
659.850
 30
0.000000
  70
    32
  0
VERTEX
  8
0
  5
4718
 10
1290.90
 20
659.870
 30
0.000000
  70
    32
  0
VERTEX
  8
0
  5
4719
 10
1290.92
 20
659.891
 30
0.000000
  70
    32
  0
VERTEX
  8
0
  5
471A
 10
1290.93
 20
659.911
 30
0.000000
  70
    32
  0
VERTEX
  8
0
  5
471B
 10
1290.95
 20
659.932
 30
0.000000
  70
    32
  0
VERTEX
  8
0
  5
471C
 10
1290.97
 20
659.953
 30
0.000000
  70
    32
  0
VERTEX
  8
0
  5
471D
 10
1290.99
 20
659.973
 30
0.000000
  70
    32
  0
VERTEX
  8
0
  5
471E
 10
1291.00
 20
659.994
 30
0.000000
  70
    32
  0
VERTEX
  8
0
  5
471F
 10
1291.02
 20
660.015
 30
0.000000
  70
    32
  0
VERTEX
  8
0
  5
4720
 10
1291.04
 20
660.036
 30
0.000000
  70
    32
  0
VERTEX
  8
0
  5
4721
 10
1291.06
 20
660.057
 30
0.000000
  70
    32
  0
VERTEX
  8
0
  5
4722
 10
1291.07
 20
660.078
 30
0.000000
  70
    32
  0
VERTEX
  8
0
  5
4723
 10
1291.09
 20
660.099
 30
0.000000
  70
    32
  0
VERTEX
  8
0
  5
4724
 10
1291.11
 20
660.121
 30
0.000000
  70
    32
  0
SEQEND
  8
0
  5
4725
  0
LINE
  5
418F
  8
0
 10
1305.17922830578
 20
661.62051646327188
 30
0.0
 11
1291.17922830578
 21
659.620516463272
 31
0.0
  0
LINE
  5
4190
  8
0
 10
1304.8963853057801
 20
663.60041546327193
 30
0.0
 11
1290.8963853057801
 21
661.60041546327193
 31
0.0
  0
LINE
  5
4191
  8
0
 10
1306.8963853057801
 20
662.35041546327193
 30
0.0
 11
1316.49638530578
 21
662.35041546327193
 31
0.0
  0
ARC
  5
4193
  8
0
 10
1316.8963853057801
 20
643.80041546327197
 30
0.0
 40
1.0
 50
270.0
 51
0.0
  0
LINE
  5
4194
  8
0
 10
1326.3963853057801
 20
644.90041546327177
 30
0.0
 11
1324.8463853057799
 21
644.90041546327177
 31
0.0
  0
LINE
  5
4195
  8
0
 10
1326.3963853057801
 20
639.80695346327195
 30
0.0
 11
1326.3963853057801
 21
636.92541546327186
 31
0.0
  0
ARC
  5
419A
  8
0
 10
1305.3963853057801
 20
643.80041546327197
 30
0.0
 40
1.0
 50
180.0
 51
270.0
  0
POLYLINE
  8
0
  5
4726
  66
     1
 10
0.000000
 20
0.000000
 30
0.000000
  70
     8
  0
VERTEX
  8
0
  5
4727
 10
1305.12
 20
648.484
 30
0.000000
  70
    32
  0
VERTEX
  8
0
  5
4728
 10
1305.13
 20
648.499
 30
0.000000
  70
    32
  0
VERTEX
  8
0
  5
4729
 10
1305.15
 20
648.513
 30
0.000000
  70
    32
  0
VERTEX
  8
0
  5
472A
 10
1305.16
 20
648.527
 30
0.000000
  70
    32
  0
VERTEX
  8
0
  5
472B
 10
1305.17
 20
648.542
 30
0.000000
  70
    32
  0
VERTEX
  8
0
  5
472C
 10
1305.18
 20
648.556
 30
0.000000
  70
    32
  0
VERTEX
  8
0
  5
472D
 10
1305.19
 20
648.570
 30
0.000000
  70
    32
  0
VERTEX
  8
0
  5
472E
 10
1305.21
 20
648.584
 30
0.000000
  70
    32
  0
VERTEX
  8
0
  5
472F
 10
1305.22
 20
648.599
 30
0.000000
  70
    32
  0
VERTEX
  8
0
  5
4730
 10
1305.23
 20
648.613
 30
0.000000
  70
    32
  0
VERTEX
  8
0
  5
4731
 10
1305.24
 20
648.627
 30
0.000000
  70
    32
  0
VERTEX
  8
0
  5
4732
 10
1305.25
 20
648.641
 30
0.000000
  70
    32
  0
VERTEX
  8
0
  5
4733
 10
1305.26
 20
648.655
 30
0.000000
  70
    32
  0
VERTEX
  8
0
  5
4734
 10
1305.28
 20
648.669
 30
0.000000
  70
    32
  0
VERTEX
  8
0
  5
4735
 10
1305.29
 20
648.683
 30
0.000000
  70
    32
  0
VERTEX
  8
0
  5
4736
 10
1305.30
 20
648.696
 30
0.000000
  70
    32
  0
VERTEX
  8
0
  5
4737
 10
1305.31
 20
648.710
 30
0.000000
  70
    32
  0
VERTEX
  8
0
  5
4738
 10
1305.32
 20
648.724
 30
0.000000
  70
    32
  0
VERTEX
  8
0
  5
4739
 10
1305.33
 20
648.737
 30
0.000000
  70
    32
  0
VERTEX
  8
0
  5
473A
 10
1305.35
 20
648.750
 30
0.000000
  70
    32
  0
VERTEX
  8
0
  5
473B
 10
1305.36
 20
648.764
 30
0.000000
  70
    32
  0
VERTEX
  8
0
  5
473C
 10
1305.37
 20
648.777
 30
0.000000
  70
    32
  0
VERTEX
  8
0
  5
473D
 10
1305.38
 20
648.790
 30
0.000000
  70
    32
  0
VERTEX
  8
0
  5
473E
 10
1305.39
 20
648.803
 30
0.000000
  70
    32
  0
VERTEX
  8
0
  5
473F
 10
1305.40
 20
648.815
 30
0.000000
  70
    32
  0
VERTEX
  8
0
  5
4740
 10
1305.42
 20
648.828
 30
0.000000
  70
    32
  0
VERTEX
  8
0
  5
4741
 10
1305.43
 20
648.840
 30
0.000000
  70
    32
  0
VERTEX
  8
0
  5
4742
 10
1305.44
 20
648.853
 30
0.000000
  70
    32
  0
VERTEX
  8
0
  5
4743
 10
1305.45
 20
648.865
 30
0.000000
  70
    32
  0
VERTEX
  8
0
  5
4744
 10
1305.46
 20
648.877
 30
0.000000
  70
    32
  0
VERTEX
  8
0
  5
4745
 10
1305.47
 20
648.889
 30
0.000000
  70
    32
  0
VERTEX
  8
0
  5
4746
 10
1305.49
 20
648.900
 30
0.000000
  70
    32
  0
VERTEX
  8
0
  5
4747
 10
1305.50
 20
648.912
 30
0.000000
  70
    32
  0
VERTEX
  8
0
  5
4748
 10
1305.51
 20
648.923
 30
0.000000
  70
    32
  0
VERTEX
  8
0
  5
4749
 10
1305.52
 20
648.934
 30
0.000000
  70
    32
  0
VERTEX
  8
0
  5
474A
 10
1305.53
 20
648.945
 30
0.000000
  70
    32
  0
VERTEX
  8
0
  5
474B
 10
1305.54
 20
648.955
 30
0.000000
  70
    32
  0
VERTEX
  8
0
  5
474C
 10
1305.56
 20
648.966
 30
0.000000
  70
    32
  0
VERTEX
  8
0
  5
474D
 10
1305.57
 20
648.976
 30
0.000000
  70
    32
  0
VERTEX
  8
0
  5
474E
 10
1305.58
 20
648.986
 30
0.000000
  70
    32
  0
VERTEX
  8
0
  5
474F
 10
1305.59
 20
648.996
 30
0.000000
  70
    32
  0
VERTEX
  8
0
  5
4750
 10
1305.60
 20
649.005
 30
0.000000
  70
    32
  0
VERTEX
  8
0
  5
4751
 10
1305.61
 20
649.015
 30
0.000000
  70
    32
  0
VERTEX
  8
0
  5
4752
 10
1305.63
 20
649.024
 30
0.000000
  70
    32
  0
VERTEX
  8
0
  5
4753
 10
1305.64
 20
649.032
 30
0.000000
  70
    32
  0
VERTEX
  8
0
  5
4754
 10
1305.65
 20
649.041
 30
0.000000
  70
    32
  0
VERTEX
  8
0
  5
4755
 10
1305.66
 20
649.049
 30
0.000000
  70
    32
  0
VERTEX
  8
0
  5
4756
 10
1305.67
 20
649.057
 30
0.000000
  70
    32
  0
VERTEX
  8
0
  5
4757
 10
1305.68
 20
649.065
 30
0.000000
  70
    32
  0
VERTEX
  8
0
  5
4758
 10
1305.70
 20
649.072
 30
0.000000
  70
    32
  0
VERTEX
  8
0
  5
4759
 10
1305.71
 20
649.079
 30
0.000000
  70
    32
  0
VERTEX
  8
0
  5
475A
 10
1305.72
 20
649.086
 30
0.000000
  70
    32
  0
VERTEX
  8
0
  5
475B
 10
1305.73
 20
649.093
 30
0.000000
  70
    32
  0
VERTEX
  8
0
  5
475C
 10
1305.74
 20
649.099
 30
0.000000
  70
    32
  0
VERTEX
  8
0
  5
475D
 10
1305.75
 20
649.105
 30
0.000000
  70
    32
  0
VERTEX
  8
0
  5
475E
 10
1305.76
 20
649.111
 30
0.000000
  70
    32
  0
VERTEX
  8
0
  5
475F
 10
1305.78
 20
649.116
 30
0.000000
  70
    32
  0
VERTEX
  8
0
  5
4760
 10
1305.79
 20
649.121
 30
0.000000
  70
    32
  0
VERTEX
  8
0
  5
4761
 10
1305.80
 20
649.125
 30
0.000000
  70
    32
  0
VERTEX
  8
0
  5
4762
 10
1305.81
 20
649.130
 30
0.000000
  70
    32
  0
VERTEX
  8
0
  5
4763
 10
1305.82
 20
649.134
 30
0.000000
  70
    32
  0
VERTEX
  8
0
  5
4764
 10
1305.83
 20
649.137
 30
0.000000
  70
    32
  0
VERTEX
  8
0
  5
4765
 10
1305.84
 20
649.140
 30
0.000000
  70
    32
  0
VERTEX
  8
0
  5
4766
 10
1305.85
 20
649.143
 30
0.000000
  70
    32
  0
VERTEX
  8
0
  5
4767
 10
1305.87
 20
649.146
 30
0.000000
  70
    32
  0
VERTEX
  8
0
  5
4768
 10
1305.88
 20
649.148
 30
0.000000
  70
    32
  0
VERTEX
  8
0
  5
4769
 10
1305.89
 20
649.149
 30
0.000000
  70
    32
  0
VERTEX
  8
0
  5
476A
 10
1305.90
 20
649.151
 30
0.000000
  70
    32
  0
VERTEX
  8
0
  5
476B
 10
1305.91
 20
649.152
 30
0.000000
  70
    32
  0
VERTEX
  8
0
  5
476C
 10
1305.92
 20
649.152
 30
0.000000
  70
    32
  0
VERTEX
  8
0
  5
476D
 10
1305.93
 20
649.152
 30
0.000000
  70
    32
  0
VERTEX
  8
0
  5
476E
 10
1305.95
 20
649.152
 30
0.000000
  70
    32
  0
VERTEX
  8
0
  5
476F
 10
1305.96
 20
649.152
 30
0.000000
  70
    32
  0
VERTEX
  8
0
  5
4770
 10
1305.97
 20
649.151
 30
0.000000
  70
    32
  0
VERTEX
  8
0
  5
4771
 10
1305.98
 20
649.149
 30
0.000000
  70
    32
  0
VERTEX
  8
0
  5
4772
 10
1305.99
 20
649.148
 30
0.000000
  70
    32
  0
VERTEX
  8
0
  5
4773
 10
1306.00
 20
649.146
 30
0.000000
  70
    32
  0
VERTEX
  8
0
  5
4774
 10
1306.01
 20
649.143
 30
0.000000
  70
    32
  0
VERTEX
  8
0
  5
4775
 10
1306.02
 20
649.141
 30
0.000000
  70
    32
  0
VERTEX
  8
0
  5
4776
 10
1306.03
 20
649.137
 30
0.000000
  70
    32
  0
VERTEX
  8
0
  5
4777
 10
1306.05
 20
649.134
 30
0.000000
  70
    32
  0
VERTEX
  8
0
  5
4778
 10
1306.06
 20
649.130
 30
0.000000
  70
    32
  0
VERTEX
  8
0
  5
4779
 10
1306.07
 20
649.126
 30
0.000000
  70
    32
  0
VERTEX
  8
0
  5
477A
 10
1306.08
 20
649.122
 30
0.000000
  70
    32
  0
VERTEX
  8
0
  5
477B
 10
1306.09
 20
649.117
 30
0.000000
  70
    32
  0
VERTEX
  8
0
  5
477C
 10
1306.10
 20
649.112
 30
0.000000
  70
    32
  0
VERTEX
  8
0
  5
477D
 10
1306.11
 20
649.106
 30
0.000000
  70
    32
  0
VERTEX
  8
0
  5
477E
 10
1306.12
 20
649.101
 30
0.000000
  70
    32
  0
VERTEX
  8
0
  5
477F
 10
1306.13
 20
649.095
 30
0.000000
  70
    32
  0
VERTEX
  8
0
  5
4780
 10
1306.15
 20
649.088
 30
0.000000
  70
    32
  0
VERTEX
  8
0
  5
4781
 10
1306.16
 20
649.082
 30
0.000000
  70
    32
  0
VERTEX
  8
0
  5
4782
 10
1306.17
 20
649.075
 30
0.000000
  70
    32
  0
VERTEX
  8
0
  5
4783
 10
1306.18
 20
649.068
 30
0.000000
  70
    32
  0
VERTEX
  8
0
  5
4784
 10
1306.19
 20
649.060
 30
0.000000
  70
    32
  0
VERTEX
  8
0
  5
4785
 10
1306.20
 20
649.053
 30
0.000000
  70
    32
  0
VERTEX
  8
0
  5
4786
 10
1306.21
 20
649.045
 30
0.000000
  70
    32
  0
VERTEX
  8
0
  5
4787
 10
1306.22
 20
649.036
 30
0.000000
  70
    32
  0
VERTEX
  8
0
  5
4788
 10
1306.23
 20
649.028
 30
0.000000
  70
    32
  0
VERTEX
  8
0
  5
4789
 10
1306.24
 20
649.019
 30
0.000000
  70
    32
  0
VERTEX
  8
0
  5
478A
 10
1306.25
 20
649.010
 30
0.000000
  70
    32
  0
VERTEX
  8
0
  5
478B
 10
1306.27
 20
649.000
 30
0.000000
  70
    32
  0
VERTEX
  8
0
  5
478C
 10
1306.28
 20
648.991
 30
0.000000
  70
    32
  0
VERTEX
  8
0
  5
478D
 10
1306.29
 20
648.981
 30
0.000000
  70
    32
  0
VERTEX
  8
0
  5
478E
 10
1306.30
 20
648.971
 30
0.000000
  70
    32
  0
VERTEX
  8
0
  5
478F
 10
1306.31
 20
648.961
 30
0.000000
  70
    32
  0
VERTEX
  8
0
  5
4790
 10
1306.32
 20
648.950
 30
0.000000
  70
    32
  0
VERTEX
  8
0
  5
4791
 10
1306.33
 20
648.939
 30
0.000000
  70
    32
  0
VERTEX
  8
0
  5
4792
 10
1306.34
 20
648.928
 30
0.000000
  70
    32
  0
VERTEX
  8
0
  5
4793
 10
1306.35
 20
648.917
 30
0.000000
  70
    32
  0
VERTEX
  8
0
  5
4794
 10
1306.36
 20
648.906
 30
0.000000
  70
    32
  0
VERTEX
  8
0
  5
4795
 10
1306.37
 20
648.894
 30
0.000000
  70
    32
  0
VERTEX
  8
0
  5
4796
 10
1306.38
 20
648.882
 30
0.000000
  70
    32
  0
VERTEX
  8
0
  5
4797
 10
1306.40
 20
648.870
 30
0.000000
  70
    32
  0
VERTEX
  8
0
  5
4798
 10
1306.41
 20
648.858
 30
0.000000
  70
    32
  0
VERTEX
  8
0
  5
4799
 10
1306.42
 20
648.845
 30
0.000000
  70
    32
  0
VERTEX
  8
0
  5
479A
 10
1306.43
 20
648.833
 30
0.000000
  70
    32
  0
VERTEX
  8
0
  5
479B
 10
1306.44
 20
648.820
 30
0.000000
  70
    32
  0
VERTEX
  8
0
  5
479C
 10
1306.45
 20
648.807
 30
0.000000
  70
    32
  0
VERTEX
  8
0
  5
479D
 10
1306.46
 20
648.793
 30
0.000000
  70
    32
  0
VERTEX
  8
0
  5
479E
 10
1306.47
 20
648.780
 30
0.000000
  70
    32
  0
VERTEX
  8
0
  5
479F
 10
1306.48
 20
648.767
 30
0.000000
  70
    32
  0
VERTEX
  8
0
  5
47A0
 10
1306.49
 20
648.753
 30
0.000000
  70
    32
  0
VERTEX
  8
0
  5
47A1
 10
1306.50
 20
648.739
 30
0.000000
  70
    32
  0
VERTEX
  8
0
  5
47A2
 10
1306.51
 20
648.725
 30
0.000000
  70
    32
  0
VERTEX
  8
0
  5
47A3
 10
1306.52
 20
648.711
 30
0.000000
  70
    32
  0
VERTEX
  8
0
  5
47A4
 10
1306.53
 20
648.696
 30
0.000000
  70
    32
  0
VERTEX
  8
0
  5
47A5
 10
1306.55
 20
648.682
 30
0.000000
  70
    32
  0
VERTEX
  8
0
  5
47A6
 10
1306.56
 20
648.667
 30
0.000000
  70
    32
  0
VERTEX
  8
0
  5
47A7
 10
1306.57
 20
648.652
 30
0.000000
  70
    32
  0
VERTEX
  8
0
  5
47A8
 10
1306.58
 20
648.638
 30
0.000000
  70
    32
  0
VERTEX
  8
0
  5
47A9
 10
1306.59
 20
648.623
 30
0.000000
  70
    32
  0
VERTEX
  8
0
  5
47AA
 10
1306.60
 20
648.607
 30
0.000000
  70
    32
  0
VERTEX
  8
0
  5
47AB
 10
1306.61
 20
648.592
 30
0.000000
  70
    32
  0
VERTEX
  8
0
  5
47AC
 10
1306.62
 20
648.577
 30
0.000000
  70
    32
  0
VERTEX
  8
0
  5
47AD
 10
1306.63
 20
648.561
 30
0.000000
  70
    32
  0
VERTEX
  8
0
  5
47AE
 10
1306.64
 20
648.546
 30
0.000000
  70
    32
  0
VERTEX
  8
0
  5
47AF
 10
1306.65
 20
648.530
 30
0.000000
  70
    32
  0
VERTEX
  8
0
  5
47B0
 10
1306.66
 20
648.514
 30
0.000000
  70
    32
  0
VERTEX
  8
0
  5
47B1
 10
1306.67
 20
648.498
 30
0.000000
  70
    32
  0
VERTEX
  8
0
  5
47B2
 10
1306.68
 20
648.482
 30
0.000000
  70
    32
  0
VERTEX
  8
0
  5
47B3
 10
1306.69
 20
648.466
 30
0.000000
  70
    32
  0
VERTEX
  8
0
  5
47B4
 10
1306.71
 20
648.450
 30
0.000000
  70
    32
  0
VERTEX
  8
0
  5
47B5
 10
1306.72
 20
648.434
 30
0.000000
  70
    32
  0
VERTEX
  8
0
  5
47B6
 10
1306.73
 20
648.418
 30
0.000000
  70
    32
  0
VERTEX
  8
0
  5
47B7
 10
1306.74
 20
648.401
 30
0.000000
  70
    32
  0
VERTEX
  8
0
  5
47B8
 10
1306.75
 20
648.385
 30
0.000000
  70
    32
  0
VERTEX
  8
0
  5
47B9
 10
1306.76
 20
648.368
 30
0.000000
  70
    32
  0
VERTEX
  8
0
  5
47BA
 10
1306.77
 20
648.352
 30
0.000000
  70
    32
  0
VERTEX
  8
0
  5
47BB
 10
1306.78
 20
648.335
 30
0.000000
  70
    32
  0
VERTEX
  8
0
  5
47BC
 10
1306.79
 20
648.318
 30
0.000000
  70
    32
  0
VERTEX
  8
0
  5
47BD
 10
1306.80
 20
648.302
 30
0.000000
  70
    32
  0
VERTEX
  8
0
  5
47BE
 10
1306.81
 20
648.285
 30
0.000000
  70
    32
  0
VERTEX
  8
0
  5
47BF
 10
1306.82
 20
648.268
 30
0.000000
  70
    32
  0
VERTEX
  8
0
  5
47C0
 10
1306.83
 20
648.252
 30
0.000000
  70
    32
  0
VERTEX
  8
0
  5
47C1
 10
1306.84
 20
648.235
 30
0.000000
  70
    32
  0
VERTEX
  8
0
  5
47C2
 10
1306.85
 20
648.218
 30
0.000000
  70
    32
  0
VERTEX
  8
0
  5
47C3
 10
1306.86
 20
648.201
 30
0.000000
  70
    32
  0
VERTEX
  8
0
  5
47C4
 10
1306.88
 20
648.184
 30
0.000000
  70
    32
  0
VERTEX
  8
0
  5
47C5
 10
1306.89
 20
648.167
 30
0.000000
  70
    32
  0
VERTEX
  8
0
  5
47C6
 10
1306.90
 20
648.150
 30
0.000000
  70
    32
  0
SEQEND
  8
0
  5
47C7
  0
LINE
  5
419C
  8
0
 10
1305.1226593057791
 20
648.48433446327192
 30
0.0
 11
1305.1226593057791
 21
647.58839546327204
 31
0.0
  0
LINE
  5
419D
  8
0
 10
1306.8963853057801
 20
646.85041546327193
 30
0.0
 11
1306.8963853057801
 21
648.15041546327188
 31
0.0
  0
LINE
  5
419E
  8
0
 10
1305.17922830578
 20
647.58031446327186
 30
0.0
 11
1304.8963853057801
 21
645.60041546327193
 31
0.0
  0
LINE
  5
41A0
  8
0
 10
1291.17922830578
 20
649.58031446327186
 30
0.0
 11
1290.8963853057801
 21
647.60041546327193
 31
0.0
  0
POLYLINE
  8
0
  5
47C8
  66
     1
 10
0.000000
 20
0.000000
 30
0.000000
  70
     8
  0
VERTEX
  8
0
  5
47C9
 10
1288.90
 20
648.600
 30
0.000000
  70
    32
  0
VERTEX
  8
0
  5
47CA
 10
1288.91
 20
648.627
 30
0.000000
  70
    32
  0
VERTEX
  8
0
  5
47CB
 10
1288.92
 20
648.653
 30
0.000000
  70
    32
  0
VERTEX
  8
0
  5
47CC
 10
1288.93
 20
648.679
 30
0.000000
  70
    32
  0
VERTEX
  8
0
  5
47CD
 10
1288.94
 20
648.705
 30
0.000000
  70
    32
  0
VERTEX
  8
0
  5
47CE
 10
1288.95
 20
648.731
 30
0.000000
  70
    32
  0
VERTEX
  8
0
  5
47CF
 10
1288.96
 20
648.757
 30
0.000000
  70
    32
  0
VERTEX
  8
0
  5
47D0
 10
1288.97
 20
648.783
 30
0.000000
  70
    32
  0
VERTEX
  8
0
  5
47D1
 10
1288.98
 20
648.809
 30
0.000000
  70
    32
  0
VERTEX
  8
0
  5
47D2
 10
1288.99
 20
648.834
 30
0.000000
  70
    32
  0
VERTEX
  8
0
  5
47D3
 10
1289.00
 20
648.860
 30
0.000000
  70
    32
  0
VERTEX
  8
0
  5
47D4
 10
1289.01
 20
648.886
 30
0.000000
  70
    32
  0
VERTEX
  8
0
  5
47D5
 10
1289.02
 20
648.911
 30
0.000000
  70
    32
  0
VERTEX
  8
0
  5
47D6
 10
1289.03
 20
648.937
 30
0.000000
  70
    32
  0
VERTEX
  8
0
  5
47D7
 10
1289.05
 20
648.962
 30
0.000000
  70
    32
  0
VERTEX
  8
0
  5
47D8
 10
1289.06
 20
648.988
 30
0.000000
  70
    32
  0
VERTEX
  8
0
  5
47D9
 10
1289.07
 20
649.013
 30
0.000000
  70
    32
  0
VERTEX
  8
0
  5
47DA
 10
1289.08
 20
649.038
 30
0.000000
  70
    32
  0
VERTEX
  8
0
  5
47DB
 10
1289.09
 20
649.063
 30
0.000000
  70
    32
  0
VERTEX
  8
0
  5
47DC
 10
1289.10
 20
649.088
 30
0.000000
  70
    32
  0
VERTEX
  8
0
  5
47DD
 10
1289.11
 20
649.113
 30
0.000000
  70
    32
  0
VERTEX
  8
0
  5
47DE
 10
1289.12
 20
649.137
 30
0.000000
  70
    32
  0
VERTEX
  8
0
  5
47DF
 10
1289.13
 20
649.162
 30
0.000000
  70
    32
  0
VERTEX
  8
0
  5
47E0
 10
1289.14
 20
649.186
 30
0.000000
  70
    32
  0
VERTEX
  8
0
  5
47E1
 10
1289.15
 20
649.210
 30
0.000000
  70
    32
  0
VERTEX
  8
0
  5
47E2
 10
1289.16
 20
649.234
 30
0.000000
  70
    32
  0
VERTEX
  8
0
  5
47E3
 10
1289.18
 20
649.258
 30
0.000000
  70
    32
  0
VERTEX
  8
0
  5
47E4
 10
1289.19
 20
649.282
 30
0.000000
  70
    32
  0
VERTEX
  8
0
  5
47E5
 10
1289.20
 20
649.305
 30
0.000000
  70
    32
  0
VERTEX
  8
0
  5
47E6
 10
1289.21
 20
649.329
 30
0.000000
  70
    32
  0
VERTEX
  8
0
  5
47E7
 10
1289.22
 20
649.352
 30
0.000000
  70
    32
  0
VERTEX
  8
0
  5
47E8
 10
1289.23
 20
649.374
 30
0.000000
  70
    32
  0
VERTEX
  8
0
  5
47E9
 10
1289.24
 20
649.397
 30
0.000000
  70
    32
  0
VERTEX
  8
0
  5
47EA
 10
1289.25
 20
649.419
 30
0.000000
  70
    32
  0
VERTEX
  8
0
  5
47EB
 10
1289.26
 20
649.442
 30
0.000000
  70
    32
  0
VERTEX
  8
0
  5
47EC
 10
1289.28
 20
649.463
 30
0.000000
  70
    32
  0
VERTEX
  8
0
  5
47ED
 10
1289.29
 20
649.485
 30
0.000000
  70
    32
  0
VERTEX
  8
0
  5
47EE
 10
1289.30
 20
649.507
 30
0.000000
  70
    32
  0
VERTEX
  8
0
  5
47EF
 10
1289.31
 20
649.528
 30
0.000000
  70
    32
  0
VERTEX
  8
0
  5
47F0
 10
1289.32
 20
649.549
 30
0.000000
  70
    32
  0
VERTEX
  8
0
  5
47F1
 10
1289.33
 20
649.569
 30
0.000000
  70
    32
  0
VERTEX
  8
0
  5
47F2
 10
1289.34
 20
649.590
 30
0.000000
  70
    32
  0
VERTEX
  8
0
  5
47F3
 10
1289.35
 20
649.610
 30
0.000000
  70
    32
  0
VERTEX
  8
0
  5
47F4
 10
1289.37
 20
649.629
 30
0.000000
  70
    32
  0
VERTEX
  8
0
  5
47F5
 10
1289.38
 20
649.649
 30
0.000000
  70
    32
  0
VERTEX
  8
0
  5
47F6
 10
1289.39
 20
649.668
 30
0.000000
  70
    32
  0
VERTEX
  8
0
  5
47F7
 10
1289.40
 20
649.687
 30
0.000000
  70
    32
  0
VERTEX
  8
0
  5
47F8
 10
1289.41
 20
649.705
 30
0.000000
  70
    32
  0
VERTEX
  8
0
  5
47F9
 10
1289.42
 20
649.724
 30
0.000000
  70
    32
  0
VERTEX
  8
0
  5
47FA
 10
1289.44
 20
649.741
 30
0.000000
  70
    32
  0
VERTEX
  8
0
  5
47FB
 10
1289.45
 20
649.759
 30
0.000000
  70
    32
  0
VERTEX
  8
0
  5
47FC
 10
1289.46
 20
649.776
 30
0.000000
  70
    32
  0
VERTEX
  8
0
  5
47FD
 10
1289.47
 20
649.793
 30
0.000000
  70
    32
  0
VERTEX
  8
0
  5
47FE
 10
1289.48
 20
649.809
 30
0.000000
  70
    32
  0
VERTEX
  8
0
  5
47FF
 10
1289.50
 20
649.825
 30
0.000000
  70
    32
  0
VERTEX
  8
0
  5
4800
 10
1289.51
 20
649.841
 30
0.000000
  70
    32
  0
VERTEX
  8
0
  5
4801
 10
1289.52
 20
649.856
 30
0.000000
  70
    32
  0
VERTEX
  8
0
  5
4802
 10
1289.53
 20
649.871
 30
0.000000
  70
    32
  0
VERTEX
  8
0
  5
4803
 10
1289.54
 20
649.886
 30
0.000000
  70
    32
  0
VERTEX
  8
0
  5
4804
 10
1289.56
 20
649.900
 30
0.000000
  70
    32
  0
VERTEX
  8
0
  5
4805
 10
1289.57
 20
649.914
 30
0.000000
  70
    32
  0
VERTEX
  8
0
  5
4806
 10
1289.58
 20
649.927
 30
0.000000
  70
    32
  0
VERTEX
  8
0
  5
4807
 10
1289.59
 20
649.940
 30
0.000000
  70
    32
  0
VERTEX
  8
0
  5
4808
 10
1289.61
 20
649.952
 30
0.000000
  70
    32
  0
VERTEX
  8
0
  5
4809
 10
1289.62
 20
649.964
 30
0.000000
  70
    32
  0
VERTEX
  8
0
  5
480A
 10
1289.63
 20
649.975
 30
0.000000
  70
    32
  0
VERTEX
  8
0
  5
480B
 10
1289.65
 20
649.987
 30
0.000000
  70
    32
  0
VERTEX
  8
0
  5
480C
 10
1289.66
 20
649.997
 30
0.000000
  70
    32
  0
VERTEX
  8
0
  5
480D
 10
1289.67
 20
650.007
 30
0.000000
  70
    32
  0
VERTEX
  8
0
  5
480E
 10
1289.68
 20
650.017
 30
0.000000
  70
    32
  0
VERTEX
  8
0
  5
480F
 10
1289.70
 20
650.026
 30
0.000000
  70
    32
  0
VERTEX
  8
0
  5
4810
 10
1289.71
 20
650.035
 30
0.000000
  70
    32
  0
VERTEX
  8
0
  5
4811
 10
1289.72
 20
650.043
 30
0.000000
  70
    32
  0
VERTEX
  8
0
  5
4812
 10
1289.74
 20
650.051
 30
0.000000
  70
    32
  0
VERTEX
  8
0
  5
4813
 10
1289.75
 20
650.058
 30
0.000000
  70
    32
  0
VERTEX
  8
0
  5
4814
 10
1289.76
 20
650.064
 30
0.000000
  70
    32
  0
VERTEX
  8
0
  5
4815
 10
1289.78
 20
650.071
 30
0.000000
  70
    32
  0
VERTEX
  8
0
  5
4816
 10
1289.79
 20
650.076
 30
0.000000
  70
    32
  0
VERTEX
  8
0
  5
4817
 10
1289.80
 20
650.081
 30
0.000000
  70
    32
  0
VERTEX
  8
0
  5
4818
 10
1289.82
 20
650.086
 30
0.000000
  70
    32
  0
VERTEX
  8
0
  5
4819
 10
1289.83
 20
650.090
 30
0.000000
  70
    32
  0
VERTEX
  8
0
  5
481A
 10
1289.85
 20
650.093
 30
0.000000
  70
    32
  0
VERTEX
  8
0
  5
481B
 10
1289.86
 20
650.096
 30
0.000000
  70
    32
  0
VERTEX
  8
0
  5
481C
 10
1289.87
 20
650.098
 30
0.000000
  70
    32
  0
VERTEX
  8
0
  5
481D
 10
1289.89
 20
650.100
 30
0.000000
  70
    32
  0
VERTEX
  8
0
  5
481E
 10
1289.90
 20
650.101
 30
0.000000
  70
    32
  0
VERTEX
  8
0
  5
481F
 10
1289.92
 20
650.101
 30
0.000000
  70
    32
  0
VERTEX
  8
0
  5
4820
 10
1289.93
 20
650.101
 30
0.000000
  70
    32
  0
VERTEX
  8
0
  5
4821
 10
1289.94
 20
650.100
 30
0.000000
  70
    32
  0
VERTEX
  8
0
  5
4822
 10
1289.96
 20
650.099
 30
0.000000
  70
    32
  0
VERTEX
  8
0
  5
4823
 10
1289.97
 20
650.097
 30
0.000000
  70
    32
  0
VERTEX
  8
0
  5
4824
 10
1289.99
 20
650.095
 30
0.000000
  70
    32
  0
VERTEX
  8
0
  5
4825
 10
1290.00
 20
650.092
 30
0.000000
  70
    32
  0
VERTEX
  8
0
  5
4826
 10
1290.02
 20
650.089
 30
0.000000
  70
    32
  0
VERTEX
  8
0
  5
4827
 10
1290.03
 20
650.085
 30
0.000000
  70
    32
  0
VERTEX
  8
0
  5
4828
 10
1290.05
 20
650.080
 30
0.000000
  70
    32
  0
VERTEX
  8
0
  5
4829
 10
1290.06
 20
650.075
 30
0.000000
  70
    32
  0
VERTEX
  8
0
  5
482A
 10
1290.08
 20
650.070
 30
0.000000
  70
    32
  0
VERTEX
  8
0
  5
482B
 10
1290.09
 20
650.064
 30
0.000000
  70
    32
  0
VERTEX
  8
0
  5
482C
 10
1290.11
 20
650.057
 30
0.000000
  70
    32
  0
VERTEX
  8
0
  5
482D
 10
1290.12
 20
650.050
 30
0.000000
  70
    32
  0
VERTEX
  8
0
  5
482E
 10
1290.14
 20
650.043
 30
0.000000
  70
    32
  0
VERTEX
  8
0
  5
482F
 10
1290.15
 20
650.035
 30
0.000000
  70
    32
  0
VERTEX
  8
0
  5
4830
 10
1290.17
 20
650.027
 30
0.000000
  70
    32
  0
VERTEX
  8
0
  5
4831
 10
1290.19
 20
650.018
 30
0.000000
  70
    32
  0
VERTEX
  8
0
  5
4832
 10
1290.20
 20
650.009
 30
0.000000
  70
    32
  0
VERTEX
  8
0
  5
4833
 10
1290.22
 20
649.999
 30
0.000000
  70
    32
  0
VERTEX
  8
0
  5
4834
 10
1290.23
 20
649.989
 30
0.000000
  70
    32
  0
VERTEX
  8
0
  5
4835
 10
1290.25
 20
649.979
 30
0.000000
  70
    32
  0
VERTEX
  8
0
  5
4836
 10
1290.26
 20
649.968
 30
0.000000
  70
    32
  0
VERTEX
  8
0
  5
4837
 10
1290.28
 20
649.956
 30
0.000000
  70
    32
  0
VERTEX
  8
0
  5
4838
 10
1290.30
 20
649.945
 30
0.000000
  70
    32
  0
VERTEX
  8
0
  5
4839
 10
1290.31
 20
649.933
 30
0.000000
  70
    32
  0
VERTEX
  8
0
  5
483A
 10
1290.33
 20
649.920
 30
0.000000
  70
    32
  0
VERTEX
  8
0
  5
483B
 10
1290.34
 20
649.907
 30
0.000000
  70
    32
  0
VERTEX
  8
0
  5
483C
 10
1290.36
 20
649.894
 30
0.000000
  70
    32
  0
VERTEX
  8
0
  5
483D
 10
1290.38
 20
649.881
 30
0.000000
  70
    32
  0
VERTEX
  8
0
  5
483E
 10
1290.39
 20
649.867
 30
0.000000
  70
    32
  0
VERTEX
  8
0
  5
483F
 10
1290.41
 20
649.853
 30
0.000000
  70
    32
  0
VERTEX
  8
0
  5
4840
 10
1290.43
 20
649.838
 30
0.000000
  70
    32
  0
VERTEX
  8
0
  5
4841
 10
1290.44
 20
649.823
 30
0.000000
  70
    32
  0
VERTEX
  8
0
  5
4842
 10
1290.46
 20
649.808
 30
0.000000
  70
    32
  0
VERTEX
  8
0
  5
4843
 10
1290.48
 20
649.793
 30
0.000000
  70
    32
  0
VERTEX
  8
0
  5
4844
 10
1290.49
 20
649.777
 30
0.000000
  70
    32
  0
VERTEX
  8
0
  5
4845
 10
1290.51
 20
649.761
 30
0.000000
  70
    32
  0
VERTEX
  8
0
  5
4846
 10
1290.53
 20
649.744
 30
0.000000
  70
    32
  0
VERTEX
  8
0
  5
4847
 10
1290.54
 20
649.728
 30
0.000000
  70
    32
  0
VERTEX
  8
0
  5
4848
 10
1290.56
 20
649.711
 30
0.000000
  70
    32
  0
VERTEX
  8
0
  5
4849
 10
1290.58
 20
649.694
 30
0.000000
  70
    32
  0
VERTEX
  8
0
  5
484A
 10
1290.59
 20
649.677
 30
0.000000
  70
    32
  0
VERTEX
  8
0
  5
484B
 10
1290.61
 20
649.659
 30
0.000000
  70
    32
  0
VERTEX
  8
0
  5
484C
 10
1290.63
 20
649.641
 30
0.000000
  70
    32
  0
VERTEX
  8
0
  5
484D
 10
1290.64
 20
649.623
 30
0.000000
  70
    32
  0
VERTEX
  8
0
  5
484E
 10
1290.66
 20
649.605
 30
0.000000
  70
    32
  0
VERTEX
  8
0
  5
484F
 10
1290.68
 20
649.586
 30
0.000000
  70
    32
  0
VERTEX
  8
0
  5
4850
 10
1290.69
 20
649.568
 30
0.000000
  70
    32
  0
VERTEX
  8
0
  5
4851
 10
1290.71
 20
649.549
 30
0.000000
  70
    32
  0
VERTEX
  8
0
  5
4852
 10
1290.73
 20
649.530
 30
0.000000
  70
    32
  0
VERTEX
  8
0
  5
4853
 10
1290.75
 20
649.510
 30
0.000000
  70
    32
  0
VERTEX
  8
0
  5
4854
 10
1290.76
 20
649.491
 30
0.000000
  70
    32
  0
VERTEX
  8
0
  5
4855
 10
1290.78
 20
649.472
 30
0.000000
  70
    32
  0
VERTEX
  8
0
  5
4856
 10
1290.80
 20
649.452
 30
0.000000
  70
    32
  0
VERTEX
  8
0
  5
4857
 10
1290.81
 20
649.432
 30
0.000000
  70
    32
  0
VERTEX
  8
0
  5
4858
 10
1290.83
 20
649.412
 30
0.000000
  70
    32
  0
VERTEX
  8
0
  5
4859
 10
1290.85
 20
649.392
 30
0.000000
  70
    32
  0
VERTEX
  8
0
  5
485A
 10
1290.87
 20
649.372
 30
0.000000
  70
    32
  0
VERTEX
  8
0
  5
485B
 10
1290.88
 20
649.351
 30
0.000000
  70
    32
  0
VERTEX
  8
0
  5
485C
 10
1290.90
 20
649.331
 30
0.000000
  70
    32
  0
VERTEX
  8
0
  5
485D
 10
1290.92
 20
649.310
 30
0.000000
  70
    32
  0
VERTEX
  8
0
  5
485E
 10
1290.93
 20
649.290
 30
0.000000
  70
    32
  0
VERTEX
  8
0
  5
485F
 10
1290.95
 20
649.269
 30
0.000000
  70
    32
  0
VERTEX
  8
0
  5
4860
 10
1290.97
 20
649.248
 30
0.000000
  70
    32
  0
VERTEX
  8
0
  5
4861
 10
1290.99
 20
649.227
 30
0.000000
  70
    32
  0
VERTEX
  8
0
  5
4862
 10
1291.00
 20
649.206
 30
0.000000
  70
    32
  0
VERTEX
  8
0
  5
4863
 10
1291.02
 20
649.186
 30
0.000000
  70
    32
  0
VERTEX
  8
0
  5
4864
 10
1291.04
 20
649.165
 30
0.000000
  70
    32
  0
VERTEX
  8
0
  5
4865
 10
1291.06
 20
649.143
 30
0.000000
  70
    32
  0
VERTEX
  8
0
  5
4866
 10
1291.07
 20
649.122
 30
0.000000
  70
    32
  0
VERTEX
  8
0
  5
4867
 10
1291.09
 20
649.101
 30
0.000000
  70
    32
  0
VERTEX
  8
0
  5
4868
 10
1291.11
 20
649.080
 30
0.000000
  70
    32
  0
SEQEND
  8
0
  5
4869
  0
LINE
  5
41A2
  8
0
 10
1305.17922830578
 20
647.58031446327186
 30
0.0
 11
1291.17922830578
 21
649.58031446327186
 31
0.0
  0
LINE
  5
41A3
  8
0
 10
1304.8963853057801
 20
645.60041546327193
 30
0.0
 11
1290.8963853057801
 21
647.60041546327193
 31
0.0
  0
LINE
  5
41A4
  8
0
 10
1306.8963853057801
 20
646.85041546327193
 30
0.0
 11
1316.49638530578
 21
646.85041546327193
 31
0.0
  0
LINE
  5
41A5
  8
0
 10
1306.8963853057801
 20
648.85041546327193
 30
0.0
 11
1316.49638530578
 21
648.85041546327193
 31
0.0
  0
LINE
  5
41A6
  8
0
 10
1305.3963853057801
 20
642.80041546327186
 30
0.0
 11
1316.8963853057801
 21
642.80041546327186
 31
0.0
  0
LINE
  5
41A9
  8
0
 10
1326.3963853057801
 20
664.30041546327197
 30
0.0
 11
1326.3963853057801
 21
644.90041546327177
 31
0.0
  0
LINE
  5
41AA
  8
0
 10
1324.8463853057799
 20
664.30041546327197
 30
0.0
 11
1324.8463853057799
 21
644.90041546327177
 31
0.0
  0
LINE
  5
41AB
  8
0
 10
1317.8963853057801
 20
665.40041546327177
 30
0.0
 11
1317.8963853057801
 21
643.80041546327197
 31
0.0
  0
LINE
  5
41AC
  8
0
 10
1316.49638530578
 20
662.35041546327193
 30
0.0
 11
1316.49638530578
 21
646.85041546327193
 31
0.0
  0
LINE
  5
41AD
  8
0
 10
1304.3963853057801
 20
665.40041546327177
 30
0.0
 11
1304.3963853057801
 21
643.80041546327197
 31
0.0
  0
LINE
  5
41AE
  8
2
 10
1303.8963853057801
 20
664.41541546327176
 30
0.0
 11
1303.8963853057801
 21
644.78541546327176
 31
0.0
  0
ARC
  5
41B7
  8
0
 10
1327.7963853057799
 20
639.80041546327197
 30
0.0
 40
1.0
 50
270.0
 51
0.0
  0
LINE
  5
41B8
  8
0
 10
1326.3963853057801
 20
670.40041546327188
 30
0.0
 11
1327.7963853057799
 21
670.40041546327188
 31
0.0
  0
LINE
  5
41B9
  8
0
 10
1326.3963853057801
 20
672.27541546327188
 30
0.0
 11
1326.3963853057801
 21
669.39387646327191
 31
0.0
  0
LINE
  5
41BA
  8
0
 10
1305.3963853057801
 20
666.40041546327188
 30
0.0
 11
1316.8963853057801
 21
666.40041546327188
 31
0.0
  0
ARC
  5
41BB
  8
0
 10
1327.7963853057799
 20
669.40041546327177
 30
0.0
 40
1.0
 50
0.0
 51
90.0
  0
ARC
  5
41BD
  8
0
 10
1520.69638530578
 20
654.60041546327193
 30
0.0
 40
2.25
 50
270.0
 51
90.0
  0
ARC
  5
41BE
  8
0
 10
1519.8963853057801
 20
654.60041546327193
 30
0.0
 40
2.25
 50
90.0
 51
270.0
  0
LINE
  5
41BF
  8
0
 10
1520.69638530578
 20
652.35041546327193
 30
0.0
 11
1519.8963853057801
 21
652.35041546327193
 31
0.0
  0
LINE
  5
41C0
  8
0
 10
1520.69638530578
 20
656.85041546327193
 30
0.0
 11
1519.8963853057801
 21
656.85041546327193
 31
0.0
  0
LINE
  5
41C1
  8
1
 10
1520.2963853057799
 20
660.60041546327193
 30
0.0
 11
1520.2963853057799
 21
648.60041546327193
 31
0.0
  0
LINE
  5
41C3
  8
0
 10
1652.44638530578
 20
669.39387646327191
 30
0.0
 11
1652.44638530578
 21
639.80695346327195
 31
0.0
  0
LINE
  5
41C4
  8
0
 10
1663.19638530578
 20
667.30041546327186
 30
0.0
 11
1663.19638530578
 21
641.90041546327188
 31
0.0
  0
LINE
  5
41C5
  8
0
 10
1646.346385305779
 20
655.00041546327191
 30
0.0
 11
1646.346385305779
 21
654.20041546327195
 31
0.0
  0
ARC
  5
41C6
  8
0
 10
1631.3963853057801
 20
654.20041546327195
 30
0.0
 40
2.25
 50
180.0
 51
0.0
  0
ARC
  5
41C7
  8
0
 10
1631.3963853057801
 20
655.00041546327191
 30
0.0
 40
2.25
 50
0.0
 51
180.0
  0
LINE
  5
41C8
  8
0
 10
1629.1463853057801
 20
655.00041546327191
 30
0.0
 11
1629.1463853057801
 21
654.20041546327195
 31
0.0
  0
LINE
  5
41C9
  8
0
 10
1633.6463853057801
 20
655.00041546327191
 30
0.0
 11
1633.6463853057801
 21
654.20041546327195
 31
0.0
  0
LINE
  5
41CA
  8
0
 10
1641.8463853057799
 20
655.00041546327191
 30
0.0
 11
1641.8463853057799
 21
654.20041546327195
 31
0.0
  0
ARC
  5
41CB
  8
0
 10
1644.0963853057799
 20
654.20041546327195
 30
0.0
 40
2.25
 50
180.0
 51
0.0
  0
ARC
  5
41CC
  8
0
 10
1644.0963853057799
 20
655.00041546327191
 30
0.0
 40
2.25
 50
0.0
 51
180.0
  0
LINE
  5
41CD
  8
1
 10
1644.0963853057799
 20
660.60041546327193
 30
0.0
 11
1644.0963853057799
 21
648.60041546327193
 31
0.0
  0
LINE
  5
41CE
  8
1
 10
1631.3963853057801
 20
660.60041546327193
 30
0.0
 11
1631.3963853057801
 21
648.60041546327193
 31
0.0
  0
LINE
  5
41CF
  8
0
 10
1659.9963853057791
 20
664.30041546327197
 30
0.0
 11
1658.44638530578
 21
664.30041546327197
 31
0.0
  0
LINE
  5
41D0
  8
0
 10
1659.9963853057791
 20
644.90041546327177
 30
0.0
 11
1658.44638530578
 21
644.90041546327177
 31
0.0
  0
LINE
  5
41D1
  8
0
 10
1659.9963853057791
 20
639.80695346327195
 30
0.0
 11
1659.9963853057791
 21
636.92541546327186
 31
0.0
  0
LINE
  5
41D2
  8
0
 10
1659.9963853057791
 20
638.90041546327177
 30
0.0
 11
1660.19638530578
 21
638.90041546327177
 31
0.0
  0
ARC
  5
41D3
  8
0
 10
1660.19638530578
 20
641.90041546327188
 30
0.0
 40
3.0
 50
270.0
 51
0.0
  0
LINE
  5
41D4
  8
0
 10
1659.9963853057791
 20
664.30041546327197
 30
0.0
 11
1659.9963853057791
 21
644.90041546327177
 31
0.0
  0
LINE
  5
41D5
  8
0
 10
1658.44638530578
 20
664.30041546327197
 30
0.0
 11
1658.44638530578
 21
644.90041546327177
 31
0.0
  0
ARC
  5
41D6
  8
0
 10
1660.19638530578
 20
667.30041546327186
 30
0.0
 40
3.0
 50
0.0
 51
90.0
  0
LINE
  5
41D7
  8
0
 10
1659.9963853057791
 20
669.39387646327191
 30
0.0
 11
1659.9963853057791
 21
672.27541546327188
 31
0.0
  0
LINE
  5
41D8
  8
0
 10
1659.9963853057791
 20
670.30041546327186
 30
0.0
 11
1660.19638530578
 21
670.30041546327186
 31
0.0
  0
LINE
  5
4208
  8
2
 10
611.34638530577968
 20
658.03695664871327
 30
0.0
 11
611.34638530577968
 21
658.60041546327193
 31
0.0
  0
LINE
  5
4209
  8
0
 10
611.34638530577968
 20
651.16387427783047
 30
0.0
 11
611.34638530577968
 21
658.03695664871316
 31
0.0
  0
LINE
  5
420A
  8
2
 10
596.19638530577947
 20
648.30041546327197
 30
0.0
 11
594.98737590202563
 21
648.75379415745795
 31
0.0
  0
LINE
  5
420B
  8
0
 10
594.98737545827339
 20
660.44703705008772
 30
0.0
 11
593.49413830577942
 21
659.8870734632718
 31
0.0
  0
TEXT
  5
42BF
  8
0
 62
     3
 10
0.0
 20
0.0
 30
0.0
 40
10.0
  1
RS35D-28M
  7
STANDARD1
  0
ENDSEC
  0
EOF
