  0
SECTION
  2
HEADER
  9
$ACADVER
  1
AC1009
  9
$INSBASE
 10
0.0
 20
0.0
 30
0.0
  9
$EXTMIN
 10
0.0
 20
-2.960436562073669
 30
0.0
  9
$EXTMAX
 10
1440.356258444521
 20
581.90542370045853
 30
0.0
  9
$LIMMIN
 10
0.0
 20
0.0
  9
$LIMMAX
 10
187.5
 20
135.0
  9
$ORTHOMODE
 70
     0
  9
$REGENMODE
 70
     1
  9
$FILLMODE
 70
     1
  9
$QTEXTMODE
 70
     0
  9
$MIRRTEXT
 70
     0
  9
$DRAGMODE
 70
     2
  9
$LTSCALE
 40
5.0
  9
$OSMODE
 70
    55
  9
$ATTMODE
 70
     1
  9
$TEXTSIZE
 40
2.5
  9
$TRACEWID
 40
0.05
  9
$TEXTSTYLE
  7
STANDARD
  9
$CLAYER
  8
2
  9
$CELTYPE
  6
BYLAYER
  9
$CECOLOR
 62
   256
  9
$DIMSCALE
 40
0.5
  9
$DIMASZ
 40
3.0
  9
$DIMEXO
 40
2.0
  9
$DIMDLI
 40
10.0
  9
$DIMRND
 40
0.0
  9
$DIMDLE
 40
0.0
  9
$DIMEXE
 40
2.0
  9
$DIMTP
 40
0.0
  9
$DIMTM
 40
0.0
  9
$DIMTXT
 40
3.0
  9
$DIMCEN
 40
0.09
  9
$DIMTSZ
 40
0.0
  9
$DIMTOL
 70
     0
  9
$DIMLIM
 70
     0
  9
$DIMTIH
 70
     0
  9
$DIMTOH
 70
     0
  9
$DIMSE1
 70
     0
  9
$DIMSE2
 70
     0
  9
$DIMTAD
 70
     1
  9
$DIMZIN
 70
     0
  9
$DIMBLK
  1

  9
$DIMASO
 70
     0
  9
$DIMSHO
 70
     0
  9
$DIMPOST
  1

  9
$DIMAPOST
  1

  9
$DIMALT
 70
     0
  9
$DIMALTD
 70
     2
  9
$DIMALTF
 40
25.399999999999999
  9
$DIMLFAC
 40
1.0
  9
$DIMTOFL
 70
     1
  9
$DIMTVP
 40
1.6000000000000001
  9
$DIMTIX
 70
     1
  9
$DIMSOXD
 70
     0
  9
$DIMSAH
 70
     0
  9
$DIMBLK1
  1

  9
$DIMBLK2
  1

  9
$DIMSTYLE
  2
STANDARD
  9
$DIMCLRD
 70
     0
  9
$DIMCLRE
 70
     0
  9
$DIMCLRT
 70
     0
  9
$DIMTFAC
 40
1.0
  9
$DIMGAP
 40
0.09
  9
$LUNITS
 70
     2
  9
$LUPREC
 70
     4
  9
$SKETCHINC
 40
0.1
  9
$FILLETRAD
 40
0.0
  9
$AUNITS
 70
     0
  9
$AUPREC
 70
     0
  9
$MENU
  1
E:\r13\win\SUPPORT\ACAD
  9
$ELEVATION
 40
0.0
  9
$PELEVATION
 40
0.0
  9
$THICKNESS
 40
0.0
  9
$LIMCHECK
 70
     0
  9
$BLIPMODE
 70
     0
  9
$CHAMFERA
 40
1.6000000000000001
  9
$CHAMFERB
 40
1.6000000000000001
  9
$SKPOLY
 70
     0
  9
$TDCREATE
 40
2449840.5944097228
  9
$TDUPDATE
 40
2456598.6046853592
  9
$TDINDWG
 40
0.2060928356
  9
$TDUSRTIMER
 40
0.2060928356
  9
$USRTIMER
 70
     1
  9
$ANGBASE
 50
0.0
  9
$ANGDIR
 70
     0
  9
$PDMODE
 70
     0
  9
$PDSIZE
 40
0.0
  9
$PLINEWID
 40
0.0
  9
$COORDS
 70
     1
  9
$SPLFRAME
 70
     0
  9
$SPLINETYPE
 70
     6
  9
$SPLINESEGS
 70
     8
  9
$ATTDIA
 70
     0
  9
$ATTREQ
 70
     1
  9
$HANDLING
 70
     1
  9
$HANDSEED
  5
5B2E
  9
$SURFTAB1
 70
     6
  9
$SURFTAB2
 70
     6
  9
$SURFTYPE
 70
     6
  9
$SURFU
 70
     6
  9
$SURFV
 70
     6
  9
$UCSNAME
  2

  9
$UCSORG
 10
0.0
 20
0.0
 30
0.0
  9
$UCSXDIR
 10
1.0
 20
0.0
 30
0.0
  9
$UCSYDIR
 10
0.0
 20
1.0
 30
0.0
  9
$PUCSNAME
  2

  9
$PUCSORG
 10
0.0
 20
0.0
 30
0.0
  9
$PUCSXDIR
 10
1.0
 20
0.0
 30
0.0
  9
$PUCSYDIR
 10
0.0
 20
1.0
 30
0.0
  9
$USERI1
 70
     0
  9
$USERI2
 70
     1
  9
$USERI3
 70
     1
  9
$USERI4
 70
     0
  9
$USERI5
 70
     0
  9
$USERR1
 40
0.0
  9
$USERR2
 40
0.0
  9
$USERR3
 40
0.0
  9
$USERR4
 40
0.0
  9
$USERR5
 40
0.0
  9
$WORLDVIEW
 70
     1
  9
$SHADEDGE
 70
     3
  9
$SHADEDIF
 70
    70
  9
$TILEMODE
 70
     1
  9
$MAXACTVP
 70
    16
  9
$PLIMCHECK
 70
     0
  9
$PEXTMIN
 10
1.0000000000000000E+020
 20
1.0000000000000000E+020
 30
1.0000000000000000E+020
  9
$PEXTMAX
 10
-1.0000000000000000E+020
 20
-1.0000000000000000E+020
 30
-1.0000000000000000E+020
  9
$PLIMMIN
 10
0.0
 20
0.0
  9
$PLIMMAX
 10
12.0
 20
9.0
  9
$UNITMODE
 70
     0
  9
$VISRETAIN
 70
     0
  9
$PLINEGEN
 70
     0
  9
$PSLTSCALE
 70
     0
  0
ENDSEC
  0
SECTION
  2
TABLES
  0
TABLE
  2
VPORT
 70
     1
  0
VPORT
  2
*ACTIVE
 70
     0
 10
0.0
 20
0.0
 11
1.0
 21
1.0
 12
720.17813257585112
 22
420.75697993693262
 13
0.0
 23
0.0
 14
5.0
 24
5.0
 15
5.0
 25
5.0
 16
0.0
 26
0.0
 36
1.0
 17
0.0
 27
0.0
 37
0.0
 40
855.69826865836455
 41
1.7807262569832401
 42
50.0
 43
0.0
 44
0.0
 50
0.0
 51
0.0
 71
     0
 72
   100
 73
     1
 74
     0
 75
     0
 76
     0
 77
     0
 78
     0
  0
ENDTAB
  0
TABLE
  2
LTYPE
 70
     4
  0
LTYPE
  2
CONTINUOUS
 70
     0
  3
Solid Line
 72
    65
 73
     0
 40
0.0
  0
LTYPE
  2
CENTER
 70
     0
  3
____ _ ____ _ ____ _ ____ _ ____ _ ____ _ ____
 72
    65
 73
     4
 40
2.0
 49
1.25
 49
-0.25
 49
0.25
 49
-0.25
  0
LTYPE
  2
HIDDEN
 70
     0
  3
_ _ _ _ _ _ _ _ _ _ _ _ _ _ _ _ _ _ _ _ _ _ _
 72
    65
 73
     2
 40
0.375
 49
0.25
 49
-0.125
  0
LTYPE
  2
PHANTOM2
 70
     0
  3
___ _ _ ___ _ _ ___ _ _ ___ _ _
 72
    65
 73
     6
 40
1.25
 49
0.625
 49
-0.125
 49
0.125
 49
-0.125
 49
0.125
 49
-0.125
  0
ENDTAB
  0
TABLE
  2
LAYER
 70
     4
  0
LAYER
  2
0
 70
     0
 62
     7
  6
CONTINUOUS
  0
LAYER
  2
1
 70
     0
 62
     1
  6
CENTER
  0
LAYER
  2
2
 70
     0
 62
     2
  6
HIDDEN
  0
LAYER
  2
4
 70
     0
 62
     1
  6
CONTINUOUS
  0
ENDTAB
  0
TABLE
  2
STYLE
 70
     5
  0
STYLE
  2
STANDARD
 70
     0
 40
0.0
 41
1.0
 50
0.0
 71
     0
 42
2.5
  3
TXT
  4
BIGFONT
  0
STYLE
  2
KANJI
 70
     0
 40
0.0
 41
1.0
 50
0.0
 71
     0
 42
5.0
  3
TXT.SHX
  4
bigfont
  0
STYLE
  2
STYLE2
 70
     0
 40
13.0
 41
1.0
 50
0.0
 71
     0
 42
2.5
  3
C:\Program Files\AutoCAD LT\txt.shx
  4
C:\Program Files\AutoCAD LT\bigfont.shx
  0
STYLE
  2
STANDARD2
 70
     0
 40
8.0
 41
1.0
 50
0.0
 71
     0
 42
0.2
  3
C:\Program Files\AutoCAD LT\txt.shx
  4
C:\Program Files\AutoCAD LT\bigfont.shx
  0
STYLE
  2
STANDARD1
 70
     0
 40
0.0
 41
1.0
 50
0.0
 71
     0
 42
3.0
  3
txt
  4

  0
ENDTAB
  0
TABLE
  2
VIEW
 70
     1
  0
VIEW
  2
ALL
 70
     0
 40
135.0
 10
110.49579799999999
 20
67.5
 41
0.0
 11
0.0
 21
0.0
 31
1.0
 12
0.0
 22
0.0
 32
0.0
 42
0.0
 43
0.0
 44
0.0
 50
0.0
 71
     0
  0
ENDTAB
  0
TABLE
  2
UCS
 70
     0
  0
ENDTAB
  0
TABLE
  2
APPID
 70
     4
  0
APPID
  2
ACAD
 70
     0
  0
APPID
  2
DCO15
 70
     0
  0
APPID
  2
ACAD_MLEADERVER
 70
     0
  0
APPID
  2
ACAD_NAV_VCDISPLAY
 70
     0
  0
ENDTAB
  0
TABLE
  2
DIMSTYLE
 70
     1
  0
DIMSTYLE
  2
STANDARD
 70
     0
  3

  4

  5

  6

  7

 40
1.0
 41
0.18
 42
0.0625
 43
0.38
 44
0.18
 45
0.0
 46
0.0
 47
0.0
 48
0.0
140
0.18
141
0.09
142
0.0
143
25.399999999999999
144
1.0
145
0.0
146
1.0
147
0.09
 71
     0
 72
     0
 73
     1
 74
     1
 75
     0
 76
     0
 77
     0
 78
     0
170
     0
171
     2
172
     0
173
     0
174
     0
175
     0
176
     0
177
     0
178
     0
  0
ENDTAB
  0
ENDSEC
  0
SECTION
  2
BLOCKS
  0
BLOCK
  8
0
  2
$MODEL_SPACE
 70
     0
 10
0.0
 20
0.0
 30
0.0
  3
$MODEL_SPACE
  1

  0
ENDBLK
  5
15D
  8
0
  0
BLOCK
 67
     1
  8
0
  2
$PAPER_SPACE
 70
     0
 10
0.0
 20
0.0
 30
0.0
  3
$PAPER_SPACE
  1

  0
ENDBLK
  5
15B
 67
     1
  8
0
  0
BLOCK
  8
0
  2
STDGX5
 70
     0
 10
0.0
 20
0.0
 30
0.0
  3
STDGX5
  1

  0
ENDBLK
  5
41
  8
0
  0
ENDSEC
  0
SECTION
  2
ENTITIES
  0
INSERT
  5
CA
  8
0
  2
STDGX5
 10
0.0
 20
0.0
 30
0.0
  0
INSERT
  5
69A
  8
0
  2
STDGX5
 10
194.3272563481562
 20
13.52129245667936
 30
0.0
  0
INSERT
  5
1343
  8
0
  2
STDGX5
 10
563.10080863610574
 20
-59.557035590067017
 30
0.0
  0
INSERT
  5
1345
  8
0
  2
STDGX5
 10
757.42806498426194
 20
-46.035743133387648
 30
0.0
  0
ARC
  5
2542
  8
0
 10
112.7462584445211
 20
574.99264770045852
 30
0.0
 40
1.659999999999999
 50
0.0
 51
131.5067160000028
  0
LINE
  5
2543
  8
0
 10
108.4216294445209
 20
576.10890370045854
 30
0.0
 11
107.80625844452101
 21
575.2922777004585
 31
0.0
  0
LINE
  5
2544
  8
0
 10
107.80625844452101
 20
575.2922777004585
 30
0.0
 11
107.80625844452101
 21
574.65436370045848
 31
0.0
  0
ARC
  5
2545
  8
0
 10
112.7462584445211
 20
574.99264770045852
 30
0.0
 40
0.11
 50
0.0
 51
131.5067160000028
  0
ARC
  5
2546
  8
0
 10
109.9562584445211
 20
578.14542370045854
 30
0.0
 40
2.5499999999999989
 50
232.99999999999821
 51
311.45000000000618
  0
ARC
  5
2547
  8
0
 10
109.9562584445211
 20
578.14542370045854
 30
0.0
 40
4.0999999999999988
 50
238.37279600001011
 51
311.50671600000288
  0
LINE
  5
2548
  8
0
 10
108.4216294445209
 20
552.3519447004586
 30
0.0
 11
107.80625844452101
 21
553.16857070045853
 31
0.0
  0
LINE
  5
2549
  8
0
 10
107.80625844452101
 20
553.16857070045853
 30
0.0
 11
107.80625844452101
 21
553.80648370045844
 31
0.0
  0
ARC
  5
254A
  8
0
 10
112.7462584445211
 20
553.46820070045851
 30
0.0
 40
1.659999999999999
 50
228.4932839999972
 51
0.0
  0
ARC
  5
254B
  8
0
 10
112.7462584445211
 20
553.46820070045851
 30
0.0
 40
0.11
 50
228.4932839999972
 51
0.0
  0
ARC
  5
254C
  8
0
 10
109.9562584445211
 20
550.31542370045861
 30
0.0
 40
4.0999999999999988
 50
48.493283999997161
 51
121.6272039999898
  0
ARC
  5
254D
  8
0
 10
109.9562584445211
 20
550.31542370045861
 30
0.0
 40
2.5499999999999989
 50
48.549999999993823
 51
127.00000000000171
  0
LINE
  5
254E
  8
0
 10
112.8562584445212
 20
553.46820070045851
 30
0.0
 11
112.8562584445212
 21
574.99264770045852
 31
0.0
  0
LINE
  5
254F
  8
0
 10
114.4062584445209
 20
553.46820070045851
 30
0.0
 11
114.4062584445209
 21
574.99264770045852
 31
0.0
  0
LINE
  5
2550
  8
0
 10
114.4062584445209
 20
553.46820070045851
 30
0.0
 11
114.4062584445209
 21
574.99264770045852
 31
0.0
  0
ARC
  5
2551
  8
0
 10
118.8562584445212
 20
578.14542370045854
 30
0.0
 40
4.0999999999999988
 50
228.4932839999972
 51
301.62720399998989
  0
ARC
  5
2552
  8
0
 10
118.8562584445212
 20
578.14542370045854
 30
0.0
 40
2.5499999999999989
 50
228.5499999999939
 51
307.00000000000182
  0
ARC
  5
2553
  8
0
 10
116.0662584445212
 20
574.99264770045852
 30
0.0
 40
0.11
 50
48.493283999997161
 51
180.0
  0
LINE
  5
2554
  8
0
 10
121.0062584445209
 20
575.2922777004585
 30
0.0
 11
121.0062584445209
 21
574.65436370045848
 31
0.0
  0
LINE
  5
2555
  8
0
 10
120.3908864445206
 20
576.10890370045854
 30
0.0
 11
121.0062584445209
 21
575.2922777004585
 31
0.0
  0
ARC
  5
2556
  8
0
 10
116.0662584445212
 20
574.99264770045852
 30
0.0
 40
1.659999999999999
 50
48.493283999997161
 51
180.0
  0
ARC
  5
2557
  8
0
 10
118.8562584445212
 20
550.31542370045861
 30
0.0
 40
2.5499999999999989
 50
52.999999999998252
 51
131.45000000000621
  0
ARC
  5
2558
  8
0
 10
118.8562584445212
 20
550.31542370045861
 30
0.0
 40
4.0999999999999988
 50
58.372796000010119
 51
131.5067160000028
  0
ARC
  5
2559
  8
0
 10
116.0662584445212
 20
553.46820070045851
 30
0.0
 40
0.11
 50
180.0
 51
311.50671600000288
  0
ARC
  5
255A
  8
0
 10
116.0662584445212
 20
553.46820070045851
 30
0.0
 40
1.659999999999999
 50
180.0
 51
311.50671600000288
  0
LINE
  5
255B
  8
0
 10
121.0062584445209
 20
553.16857070045853
 30
0.0
 11
121.0062584445209
 21
553.80648370045844
 31
0.0
  0
LINE
  5
255C
  8
0
 10
120.3908864445206
 20
552.3519447004586
 30
0.0
 11
121.0062584445209
 21
553.16857070045853
 31
0.0
  0
LINE
  5
255D
  8
0
 10
114.4062584445209
 20
553.46820070045851
 30
0.0
 11
114.4062584445209
 21
574.99264770045852
 31
0.0
  0
LINE
  5
255E
  8
0
 10
114.4062584445209
 20
553.46820070045851
 30
0.0
 11
114.4062584445209
 21
574.99264770045852
 31
0.0
  0
LINE
  5
255F
  8
0
 10
115.9562584445211
 20
553.46820070045851
 30
0.0
 11
115.9562584445211
 21
574.99264770045852
 31
0.0
  0
POINT
  5
2671
  8
0
 10
123.9562584445212
 20
550.66940570045858
 30
0.0
  0
LINE
  5
2672
  8
0
 10
123.9562584445212
 20
550.66940570045858
 30
0.0
 11
123.9562584445212
 21
577.79144170045845
 31
0.0
  0
ARC
  5
2673
  8
0
 10
118.8562584445212
 20
577.97542370045858
 30
0.0
 40
2.379999999999999
 50
188.56954700000199
 51
345.43045300000171
  0
ARC
  5
2674
  8
0
 10
118.9562584445212
 20
577.80542370045839
 30
0.0
 40
4.0999999999999988
 50
44.999999999995389
 51
135.0000000000046
  0
LINE
  5
2676
  8
0
 10
120.7415254445209
 20
579.52247570045859
 30
0.0
 11
122.2366344445208
 21
577.96454470045853
 31
0.0
  0
LINE
  5
2677
  8
0
 10
121.8553954445207
 20
580.70456170045838
 30
0.0
 11
123.45496544452099
 21
579.0377797004586
 31
0.0
  0
LINE
  5
2678
  8
0
 10
112.7553962473862
 20
580.70456150332325
 30
0.0
 11
113.3162590582006
 21
580.1201327004585
 31
0.0
  0
LINE
  5
267A
  8
0
 10
113.72669244452121
 20
578.19572870045863
 30
0.0
 11
113.752860444521
 21
577.69641470045838
 31
0.0
  0
LINE
  5
267B
  8
0
 10
115.0858234445209
 20
578.19572870045863
 30
0.0
 11
115.059655444521
 21
577.69641470045838
 31
0.0
  0
LINE
  5
267C
  8
0
 10
121.3667254445208
 20
577.36587470045845
 30
0.0
 11
115.059655444521
 21
577.69641470045838
 31
0.0
  0
LINE
  5
267D
  8
0
 10
121.39289344452069
 20
577.86518970045859
 30
0.0
 11
115.0858234445209
 21
578.19572870045863
 31
0.0
  0
ARC
  5
267E
  8
0
 10
118.8562584445212
 20
577.97542370045858
 30
0.0
 40
2.379999999999999
 50
357.54585400000121
 51
176.45414600000061
  0
LINE
  5
267F
  8
0
 10
111.7591484445211
 20
579.60831470045855
 30
0.0
 11
112.3200104445209
 21
579.02388570045855
 31
0.0
  0
ARC
  5
2680
  8
0
 10
118.8562584445212
 20
577.80542370045839
 30
0.0
 40
2.5499999999999989
 50
42.326427999999758
 51
135.0000000000046
  0
LINE
  5
2681
  8
0
 10
117.0533674445209
 20
579.60831470045855
 30
0.0
 11
116.4925054445211
 21
579.02388570045855
 31
0.0
  0
LINE
  5
2682
  8
0
 10
116.0571206416562
 20
580.70456150332325
 30
0.0
 11
115.49625883084271
 21
580.1201327004585
 31
0.0
  0
ARC
  5
2683
  8
0
 10
122.05625844452101
 20
577.79144170045845
 30
0.0
 40
0.25
 50
0.0
 51
43.821186999997799
  0
ARC
  5
2684
  8
0
 10
121.3562584445212
 20
577.16614870045851
 30
0.0
 40
0.2
 50
0.0
 51
86.999999999994415
  0
ARC
  5
2685
  8
0
 10
121.3562584445212
 20
577.16614870045851
 30
0.0
 40
0.7
 50
0.0
 51
86.999999999994415
  0
ARC
  5
2686
  8
0
 10
106.6562584445208
 20
577.79144170045845
 30
0.0
 40
1.8
 50
136.17881300000221
 51
180.0
  0
LINE
  5
2687
  8
0
 10
106.9571204445209
 20
580.70456170045838
 30
0.0
 11
105.357550444521
 21
579.0377797004586
 31
0.0
  0
LINE
  5
2688
  8
0
 10
108.0709904445211
 20
579.52247570045859
 30
0.0
 11
106.5758824445211
 21
577.96454470045853
 31
0.0
  0
ARC
  5
2689
  8
0
 10
106.7562584445209
 20
577.79144170045845
 30
0.0
 40
0.25
 50
136.17881300000221
 51
180.0
  0
ARC
  5
268A
  8
0
 10
107.4562584445211
 20
577.16614870045851
 30
0.0
 40
0.7
 50
93.000000000005585
 51
180.0
  0
ARC
  5
268B
  8
0
 10
107.4562584445211
 20
577.16614870045851
 30
0.0
 40
0.2
 50
93.000000000005585
 51
180.0
  0
ARC
  5
268C
  8
0
 10
109.9562584445211
 20
577.97542370045858
 30
0.0
 40
2.379999999999999
 50
194.56954699999829
 51
351.43045299999801
  0
ARC
  5
268D
  8
0
 10
109.8562584445211
 20
577.80542370045839
 30
0.0
 40
4.0999999999999988
 50
44.999999999995389
 51
135.0000000000046
  0
ARC
  5
268E
  8
0
 10
109.9562584445211
 20
577.97542370045858
 30
0.0
 40
2.379999999999999
 50
3.545853999999327
 51
182.45414599999879
  0
LINE
  5
268F
  8
0
 10
107.4196224445209
 20
577.86518970045859
 30
0.0
 11
113.72669244452121
 21
578.19572870045863
 31
0.0
  0
LINE
  5
2690
  8
0
 10
107.44579044452119
 20
577.36587470045845
 30
0.0
 11
113.752860444521
 21
577.69641470045838
 31
0.0
  0
ARC
  5
2691
  8
0
 10
109.9562584445211
 20
577.80542370045839
 30
0.0
 40
2.5499999999999989
 50
44.999999999995389
 51
137.67357200000021
  0
LINE
  5
2692
  8
0
 10
121.8553954445207
 20
547.75628670045853
 30
0.0
 11
123.45496544452099
 21
549.42306770045855
 31
0.0
  0
LINE
  5
2693
  8
0
 10
120.7415254445209
 20
548.93837270045844
 30
0.0
 11
122.2366344445208
 21
550.49630370045861
 31
0.0
  0
LINE
  5
2694
  8
0
 10
117.0533674445209
 20
548.85253370045859
 30
0.0
 11
116.4925054445211
 21
549.43696270045848
 31
0.0
  0
LINE
  5
2696
  8
0
 10
116.05712044452061
 20
547.75628670045853
 30
0.0
 11
115.4962584445211
 21
548.34071470045865
 31
0.0
  0
ARC
  5
2697
  8
0
 10
118.9562584445212
 20
550.65542370045853
 30
0.0
 40
4.0999999999999988
 50
224.9999999999954
 51
315.0000000000046
  0
ARC
  5
2698
  8
0
 10
118.8562584445212
 20
550.65542370045853
 30
0.0
 40
2.5499999999999989
 50
224.9999999999954
 51
317.67357200000021
  0
ARC
  5
2699
  8
0
 10
122.05625844452101
 20
550.66940570045858
 30
0.0
 40
0.25
 50
316.17881300000209
 51
0.0
  0
LINE
  5
269B
  8
0
 10
112.7553962473862
 20
547.7562858975939
 30
0.0
 11
113.3162600178789
 21
548.34071470045865
 31
0.0
  0
LINE
  5
269C
  8
0
 10
111.7591484445211
 20
548.85253370045859
 30
0.0
 11
112.3200104445209
 21
549.43696270045848
 31
0.0
  0
ARC
  5
269D
  8
0
 10
119.6562584445209
 20
568.73042370045846
 30
0.0
 40
0.3
 50
90.0
 51
180.0
  0
LINE
  5
269E
  8
0
 10
121.2562584445209
 20
569.03042370045853
 30
0.0
 11
119.6562584445209
 21
569.03042370045853
 31
0.0
  0
ARC
  5
269F
  8
0
 10
121.2562584445209
 20
569.83042370045848
 30
0.0
 40
0.8
 50
270.0
 51
0.0
  0
ARC
  5
26A0
  8
0
 10
121.2562584445209
 20
569.83042370045848
 30
0.0
 40
0.3
 50
270.0
 51
0.0
  0
LINE
  5
26A1
  8
0
 10
121.2562584445209
 20
569.53042370045841
 30
0.0
 11
119.6562584445209
 21
569.53042370045841
 31
0.0
  0
ARC
  5
26A2
  8
0
 10
119.6562584445209
 20
568.73042370045846
 30
0.0
 40
0.8
 50
90.0
 51
180.0
  0
LINE
  5
26A3
  8
0
 10
119.3562584445212
 20
568.73042370045846
 30
0.0
 11
119.3562584445212
 21
559.73042370045857
 31
0.0
  0
LINE
  5
26A4
  8
0
 10
118.8562584445212
 20
568.73042370045846
 30
0.0
 11
118.8562584445212
 21
559.73042370045857
 31
0.0
  0
LINE
  5
26A5
  8
0
 10
122.05625844452101
 20
551.29469970045852
 30
0.0
 11
122.05625844452101
 21
558.63042370045855
 31
0.0
  0
LINE
  5
26A6
  8
0
 10
121.55625844452101
 20
551.29469970045852
 30
0.0
 11
121.55625844452101
 21
558.63042370045855
 31
0.0
  0
ARC
  5
26A7
  8
0
 10
121.2562584445209
 20
558.63042370045855
 30
0.0
 40
0.8
 50
0.0
 51
90.0
  0
LINE
  5
26A8
  8
0
 10
121.2562584445209
 20
559.4304237004585
 30
0.0
 11
119.6562584445209
 21
559.4304237004585
 31
0.0
  0
ARC
  5
26A9
  8
0
 10
119.6562584445209
 20
559.73042370045857
 30
0.0
 40
0.3
 50
180.0
 51
270.0
  0
ARC
  5
26AA
  8
0
 10
121.2562584445209
 20
558.63042370045855
 30
0.0
 40
0.3
 50
0.0
 51
90.0
  0
LINE
  5
26AB
  8
0
 10
121.2562584445209
 20
558.9304237004585
 30
0.0
 11
119.6562584445209
 21
558.9304237004585
 31
0.0
  0
ARC
  5
26AC
  8
0
 10
119.6562584445209
 20
559.73042370045857
 30
0.0
 40
0.8
 50
180.0
 51
270.0
  0
LINE
  5
26AD
  8
0
 10
115.0858234445209
 20
550.26511870045852
 30
0.0
 11
115.059655444521
 21
550.76443370045854
 31
0.0
  0
LINE
  5
26AE
  8
0
 10
113.72669244452121
 20
550.26511870045852
 30
0.0
 11
113.752860444521
 21
550.76443370045854
 31
0.0
  0
LINE
  5
26AF
  8
0
 10
121.3667254445208
 20
551.09497370045858
 30
0.0
 11
115.059655444521
 21
550.76443370045854
 31
0.0
  0
ARC
  5
26B0
  8
0
 10
118.8562584445212
 20
550.48542370045845
 30
0.0
 40
2.379999999999999
 50
14.569546999998311
 51
171.43045299999801
  0
LINE
  5
26B1
  8
0
 10
121.39289344452069
 20
550.59565870045844
 30
0.0
 11
115.0858234445209
 21
550.26511870045852
 31
0.0
  0
ARC
  5
26B2
  8
0
 10
118.8562584445212
 20
550.48542370045845
 30
0.0
 40
2.379999999999999
 50
183.54585399999931
 51
2.454145999998802
  0
ARC
  5
26B3
  8
0
 10
121.3562584445212
 20
551.29469970045852
 30
0.0
 40
0.2
 50
273.00000000000563
 51
0.0
  0
ARC
  5
26B4
  8
0
 10
121.3562584445212
 20
551.29469970045852
 30
0.0
 40
0.7
 50
273.00000000000563
 51
0.0
  0
LINE
  5
26B5
  8
0
 10
109.4562584445211
 20
568.73042370045846
 30
0.0
 11
109.4562584445211
 21
559.73042370045857
 31
0.0
  0
LINE
  5
26B6
  8
0
 10
109.9562584445211
 20
568.73042370045846
 30
0.0
 11
109.9562584445211
 21
559.73042370045857
 31
0.0
  0
ARC
  5
26B7
  8
0
 10
106.6562584445208
 20
550.66940570045858
 30
0.0
 40
1.8
 50
180.0
 51
223.82118699999779
  0
LINE
  5
26B8
  8
0
 10
106.9571204445209
 20
547.75628670045853
 30
0.0
 11
105.357550444521
 21
549.42306770045855
 31
0.0
  0
LINE
  5
26B9
  8
0
 10
108.0709904445211
 20
548.93837270045844
 30
0.0
 11
106.5758824445211
 21
550.49630370045861
 31
0.0
  0
ARC
  5
26BA
  8
0
 10
106.7562584445209
 20
550.66940570045858
 30
0.0
 40
0.25
 50
180.0
 51
223.82118699999779
  0
POINT
  5
26BB
  8
0
 10
104.8562584445211
 20
550.66940570045858
 30
0.0
  0
ARC
  5
26BC
  8
0
 10
107.55625844452101
 20
569.83042370045848
 30
0.0
 40
0.8
 50
180.0
 51
270.0
  0
ARC
  5
26BD
  8
0
 10
107.55625844452101
 20
569.83042370045848
 30
0.0
 40
0.3
 50
180.0
 51
270.0
  0
LINE
  5
26BE
  8
0
 10
107.55625844452101
 20
569.03042370045853
 30
0.0
 11
109.1562584445209
 21
569.03042370045853
 31
0.0
  0
LINE
  5
26BF
  8
0
 10
107.55625844452101
 20
569.53042370045841
 30
0.0
 11
109.1562584445209
 21
569.53042370045841
 31
0.0
  0
LINE
  5
26C0
  8
0
 10
106.7562584445209
 20
551.29469970045852
 30
0.0
 11
106.7562584445209
 21
558.63042370045855
 31
0.0
  0
LINE
  5
26C1
  8
0
 10
107.2562584445209
 20
551.29469970045852
 30
0.0
 11
107.2562584445209
 21
558.63042370045855
 31
0.0
  0
ARC
  5
26C2
  8
0
 10
107.55625844452101
 20
558.63042370045855
 30
0.0
 40
0.8
 50
90.0
 51
180.0
  0
ARC
  5
26C3
  8
0
 10
107.55625844452101
 20
558.63042370045855
 30
0.0
 40
0.3
 50
90.0
 51
180.0
  0
LINE
  5
26C4
  8
0
 10
107.55625844452101
 20
559.4304237004585
 30
0.0
 11
109.1562584445209
 21
559.4304237004585
 31
0.0
  0
LINE
  5
26C5
  8
0
 10
107.55625844452101
 20
558.9304237004585
 30
0.0
 11
109.1562584445209
 21
558.9304237004585
 31
0.0
  0
ARC
  5
26C6
  8
0
 10
107.4562584445211
 20
551.29469970045852
 30
0.0
 40
0.7
 50
180.0
 51
266.99999999999437
  0
ARC
  5
26C7
  8
0
 10
107.4562584445211
 20
551.29469970045852
 30
0.0
 40
0.2
 50
180.0
 51
266.99999999999437
  0
ARC
  5
26C8
  8
0
 10
109.1562584445209
 20
568.73042370045846
 30
0.0
 40
0.3
 50
0.0
 51
90.0
  0
ARC
  5
26C9
  8
0
 10
109.1562584445209
 20
568.73042370045846
 30
0.0
 40
0.8
 50
0.0
 51
90.0
  0
ARC
  5
26CA
  8
0
 10
109.1562584445209
 20
559.73042370045857
 30
0.0
 40
0.3
 50
270.0
 51
0.0
  0
ARC
  5
26CB
  8
0
 10
109.1562584445209
 20
559.73042370045857
 30
0.0
 40
0.8
 50
270.0
 51
0.0
  0
ARC
  5
26CC
  8
0
 10
109.8562584445211
 20
550.65542370045853
 30
0.0
 40
4.0999999999999988
 50
224.9999999999954
 51
315.0000000000046
  0
ARC
  5
26CD
  8
0
 10
109.9562584445211
 20
550.65542370045853
 30
0.0
 40
2.5499999999999989
 50
222.32642799999979
 51
315.0000000000046
  0
ARC
  5
26CE
  8
0
 10
109.9562584445211
 20
550.48542370045845
 30
0.0
 40
2.379999999999999
 50
8.5695470000019647
 51
165.43045300000159
  0
ARC
  5
26CF
  8
0
 10
109.9562584445211
 20
550.48542370045845
 30
0.0
 40
2.379999999999999
 50
177.54585400000121
 51
356.45414600000072
  0
LINE
  5
26D0
  8
0
 10
107.44579044452119
 20
551.09497370045858
 30
0.0
 11
113.752860444521
 21
550.76443370045854
 31
0.0
  0
LINE
  5
26D1
  8
0
 10
107.4196224445209
 20
550.59565870045844
 30
0.0
 11
113.72669244452121
 21
550.26511870045852
 31
0.0
  0
LINE
  5
26D2
  8
0
 10
122.30625844452101
 20
550.66940570045858
 30
0.0
 11
122.30625844452101
 21
577.79144170045845
 31
0.0
  0
LINE
  5
26D3
  8
0
 10
106.5062584445209
 20
550.66940570045858
 30
0.0
 11
106.5062584445209
 21
577.79144170045845
 31
0.0
  0
LINE
  5
26D4
  8
0
 10
104.8562584445211
 20
550.66940570045858
 30
0.0
 11
104.8562584445211
 21
577.79144170045845
 31
0.0
  0
LINE
  5
26D5
  8
0
 10
106.7562584445209
 20
577.16614870045851
 30
0.0
 11
106.7562584445209
 21
569.83042370045848
 31
0.0
  0
LINE
  5
26D6
  8
0
 10
107.2562584445209
 20
577.16614870045851
 30
0.0
 11
107.2562584445209
 21
569.83042370045848
 31
0.0
  0
LINE
  5
26D7
  8
0
 10
122.05625844452101
 20
577.16614870045851
 30
0.0
 11
122.05625844452101
 21
569.83042370045848
 31
0.0
  0
LINE
  5
26D8
  8
0
 10
121.55625844452101
 20
577.16614870045851
 30
0.0
 11
121.55625844452101
 21
569.83042370045848
 31
0.0
  0
LINE
  5
26D9
  8
1
 10
99.956258444521154
 20
564.23042370045846
 30
0.0
 11
128.85625844452119
 21
564.23042370045846
 31
0.0
  0
ARC
  5
26DA
  8
0
 10
122.1562584445211
 20
550.66940570045858
 30
0.0
 40
1.8
 50
316.17881300000209
 51
0.0
  0
ARC
  5
26DB
  8
0
 10
122.1562584445211
 20
577.79144170045845
 30
0.0
 40
1.8
 50
0.0
 51
43.821186999997799
  0
LINE
  5
2B56
  8
0
 10
115.49625883084271
 20
580.1201327004585
 30
0.0
 11
116.4925054445211
 21
579.02388570045855
 31
0.0
  0
LINE
  5
2B57
  8
0
 10
112.3200104445209
 20
579.02388570045855
 30
0.0
 11
113.3162590582006
 21
580.1201327004585
 31
0.0
  0
LINE
  5
2B5A
  8
0
 10
112.3200104445209
 20
549.43696270045859
 30
0.0
 11
113.3162600178789
 21
548.34071470045865
 31
0.0
  0
LINE
  5
2B5B
  8
0
 10
115.4962584445211
 20
548.34071470045865
 30
0.0
 11
116.4925054445211
 21
549.43696270045848
 31
0.0
  0
POINT
  5
55DF
  8
2
 10
509.40625844452143
 20
552.35194370045838
 30
0.0
  0
POINT
  5
55E0
  8
2
 10
504.80625844452152
 20
551.80819970045854
 30
0.0
  0
POINT
  5
55E1
  8
2
 10
509.40625844452143
 20
551.80819970045854
 30
0.0
  0
POINT
  5
55E2
  8
2
 10
504.80625844452152
 20
546.55542370045828
 30
0.0
  0
LINE
  5
55E3
  8
2
 10
798.45625844452115
 20
551.80819970045854
 30
0.0
 11
504.80625844452152
 21
551.80819970045854
 31
0.0
  0
LINE
  5
55E4
  8
2
 10
798.45625844452115
 20
576.65264670045849
 30
0.0
 11
504.80625844452152
 21
576.65264670045849
 31
0.0
  0
LINE
  5
55E5
  8
2
 10
504.80625844452152
 20
551.80819970045854
 30
0.0
 11
504.80625844452152
 21
576.65264670045849
 31
0.0
  0
LINE
  5
55E6
  8
2
 10
507.8062584445214
 20
573.70868470045832
 30
0.0
 11
509.40625844452143
 21
574.23042370045846
 31
0.0
  0
LINE
  5
55E7
  8
2
 10
507.8062584445214
 20
554.75216270045848
 30
0.0
 11
509.40625844452143
 21
554.23042370045846
 31
0.0
  0
LINE
  5
55E8
  8
2
 10
507.8062584445214
 20
554.75216270045848
 30
0.0
 11
509.40625844452143
 21
554.23042370045846
 31
0.0
  0
LINE
  5
55E9
  8
2
 10
507.8062584445214
 20
573.70868470045832
 30
0.0
 11
507.8062584445214
 21
554.75216270045848
 31
0.0
  0
LINE
  5
55EA
  8
2
 10
509.40625844452143
 20
576.65264670045849
 30
0.0
 11
509.40625844452143
 21
551.80819970045854
 31
0.0
  0
LINE
  5
55EB
  8
2
 10
1109.8062584445211
 20
551.80819970045854
 30
0.0
 11
1109.8062584445211
 21
576.65264670045849
 31
0.0
  0
LINE
  5
55EC
  8
0
 10
1114.406258444521
 20
576.65264670045849
 30
0.0
 11
1114.406258444521
 21
551.80819970045854
 31
0.0
  0
LINE
  5
55ED
  8
0
 10
851.65625844452143
 20
551.80819970045854
 30
0.0
 11
1114.406258444521
 21
551.80819970045854
 31
0.0
  0
LINE
  5
55EE
  8
0
 10
840.65625844452143
 20
551.80819970045854
 30
0.0
 11
1114.406258444521
 21
551.80819970045854
 31
0.0
  0
LINE
  5
55EF
  8
0
 10
851.65625844452143
 20
551.80819970045854
 30
0.0
 11
1114.406258444521
 21
551.80819970045854
 31
0.0
  0
LINE
  5
55F0
  8
0
 10
840.65625844452143
 20
551.80819970045854
 30
0.0
 11
1114.406258444521
 21
551.80819970045854
 31
0.0
  0
POINT
  5
55F1
  8
0
 10
1107.744668444521
 20
552.03160670045861
 30
0.0
  0
POINT
  5
55F2
  8
0
 10
1107.744668444521
 20
552.03160670045861
 30
0.0
  0
LINE
  5
55F3
  8
0
 10
1109.406258444521
 20
552.35194370045838
 30
0.0
 11
1114.406258444521
 21
552.85194370045838
 31
0.0
  0
LINE
  5
55F4
  8
0
 10
1109.406258444521
 20
553.80648370045856
 30
0.0
 11
1114.406258444521
 21
554.30648370045856
 31
0.0
  0
LINE
  5
55F5
  8
0
 10
1109.406258444521
 20
554.41542370045852
 30
0.0
 11
1114.406258444521
 21
554.91542370045852
 31
0.0
  0
LINE
  5
55F6
  8
0
 10
1109.406258444521
 20
554.41542370045852
 30
0.0
 11
1114.406258444521
 21
554.91542370045852
 31
0.0
  0
LINE
  5
55F7
  8
0
 10
1109.406258444521
 20
553.80648370045856
 30
0.0
 11
1114.406258444521
 21
554.30648370045856
 31
0.0
  0
POINT
  5
55F8
  8
0
 10
1107.744668444521
 20
552.03160670045861
 30
0.0
  0
POINT
  5
55F9
  8
0
 10
1107.744668444521
 20
552.03160670045861
 30
0.0
  0
LINE
  5
55FA
  8
0
 10
840.65625844452143
 20
576.65264670045849
 30
0.0
 11
1114.406258444521
 21
576.65264670045849
 31
0.0
  0
LINE
  5
55FB
  8
0
 10
851.65625844452143
 20
576.65264670045849
 30
0.0
 11
1114.406258444521
 21
576.65264670045849
 31
0.0
  0
LINE
  5
55FC
  8
0
 10
1109.406258444521
 20
574.04542370045829
 30
0.0
 11
1114.406258444521
 21
573.54542370045829
 31
0.0
  0
LINE
  5
55FD
  8
0
 10
1109.406258444521
 20
574.65436370045859
 30
0.0
 11
1114.406258444521
 21
574.15436370045859
 31
0.0
  0
LINE
  5
55FE
  8
0
 10
1109.406258444521
 20
576.10890270045877
 30
0.0
 11
1114.406258444521
 21
575.60890270045877
 31
0.0
  0
POINT
  5
55FF
  8
0
 10
1107.744668444521
 20
576.42924070045865
 30
0.0
  0
POINT
  5
5600
  8
0
 10
1107.744668444521
 20
576.42924070045865
 30
0.0
  0
LINE
  5
5601
  8
2
 10
1111.8062584445211
 20
551.80819970045854
 30
0.0
 11
1111.8062584445211
 21
576.65264670045849
 31
0.0
  0
POINT
  5
5602
  8
0
 10
1109.8062584445211
 20
576.65264670045849
 30
0.0
  0
POINT
  5
5603
  8
0
 10
1109.8062584445211
 20
579.02388470045832
 30
0.0
  0
POINT
  5
5604
  8
0
 10
1114.406258444521
 20
579.02388470045832
 30
0.0
  0
POINT
  5
5605
  8
0
 10
1114.406258444521
 20
552.85194370045838
 30
0.0
  0
POLYLINE
  5
5606
  8
0
 66
     1
 10
0.0
 20
0.0
 30
0.0
  0
VERTEX
  5
5607
  8
0
 10
798.45625844452115
 20
552.35194370045838
 30
0.0
  0
VERTEX
  5
5608
  8
0
 10
1109.406258444521
 20
552.35194370045838
 30
0.0
  0
SEQEND
  5
5609
  8
0
  0
POLYLINE
  5
560A
  8
0
 66
     1
 10
0.0
 20
0.0
 30
0.0
  0
VERTEX
  5
560B
  8
0
 10
798.45625844452115
 20
576.10890270045877
 30
0.0
  0
VERTEX
  5
560C
  8
0
 10
1109.406258444521
 20
576.10890270045877
 30
0.0
  0
SEQEND
  5
560D
  8
0
  0
LINE
  5
560E
  8
0
 10
798.45625844452115
 20
574.65436370045859
 30
0.0
 11
1109.406258444521
 21
574.65436370045859
 31
0.0
  0
LINE
  5
560F
  8
0
 10
798.45625844452115
 20
554.41542370045852
 30
0.0
 11
1109.406258444521
 21
554.41542370045852
 31
0.0
  0
LINE
  5
5610
  8
0
 10
798.45625844452115
 20
553.80648370045856
 30
0.0
 11
1109.406258444521
 21
553.80648370045856
 31
0.0
  0
LINE
  5
5611
  8
0
 10
798.45625844452115
 20
574.04542370045829
 30
0.0
 11
1109.406258444521
 21
574.04542370045829
 31
0.0
  0
LINE
  5
5612
  8
0
 10
798.45625844452115
 20
554.41542370045852
 30
0.0
 11
1109.406258444521
 21
554.41542370045852
 31
0.0
  0
LINE
  5
5613
  8
0
 10
798.45625844452115
 20
553.80648370045856
 30
0.0
 11
1109.406258444521
 21
553.80648370045856
 31
0.0
  0
LINE
  5
561F
  8
0
 10
840.65625844452143
 20
551.80819970045854
 30
0.0
 11
798.45625844452115
 21
551.80819970045854
 31
0.0
  0
LINE
  5
5620
  8
0
 10
840.65625844452143
 20
551.80819970045854
 30
0.0
 11
798.45625844452115
 21
551.80819970045854
 31
0.0
  0
LINE
  5
5621
  8
0
 10
840.65625844452143
 20
576.65264670045849
 30
0.0
 11
798.45625844452115
 21
576.65264670045849
 31
0.0
  0
LINE
  5
5628
  8
0
 10
798.45625844452115
 20
546.55542370045828
 30
0.0
 11
798.45625844452115
 21
557.23042370045846
 31
0.0
  0
LINE
  5
5629
  8
0
 10
798.45625844452115
 20
546.55542370045828
 30
0.0
 11
798.45625844452115
 21
557.23042370045846
 31
0.0
  0
LINE
  5
562A
  8
0
 10
795.85625844452125
 20
556.73042370045846
 30
0.0
 11
795.85625844452125
 21
571.73042370045857
 31
0.0
  0
LINE
  5
562B
  8
2
 10
794.25625844452134
 20
556.73042370045846
 30
0.0
 11
794.25625844452134
 21
571.73042370045857
 31
0.0
  0
LINE
  5
562C
  8
0
 10
798.45625844452115
 20
557.23042370045846
 30
0.0
 11
795.85625844452125
 21
556.73042370045846
 31
0.0
  0
LINE
  5
562D
  8
2
 10
795.85625844452125
 20
557.23042370045846
 30
0.0
 11
794.25625844452134
 21
557.23042370045846
 31
0.0
  0
LINE
  5
562E
  8
2
 10
795.85625844452125
 20
556.73042370045846
 30
0.0
 11
794.25625844452134
 21
556.73042370045846
 31
0.0
  0
POINT
  5
562F
  8
0
 10
798.45625844452115
 20
546.58042370045848
 30
0.0
  0
POINT
  5
5630
  8
0
 10
798.45625844452115
 20
546.58042370045848
 30
0.0
  0
LINE
  5
5631
  8
0
 10
798.45625844452115
 20
546.55542370045828
 30
0.0
 11
798.45625844452115
 21
552.03160670045861
 31
0.0
  0
LINE
  5
5632
  8
0
 10
798.45625844452115
 20
546.58042370045848
 30
0.0
 11
798.45625844452115
 21
552.03160670045861
 31
0.0
  0
LINE
  5
5633
  8
0
 10
798.45625844452115
 20
546.58042370045848
 30
0.0
 11
798.45625844452115
 21
552.03160670045861
 31
0.0
  0
LINE
  5
5634
  8
0
 10
798.45625844452115
 20
552.03160670045861
 30
0.0
 11
798.45625844452115
 21
546.58042370045848
 31
0.0
  0
LINE
  5
5635
  8
0
 10
798.45625844452115
 20
552.03160670045861
 30
0.0
 11
798.45625844452115
 21
546.58042370045848
 31
0.0
  0
LINE
  5
5636
  8
0
 10
798.45625844452115
 20
546.58042370045848
 30
0.0
 11
798.45625844452115
 21
552.03160670045861
 31
0.0
  0
LINE
  5
5637
  8
0
 10
798.45625844452115
 20
571.23042370045857
 30
0.0
 11
795.85625844452125
 21
571.73042370045857
 31
0.0
  0
LINE
  5
5638
  8
2
 10
795.85625844452125
 20
571.73042370045857
 30
0.0
 11
794.25625844452134
 21
571.73042370045857
 31
0.0
  0
LINE
  5
5639
  8
2
 10
795.85625844452125
 20
571.23042370045857
 30
0.0
 11
794.25625844452134
 21
571.23042370045857
 31
0.0
  0
LINE
  5
5652
  8
0
 10
798.45625844452115
 20
571.23042370045857
 30
0.0
 11
798.45625844452115
 21
581.90542370045853
 31
0.0
  0
LINE
  5
5653
  8
0
 10
798.45625844452115
 20
571.23042370045857
 30
0.0
 11
798.45625844452115
 21
581.90542370045853
 31
0.0
  0
POINT
  5
5654
  8
0
 10
798.45625844452115
 20
574.04542370045829
 30
0.0
  0
POINT
  5
5655
  8
0
 10
798.45625844452115
 20
546.55542370045828
 30
0.0
  0
POINT
  5
5656
  8
2
 10
794.25625844452134
 20
557.23042370045846
 30
0.0
  0
POINT
  5
5657
  8
0
 10
798.45625844452115
 20
557.23042370045846
 30
0.0
  0
POINT
  5
5658
  8
2
 10
794.25625844452134
 20
557.23042370045846
 30
0.0
  0
LINE
  5
565D
  8
0
 10
798.45625844452115
 20
581.90542370045853
 30
0.0
 11
188.85625844452119
 21
581.90542370045853
 31
0.0
  0
LINE
  5
565E
  8
0
 10
798.45625844452115
 20
546.55542370045828
 30
0.0
 11
188.85625844452119
 21
546.55542370045828
 31
0.0
  0
LINE
  5
5664
  8
0
 10
191.35625844452119
 20
554.40542370045853
 30
0.0
 11
188.85625844452119
 21
554.40542370045853
 31
0.0
1001
ACAD
1000
ASC_BOUNDS
1002
{
1070
    19
1002
}
  0
LINE
  5
5665
  8
0
 10
191.35625844452119
 20
574.00542370045844
 30
0.0
 11
188.85625844452119
 21
574.00542370045844
 31
0.0
1001
ACAD
1000
ASC_BOUNDS
1002
{
1070
    19
1002
}
  0
LINE
  5
5666
  8
0
 10
191.70981244452119
 20
574.85897670045858
 30
0.0
 11
188.85625844452119
 21
576.80542370045839
 31
0.0
1001
ACAD
1000
ASC_BOUNDS
1002
{
1070
    19
1002
}
  0
LINE
  5
5667
  8
0
 10
191.70981244452119
 20
553.5518697004585
 30
0.0
 11
188.85625844452119
 21
551.60542370045857
 31
0.0
1001
ACAD
1000
ASC_BOUNDS
1002
{
1070
    19
1002
}
  0
LINE
  5
566E
  8
0
 10
264.55625844452152
 20
559.17042370045829
 30
0.0
 11
264.55625844452152
 21
555.37042370045845
 31
0.0
  0
LINE
  5
566F
  8
0
 10
262.55625844452152
 20
559.17042370045829
 30
0.0
 11
262.55625844452152
 21
555.37042370045845
 31
0.0
  0
LINE
  5
5670
  8
0
 10
258.15625844452143
 20
555.37042370045845
 30
0.0
 11
264.55625844452152
 21
555.37042370045845
 31
0.0
  0
LINE
  5
5671
  8
0
 10
264.55625844452152
 20
573.09042370045836
 30
0.0
 11
264.55625844452152
 21
569.29042370045852
 31
0.0
  0
LINE
  5
5672
  8
0
 10
262.55625844452152
 20
573.09042370045836
 30
0.0
 11
262.55625844452152
 21
569.29042370045852
 31
0.0
  0
LINE
  5
5673
  8
0
 10
258.15625844452143
 20
559.17042370045829
 30
0.0
 11
264.55625844452152
 21
559.17042370045829
 31
0.0
  0
LINE
  5
5674
  8
0
 10
258.15625844452143
 20
569.29042370045852
 30
0.0
 11
264.55625844452152
 21
569.29042370045852
 31
0.0
  0
LINE
  5
5675
  8
0
 10
258.15625844452143
 20
573.09042370045836
 30
0.0
 11
264.55625844452152
 21
573.09042370045836
 31
0.0
  0
LINE
  5
5676
  8
0
 10
190.45625844452141
 20
574.00542370045844
 30
0.0
 11
190.45625844452141
 21
554.40542370045853
 31
0.0
  0
ARC
  5
5677
  8
0
 10
191.35625844452119
 20
553.90542370045841
 30
0.0
 40
0.5
 50
315.0
 51
90.0
1001
ACAD
1000
ASC_BOUNDS
1002
{
1070
    19
1002
}
  0
ARC
  5
5684
  8
0
 10
191.35625844452119
 20
574.50542370045844
 30
0.0
 40
0.5
 50
270.0
 51
45.0
1001
ACAD
1000
ASC_BOUNDS
1002
{
1070
    19
1002
}
  0
LINE
  5
5685
  8
0
 10
188.85625844452119
 20
581.90542370045853
 30
0.0
 11
188.85625844452119
 21
576.80542370045839
 31
0.0
  0
LINE
  5
5686
  8
0
 10
188.85625844452119
 20
581.88042370045844
 30
0.0
 11
188.85625844452119
 21
576.80542370045839
 31
0.0
1001
ACAD
1000
ASC_BOUNDS
1002
{
1070
    19
1002
}
  0
LINE
  5
5687
  8
0
 10
188.85625844452119
 20
574.00542370045844
 30
0.0
 11
188.85625844452119
 21
554.40542370045853
 31
0.0
  0
LINE
  5
5688
  8
0
 10
188.85625844452119
 20
551.60542370045857
 30
0.0
 11
188.85625844452119
 21
546.55542370045828
 31
0.0
  0
LINE
  5
5689
  8
0
 10
188.85625844452119
 20
546.58042370045848
 30
0.0
 11
188.85625844452119
 21
550.28042370045853
 31
0.0
  0
LINE
  5
568A
  8
0
 10
188.85625844452119
 20
546.58042370045848
 30
0.0
 11
188.85625844452119
 21
550.28042370045853
 31
0.0
  0
LINE
  5
568B
  8
0
 10
188.85625844452119
 20
550.58042370045848
 30
0.0
 11
188.85625844452119
 21
546.58042370045848
 31
0.0
  0
LINE
  5
568C
  8
0
 10
188.85625844452119
 20
550.58042370045848
 30
0.0
 11
188.85625844452119
 21
546.58042370045848
 31
0.0
  0
LINE
  5
568D
  8
0
 10
188.85625844452119
 20
551.60542370045857
 30
0.0
 11
188.85625844452119
 21
546.55542370045828
 31
0.0
1001
ACAD
1000
ASC_BOUNDS
1002
{
1070
    19
1002
}
  0
POINT
  5
568E
  8
0
 10
188.85625844452119
 20
546.58042370045848
 30
0.0
  0
POINT
  5
568F
  8
0
 10
188.85625844452119
 20
546.58042370045848
 30
0.0
  0
LINE
  5
5690
  8
0
 10
188.85625844452119
 20
581.88042370045844
 30
0.0
 11
188.85625844452119
 21
578.18042370045839
 31
0.0
  0
LINE
  5
5691
  8
0
 10
188.85625844452119
 20
577.88042370045844
 30
0.0
 11
188.85625844452119
 21
581.88042370045844
 31
0.0
  0
LINE
  5
5692
  8
0
 10
188.85625844452119
 20
577.88042370045844
 30
0.0
 11
188.85625844452119
 21
581.88042370045844
 31
0.0
  0
POINT
  5
5693
  8
0
 10
188.85625844452119
 20
581.88042370045844
 30
0.0
  0
POINT
  5
5694
  8
0
 10
188.85625844452119
 20
581.88042370045844
 30
0.0
  0
POINT
  5
5695
  8
0
 10
188.85625844452119
 20
581.88042370045844
 30
0.0
  0
POINT
  5
5696
  8
0
 10
188.85625844452119
 20
581.88042370045844
 30
0.0
  0
POINT
  5
5697
  8
0
 10
188.85625844452119
 20
581.88042370045844
 30
0.0
  0
POINT
  5
5698
  8
0
 10
188.85625844452119
 20
581.88042370045844
 30
0.0
  0
POINT
  5
5699
  8
0
 10
188.85625844452119
 20
581.88042370045844
 30
0.0
  0
POINT
  5
569A
  8
0
 10
188.85625844452119
 20
581.88042370045844
 30
0.0
  0
POINT
  5
569B
  8
0
 10
188.85625844452119
 20
581.88042370045844
 30
0.0
  0
LINE
  5
569C
  8
0
 10
188.85625844452119
 20
581.90542370045853
 30
0.0
 11
188.85625844452119
 21
578.18042370045839
 31
0.0
  0
POINT
  5
569D
  8
0
 10
188.85625844452119
 20
581.90542370045853
 30
0.0
  0
POINT
  5
569E
  8
0
 10
188.85625844452119
 20
581.90542370045853
 30
0.0
  0
POINT
  5
569F
  8
0
 10
188.85625844452119
 20
548.34071470045853
 30
0.0
  0
POINT
  5
56A0
  8
0
 10
264.55625844452152
 20
555.37042370045845
 30
0.0
  0
POINT
  5
56A1
  8
0
 10
188.85625844452119
 20
551.60542370045857
 30
0.0
  0
LINE
  5
56A2
  8
1
 10
178.85625844452119
 20
564.23042370045846
 30
0.0
 11
1440.356258444521
 21
564.23042370045846
 31
0.0
  0
LINE
  5
5737
  8
0
 10
820.75625844452134
 20
581.90542370045853
 30
0.0
 11
1430.356258444521
 21
581.90542370045853
 31
0.0
  0
LINE
  5
5738
  8
0
 10
188.85625844452119
 20
579.02388470045832
 30
0.0
 11
798.45625844452115
 21
579.02388470045832
 31
0.0
  0
LINE
  5
5739
  8
0
 10
188.85625844452119
 20
580.12013270045838
 30
0.0
 11
798.45625844452115
 21
580.12013270045838
 31
0.0
  0
LINE
  5
573A
  8
0
 10
188.85625844452119
 20
548.34071470045853
 30
0.0
 11
798.45625844452115
 21
548.34071470045853
 31
0.0
  0
LINE
  5
573B
  8
0
 10
188.85625844452119
 20
549.43696270045848
 30
0.0
 11
798.45625844452115
 21
549.43696270045837
 31
0.0
  0
LINE
  5
573C
  8
0
 10
820.75625844452134
 20
546.55542370045828
 30
0.0
 11
1430.356258444521
 21
546.55542370045828
 31
0.0
  0
LINE
  5
5749
  8
0
 10
1427.856258444521
 20
554.40542370045853
 30
0.0
 11
1430.356258444521
 21
554.40542370045853
 31
0.0
1001
ACAD
1000
ASC_BOUNDS
1002
{
1070
    19
1002
}
  0
LINE
  5
574A
  8
0
 10
1427.5027054445211
 20
553.5518697004585
 30
0.0
 11
1430.356258444521
 21
551.60542370045857
 31
0.0
1001
ACAD
1000
ASC_BOUNDS
1002
{
1070
    19
1002
}
  0
ARC
  5
574B
  8
0
 10
1427.856258444521
 20
553.90542370045841
 30
0.0
 40
0.5
 50
90.0
 51
225.0
1001
ACAD
1000
ASC_BOUNDS
1002
{
1070
    19
1002
}
  0
POINT
  5
574C
  8
0
 10
1430.356258444521
 20
546.58042370045848
 30
0.0
  0
POINT
  5
574D
  8
0
 10
1430.356258444521
 20
546.58042370045848
 30
0.0
  0
LINE
  5
574E
  8
0
 10
1430.356258444521
 20
551.60542370045857
 30
0.0
 11
1430.356258444521
 21
546.55542370045828
 31
0.0
1001
ACAD
1000
ASC_BOUNDS
1002
{
1070
    19
1002
}
  0
LINE
  5
574F
  8
0
 10
1430.356258444521
 20
550.58042370045848
 30
0.0
 11
1430.356258444521
 21
546.58042370045848
 31
0.0
  0
LINE
  5
5750
  8
0
 10
1430.356258444521
 20
550.58042370045848
 30
0.0
 11
1430.356258444521
 21
546.58042370045848
 31
0.0
  0
LINE
  5
5751
  8
0
 10
1430.356258444521
 20
546.58042370045848
 30
0.0
 11
1430.356258444521
 21
550.28042370045853
 31
0.0
  0
LINE
  5
5752
  8
0
 10
1430.356258444521
 20
546.58042370045848
 30
0.0
 11
1430.356258444521
 21
550.28042370045853
 31
0.0
  0
LINE
  5
5753
  8
0
 10
1427.5027054445211
 20
574.85897670045858
 30
0.0
 11
1430.356258444521
 21
576.80542370045839
 31
0.0
1001
ACAD
1000
ASC_BOUNDS
1002
{
1070
    19
1002
}
  0
LINE
  5
5754
  8
0
 10
1427.856258444521
 20
574.00542370045844
 30
0.0
 11
1430.356258444521
 21
574.00542370045844
 31
0.0
1001
ACAD
1000
ASC_BOUNDS
1002
{
1070
    19
1002
}
  0
ARC
  5
5755
  8
0
 10
1427.856258444521
 20
574.50542370045844
 30
0.0
 40
0.5
 50
135.0
 51
270.0
1001
ACAD
1000
ASC_BOUNDS
1002
{
1070
    19
1002
}
  0
LINE
  5
575C
  8
0
 10
1430.356258444521
 20
581.88042370045844
 30
0.0
 11
1430.356258444521
 21
576.80542370045839
 31
0.0
1001
ACAD
1000
ASC_BOUNDS
1002
{
1070
    19
1002
}
  0
LINE
  5
575D
  8
0
 10
1430.356258444521
 20
581.90542370045853
 30
0.0
 11
1430.356258444521
 21
578.18042370045839
 31
0.0
  0
POINT
  5
575E
  8
0
 10
1430.356258444521
 20
581.88042370045844
 30
0.0
  0
POINT
  5
575F
  8
0
 10
1430.356258444521
 20
581.88042370045844
 30
0.0
  0
POINT
  5
5760
  8
0
 10
1430.356258444521
 20
581.88042370045844
 30
0.0
  0
POINT
  5
5761
  8
0
 10
1430.356258444521
 20
581.88042370045844
 30
0.0
  0
POINT
  5
5762
  8
0
 10
1430.356258444521
 20
581.88042370045844
 30
0.0
  0
POINT
  5
5763
  8
0
 10
1430.356258444521
 20
581.88042370045844
 30
0.0
  0
POINT
  5
5764
  8
0
 10
1430.356258444521
 20
581.88042370045844
 30
0.0
  0
POINT
  5
5765
  8
0
 10
1430.356258444521
 20
581.88042370045844
 30
0.0
  0
POINT
  5
5766
  8
0
 10
1430.356258444521
 20
581.88042370045844
 30
0.0
  0
LINE
  5
5767
  8
0
 10
1430.356258444521
 20
577.88042370045844
 30
0.0
 11
1430.356258444521
 21
581.88042370045844
 31
0.0
  0
LINE
  5
5768
  8
0
 10
1430.356258444521
 20
577.88042370045844
 30
0.0
 11
1430.356258444521
 21
581.88042370045844
 31
0.0
  0
LINE
  5
5769
  8
0
 10
1430.356258444521
 20
581.88042370045844
 30
0.0
 11
1430.356258444521
 21
578.18042370045839
 31
0.0
  0
LINE
  5
576A
  8
0
 10
1430.356258444521
 20
581.90542370045853
 30
0.0
 11
1430.356258444521
 21
576.80542370045839
 31
0.0
  0
LINE
  5
576B
  8
0
 10
1430.356258444521
 20
574.00542370045844
 30
0.0
 11
1430.356258444521
 21
554.40542370045853
 31
0.0
  0
LINE
  5
576C
  8
0
 10
1430.356258444521
 20
551.60542370045857
 30
0.0
 11
1430.356258444521
 21
546.55542370045828
 31
0.0
  0
LINE
  5
576D
  8
0
 10
1428.7562584445211
 20
574.00542370045844
 30
0.0
 11
1428.7562584445211
 21
554.40542370045853
 31
0.0
  0
LINE
  5
576E
  8
0
 10
1354.656258444521
 20
573.09042370045836
 30
0.0
 11
1354.656258444521
 21
569.29042370045852
 31
0.0
  0
LINE
  5
576F
  8
0
 10
1356.656258444521
 20
573.09042370045836
 30
0.0
 11
1356.656258444521
 21
569.29042370045852
 31
0.0
  0
LINE
  5
5770
  8
0
 10
1361.0562584445211
 20
573.09042370045836
 30
0.0
 11
1354.656258444521
 21
573.09042370045836
 31
0.0
  0
LINE
  5
5771
  8
0
 10
1361.0562584445211
 20
569.29042370045852
 30
0.0
 11
1354.656258444521
 21
569.29042370045852
 31
0.0
  0
LINE
  5
5772
  8
0
 10
1361.0562584445211
 20
559.17042370045829
 30
0.0
 11
1354.656258444521
 21
559.17042370045829
 31
0.0
  0
LINE
  5
5773
  8
0
 10
1361.0562584445211
 20
555.37042370045845
 30
0.0
 11
1354.656258444521
 21
555.37042370045845
 31
0.0
  0
LINE
  5
5774
  8
0
 10
1356.656258444521
 20
559.17042370045829
 30
0.0
 11
1356.656258444521
 21
555.37042370045845
 31
0.0
  0
LINE
  5
5775
  8
0
 10
1354.656258444521
 20
559.17042370045829
 30
0.0
 11
1354.656258444521
 21
555.37042370045845
 31
0.0
  0
LINE
  5
5776
  8
0
 10
1342.656258444521
 20
546.55542370045828
 30
0.0
 11
1342.656258444521
 21
548.34071470045853
 31
0.0
  0
LINE
  5
5777
  8
0
 10
1340.320860444521
 20
546.55542370045828
 30
0.0
 11
1342.1320394445211
 21
548.34071470045853
 31
0.0
  0
LINE
  5
5778
  8
0
 10
1340.656258444521
 20
580.12013270045838
 30
0.0
 11
1430.356258444521
 21
580.12013270045838
 31
0.0
  0
LINE
  5
5779
  8
0
 10
1342.1320394445211
 20
548.34071470045853
 30
0.0
 11
1342.656258444521
 21
548.34071470045853
 31
0.0
  0
POINT
  5
577B
  8
0
 10
1430.356258444521
 20
581.90542370045853
 30
0.0
  0
POINT
  5
577D
  8
0
 10
1430.356258444521
 20
581.90542370045853
 30
0.0
  0
POINT
  5
577E
  8
0
 10
1342.656258444521
 20
546.55542370045828
 30
0.0
  0
POINT
  5
577F
  8
0
 10
1430.356258444521
 20
554.40542370045853
 30
0.0
  0
POINT
  5
5780
  8
0
 10
1354.656258444521
 20
555.37042370045845
 30
0.0
  0
POINT
  5
5784
  8
0
 10
820.75625844452134
 20
574.65436370045859
 30
0.0
  0
POINT
  5
5785
  8
0
 10
824.95625844452115
 20
576.65264670045849
 30
0.0
  0
POINT
  5
5786
  8
0
 10
820.75625844452134
 20
576.65264670045849
 30
0.0
  0
POINT
  5
5787
  8
0
 10
820.75625844452134
 20
581.90542370045853
 30
0.0
  0
POINT
  5
5788
  8
0
 10
824.95625844452115
 20
576.65264670045849
 30
0.0
  0
POINT
  5
5789
  8
0
 10
820.75625844452134
 20
581.90542370045853
 30
0.0
  0
LINE
  5
578A
  8
0
 10
820.75625844452134
 20
576.65264670045849
 30
0.0
 11
820.75625844452134
 21
581.90542370045853
 31
0.0
  0
LINE
  5
578B
  8
2
 10
820.75625844452134
 20
571.23042370045857
 30
0.0
 11
823.35625844452125
 21
571.73042370045857
 31
0.0
  0
LINE
  5
578C
  8
2
 10
823.35625844452125
 20
557.23042370045846
 30
0.0
 11
824.95625844452115
 21
557.23042370045846
 31
0.0
  0
LINE
  5
578D
  8
2
 10
820.75625844452134
 20
557.23042370045846
 30
0.0
 11
823.35625844452125
 21
556.73042370045846
 31
0.0
  0
LINE
  5
578E
  8
2
 10
823.35625844452125
 20
556.73042370045846
 30
0.0
 11
823.35625844452125
 21
571.73042370045857
 31
0.0
  0
LINE
  5
578F
  8
2
 10
823.35625844452125
 20
571.23042370045857
 30
0.0
 11
824.95625844452115
 21
571.23042370045857
 31
0.0
  0
LINE
  5
5790
  8
2
 10
823.35625844452125
 20
556.73042370045846
 30
0.0
 11
824.95625844452115
 21
556.73042370045846
 31
0.0
  0
LINE
  5
5791
  8
2
 10
823.35625844452125
 20
571.73042370045857
 30
0.0
 11
824.95625844452115
 21
571.73042370045857
 31
0.0
  0
LINE
  5
5798
  8
2
 10
824.95625844452115
 20
556.73042370045846
 30
0.0
 11
824.95625844452115
 21
571.73042370045857
 31
0.0
  0
POINT
  5
57B1
  8
0
 10
820.75625844452134
 20
546.58042370045848
 30
0.0
  0
POINT
  5
57B2
  8
0
 10
820.75625844452134
 20
546.58042370045848
 30
0.0
  0
LINE
  5
57B3
  8
0
 10
820.75625844452134
 20
546.55542370045828
 30
0.0
 11
820.75625844452134
 21
552.03160670045861
 31
0.0
  0
LINE
  5
57B4
  8
0
 10
820.75625844452134
 20
546.58042370045848
 30
0.0
 11
820.75625844452134
 21
552.03160670045861
 31
0.0
  0
LINE
  5
57B5
  8
0
 10
820.75625844452134
 20
546.58042370045848
 30
0.0
 11
820.75625844452134
 21
552.03160670045861
 31
0.0
  0
LINE
  5
57B6
  8
0
 10
820.75625844452134
 20
552.03160670045861
 30
0.0
 11
820.75625844452134
 21
546.58042370045848
 31
0.0
  0
LINE
  5
57B7
  8
0
 10
820.75625844452134
 20
552.03160670045861
 30
0.0
 11
820.75625844452134
 21
546.58042370045848
 31
0.0
  0
LINE
  5
57B8
  8
0
 10
820.75625844452134
 20
546.58042370045848
 30
0.0
 11
820.75625844452134
 21
552.03160670045861
 31
0.0
  0
LINE
  5
57B9
  8
0
 10
820.75625844452134
 20
546.55542370045828
 30
0.0
 11
820.75625844452134
 21
551.80819970045854
 31
0.0
  0
LINE
  5
5969
  8
1
 10
217.45625844452121
 20
569.85542370045846
 30
0.0
 11
217.45625844452121
 21
558.5554237004585
 31
0.0
  0
LINE
  5
596A
  8
1
 10
204.75625844452111
 20
569.85542370045846
 30
0.0
 11
204.75625844452111
 21
558.5554237004585
 31
0.0
  0
ARC
  5
596B
  8
0
 10
204.75625844452111
 20
563.80542370045862
 30
0.0
 40
2.25
 50
180.0
 51
0.0
  0
ARC
  5
596C
  8
0
 10
217.45625844452121
 20
563.80542370045862
 30
0.0
 40
2.25
 50
180.0
 51
0.0
  0
LINE
  5
596D
  8
0
 10
207.00625844452111
 20
564.60542370045857
 30
0.0
 11
207.00625844452111
 21
563.80542370045862
 31
0.0
  0
LINE
  5
596E
  8
0
 10
202.50625844452111
 20
564.60542370045857
 30
0.0
 11
202.50625844452111
 21
563.80542370045862
 31
0.0
  0
ARC
  5
596F
  8
0
 10
204.75625844452111
 20
564.60542370045857
 30
0.0
 40
2.25
 50
0.0
 51
180.0
  0
LINE
  5
5970
  8
0
 10
219.70625844452121
 20
564.60542370045857
 30
0.0
 11
219.70625844452121
 21
563.80542370045862
 31
0.0
  0
LINE
  5
5971
  8
0
 10
215.20625844452121
 20
564.60542370045857
 30
0.0
 11
215.20625844452121
 21
563.80542370045862
 31
0.0
  0
ARC
  5
5972
  8
0
 10
217.45625844452121
 20
564.60542370045857
 30
0.0
 40
2.25
 50
0.0
 51
180.0
  0
LINE
  5
5973
  8
1
 10
328.55625844452101
 20
569.85542370045846
 30
0.0
 11
328.55625844452101
 21
558.5554237004585
 31
0.0
  0
LINE
  5
5974
  8
0
 10
328.15625844452109
 20
566.4554237004586
 30
0.0
 11
328.95625844452098
 21
566.4554237004586
 31
0.0
  0
LINE
  5
5975
  8
0
 10
328.15625844452109
 20
561.95542370045848
 30
0.0
 11
328.95625844452098
 21
561.95542370045848
 31
0.0
  0
ARC
  5
5976
  8
0
 10
328.15625844452109
 20
564.20542370045848
 30
0.0
 40
2.25
 50
90.0
 51
270.0
  0
ARC
  5
5977
  8
0
 10
328.95625844452098
 20
564.20542370045848
 30
0.0
 40
2.25
 50
270.0
 51
90.0
  0
LINE
  5
5978
  8
1
 10
493.60625844452142
 20
569.88042420045861
 30
0.0
 11
493.60625844452142
 21
558.58042420045865
 31
0.0
  0
LINE
  5
5979
  8
0
 10
493.2062584445215
 20
566.48042420045863
 30
0.0
 11
494.00625844452139
 21
566.48042420045863
 31
0.0
  0
LINE
  5
597A
  8
0
 10
493.2062584445215
 20
561.98042420045863
 30
0.0
 11
494.00625844452139
 21
561.98042420045863
 31
0.0
  0
ARC
  5
597B
  8
0
 10
494.00625844452139
 20
564.23042420045863
 30
0.0
 40
2.25
 50
270.0
 51
90.0
  0
ARC
  5
597C
  8
0
 10
493.2062584445215
 20
564.23042420045863
 30
0.0
 40
2.25
 50
90.0
 51
270.0
  0
ARC
  5
597D
  8
0
 10
671.85625844452113
 20
564.23042370045857
 30
0.0
 40
2.25
 50
270.0
 51
90.0
  0
LINE
  5
597E
  8
1
 10
671.45625844452115
 20
569.88042370045855
 30
0.0
 11
671.45625844452115
 21
558.5804237004586
 31
0.0
  0
LINE
  5
597F
  8
0
 10
671.05625844452106
 20
566.48042370045846
 30
0.0
 11
671.85625844452113
 21
566.48042370045846
 31
0.0
  0
LINE
  5
5980
  8
0
 10
671.05625844452106
 20
561.98042370045846
 30
0.0
 11
671.85625844452113
 21
561.98042370045846
 31
0.0
  0
ARC
  5
5981
  8
0
 10
671.05625844452106
 20
564.23042370045857
 30
0.0
 40
2.25
 50
90.0
 51
270.0
  0
ARC
  5
5982
  8
0
 10
769.85625844452125
 20
563.8304237004586
 30
0.0
 40
2.25
 50
180.0
 51
0.0
  0
ARC
  5
5983
  8
0
 10
769.85625844452125
 20
564.63042370045855
 30
0.0
 40
2.25
 50
0.0
 51
180.0
  0
LINE
  5
5984
  8
1
 10
769.85625844452125
 20
569.88042370045855
 30
0.0
 11
769.85625844452125
 21
558.5804237004586
 31
0.0
  0
LINE
  5
5985
  8
1
 10
757.1562584445212
 20
569.88042370045855
 30
0.0
 11
757.1562584445212
 21
558.5804237004586
 31
0.0
  0
ARC
  5
5986
  8
0
 10
757.55625844452106
 20
564.23042370045857
 30
0.0
 40
2.25
 50
270.0
 51
90.0
  0
LINE
  5
5987
  8
0
 10
756.75625844452122
 20
566.48042370045846
 30
0.0
 11
757.55625844452106
 21
566.48042370045846
 31
0.0
  0
LINE
  5
5988
  8
0
 10
756.75625844452122
 20
561.98042370045846
 30
0.0
 11
757.55625844452106
 21
561.98042370045846
 31
0.0
  0
ARC
  5
5989
  8
0
 10
756.75625844452122
 20
564.23042370045857
 30
0.0
 40
2.25
 50
90.0
 51
270.0
  0
LINE
  5
598A
  8
0
 10
767.60625844452125
 20
564.63042370045855
 30
0.0
 11
767.60625844452125
 21
563.8304237004586
 31
0.0
  0
LINE
  5
598B
  8
1
 10
782.55625844452118
 20
569.88042370045855
 30
0.0
 11
782.55625844452118
 21
558.5804237004586
 31
0.0
  0
ARC
  5
598C
  8
0
 10
782.55625844452118
 20
563.8304237004586
 30
0.0
 40
2.25
 50
180.0
 51
0.0
  0
POLYLINE
  5
598D
  8
0
 66
     1
 10
0.0
 20
0.0
 30
0.0
 70
     1
  0
VERTEX
  5
598E
  8
0
 10
781.95625844452115
 20
559.1804237004585
 30
0.0
 42
-1.0
  0
VERTEX
  5
598F
  8
0
 10
781.95625844452115
 20
569.28042370045853
 30
0.0
  0
VERTEX
  5
5990
  8
0
 10
784.55625844452095
 20
569.28042370045853
 30
0.0
 42
-1.0
  0
VERTEX
  5
5991
  8
0
 10
784.55625844452095
 20
559.1804237004585
 30
0.0
  0
SEQEND
  5
5992
  8
0
  0
ARC
  5
5993
  8
0
 10
782.55625844452118
 20
564.63042370045855
 30
0.0
 40
2.25
 50
0.0
 51
180.0
  0
LINE
  5
5994
  8
0
 10
772.10625844452125
 20
564.63042370045855
 30
0.0
 11
772.10625844452125
 21
563.8304237004586
 31
0.0
  0
LINE
  5
5995
  8
0
 10
780.30625844452118
 20
564.63042370045855
 30
0.0
 11
780.30625844452118
 21
563.8304237004586
 31
0.0
  0
LINE
  5
5996
  8
0
 10
784.80625844452118
 20
564.63042370045855
 30
0.0
 11
784.80625844452118
 21
563.8304237004586
 31
0.0
  0
LINE
  5
5997
  8
1
 10
836.65625844452143
 20
569.88042370045855
 30
0.0
 11
836.65625844452143
 21
558.5804237004586
 31
0.0
  0
ARC
  5
5998
  8
2
 10
836.65625844452143
 20
563.8304237004586
 30
0.0
 40
2.25
 50
180.0
 51
0.0
  0
POLYLINE
  5
5999
  8
2
 66
     1
 10
0.0
 20
0.0
 30
0.0
 70
     1
  0
VERTEX
  5
599A
  8
2
 10
834.6562584445212
 20
559.1804237004585
 30
0.0
 42
-1.0
  0
VERTEX
  5
599B
  8
2
 10
834.6562584445212
 20
569.28042370045853
 30
0.0
  0
VERTEX
  5
599C
  8
2
 10
837.25625844452122
 20
569.28042370045853
 30
0.0
 42
-1.0
  0
VERTEX
  5
599D
  8
2
 10
837.25625844452122
 20
559.1804237004585
 30
0.0
  0
SEQEND
  5
599E
  8
2
  0
LINE
  5
599F
  8
2
 10
838.90625844452131
 20
564.63042370045855
 30
0.0
 11
838.90625844452131
 21
563.8304237004586
 31
0.0
  0
LINE
  5
59A0
  8
2
 10
834.40625844452131
 20
564.63042370045855
 30
0.0
 11
834.40625844452131
 21
563.8304237004586
 31
0.0
  0
ARC
  5
59A1
  8
2
 10
836.65625844452143
 20
564.63042370045855
 30
0.0
 40
2.25
 50
0.0
 51
180.0
  0
LINE
  5
59A2
  8
1
 10
862.05625844452106
 20
569.88042370045855
 30
0.0
 11
862.05625844452106
 21
558.5804237004586
 31
0.0
  0
LINE
  5
59A3
  8
1
 10
849.35625844452113
 20
569.88042370045855
 30
0.0
 11
849.35625844452113
 21
558.5804237004586
 31
0.0
  0
ARC
  5
59A4
  8
2
 10
849.35625844452113
 20
563.8304237004586
 30
0.0
 40
2.25
 50
180.0
 51
0.0
  0
LINE
  5
59A5
  8
2
 10
851.60625844452125
 20
564.63042370045855
 30
0.0
 11
851.60625844452125
 21
563.8304237004586
 31
0.0
  0
LINE
  5
59A6
  8
2
 10
847.10625844452125
 20
564.63042370045855
 30
0.0
 11
847.10625844452125
 21
563.8304237004586
 31
0.0
  0
ARC
  5
59A7
  8
2
 10
849.35625844452113
 20
564.63042370045855
 30
0.0
 40
2.25
 50
0.0
 51
180.0
  0
LINE
  5
59A8
  8
2
 10
861.6562584445212
 20
566.48042370045846
 30
0.0
 11
862.45625844452115
 21
566.48042370045846
 31
0.0
  0
LINE
  5
59A9
  8
2
 10
861.6562584445212
 20
561.98042370045846
 30
0.0
 11
862.45625844452115
 21
561.98042370045846
 31
0.0
  0
ARC
  5
59AA
  8
2
 10
862.45625844452115
 20
564.23042370045857
 30
0.0
 40
2.25
 50
270.0
 51
90.0
  0
ARC
  5
59AB
  8
2
 10
861.6562584445212
 20
564.23042370045857
 30
0.0
 40
2.25
 50
90.0
 51
270.0
  0
ARC
  5
59AC
  8
2
 10
947.35625844452125
 20
564.23042370045857
 30
0.0
 40
2.25
 50
90.0
 51
270.0
  0
LINE
  5
59AD
  8
1
 10
947.75625844452122
 20
569.88042370045855
 30
0.0
 11
947.75625844452122
 21
558.5804237004586
 31
0.0
  0
LINE
  5
59AE
  8
2
 10
947.35625844452125
 20
566.48042370045846
 30
0.0
 11
948.15625844452143
 21
566.48042370045846
 31
0.0
  0
LINE
  5
59AF
  8
2
 10
947.35625844452125
 20
561.98042370045846
 30
0.0
 11
948.15625844452143
 21
561.98042370045846
 31
0.0
  0
ARC
  5
59B0
  8
2
 10
948.15625844452143
 20
564.23042370045857
 30
0.0
 40
2.25
 50
270.0
 51
90.0
  0
LINE
  5
59B1
  8
1
 10
1290.656258444521
 20
569.90542370045841
 30
0.0
 11
1290.656258444521
 21
558.60542370045835
 31
0.0
  0
LINE
  5
59B2
  8
0
 10
1290.2562584445211
 20
566.50542370045855
 30
0.0
 11
1291.0562584445211
 21
566.50542370045855
 31
0.0
  0
LINE
  5
59B3
  8
0
 10
1290.2562584445211
 20
562.00542370045855
 30
0.0
 11
1291.0562584445211
 21
562.00542370045855
 31
0.0
  0
ARC
  5
59B4
  8
0
 10
1291.0562584445211
 20
564.25542370045855
 30
0.0
 40
2.25
 50
270.0
 51
90.0
  0
ARC
  5
59B5
  8
0
 10
1290.2562584445211
 20
564.25542370045855
 30
0.0
 40
2.25
 50
90.0
 51
270.0
  0
LINE
  5
59B6
  8
1
 10
1414.4562584445209
 20
569.9304237004585
 30
0.0
 11
1414.4562584445209
 21
558.63042370045855
 31
0.0
  0
LINE
  5
59B7
  8
1
 10
1401.7562584445211
 20
569.9304237004585
 30
0.0
 11
1401.7562584445211
 21
558.63042370045855
 31
0.0
  0
ARC
  5
59B8
  8
0
 10
1401.7562584445211
 20
563.88042370045855
 30
0.0
 40
2.25
 50
180.0
 51
0.0
  0
ARC
  5
59B9
  8
0
 10
1414.4562584445209
 20
563.88042370045855
 30
0.0
 40
2.25
 50
180.0
 51
0.0
  0
LINE
  5
59BA
  8
0
 10
1404.0062584445211
 20
564.6804237004585
 30
0.0
 11
1404.0062584445211
 21
563.88042370045855
 31
0.0
  0
LINE
  5
59BB
  8
0
 10
1399.5062584445211
 20
564.6804237004585
 30
0.0
 11
1399.5062584445211
 21
563.88042370045855
 31
0.0
  0
ARC
  5
59BC
  8
0
 10
1401.7562584445211
 20
564.6804237004585
 30
0.0
 40
2.25
 50
0.0
 51
180.0
  0
LINE
  5
59BD
  8
0
 10
1416.7062584445221
 20
564.6804237004585
 30
0.0
 11
1416.7062584445221
 21
563.88042370045855
 31
0.0
  0
LINE
  5
59BE
  8
0
 10
1412.2062584445221
 20
564.6804237004585
 30
0.0
 11
1412.2062584445221
 21
563.88042370045855
 31
0.0
  0
ARC
  5
59BF
  8
0
 10
1414.4562584445209
 20
564.6804237004585
 30
0.0
 40
2.25
 50
0.0
 51
180.0
  0
ARC
  5
59C1
  8
0
 10
1125.156258444521
 20
564.25542370045855
 30
0.0
 40
2.25
 50
90.0
 51
270.0
  0
ARC
  5
59C2
  8
0
 10
1125.9562584445209
 20
564.25542370045855
 30
0.0
 40
2.25
 50
270.0
 51
90.0
  0
LINE
  5
59C3
  8
1
 10
1125.5562584445211
 20
569.90542370045841
 30
0.0
 11
1125.5562584445211
 21
558.60542370045835
 31
0.0
  0
LINE
  5
59C4
  8
0
 10
1125.156258444521
 20
562.00542370045855
 30
0.0
 11
1125.9562584445209
 21
562.00542370045855
 31
0.0
  0
LINE
  5
59C5
  8
0
 10
1125.156258444521
 20
566.50542370045855
 30
0.0
 11
1125.9562584445209
 21
566.50542370045855
 31
0.0
  0
LINE
  5
59CD
  8
0
 10
820.75625844452134
 20
580.12013270045838
 30
0.0
 11
1340.656258444521
 21
580.12013270045838
 31
0.0
  0
LINE
  5
59CE
  8
0
 10
820.75625844452134
 20
579.02388470045832
 30
0.0
 11
1430.356258444521
 21
579.02388470045832
 31
0.0
  0
LINE
  5
59CF
  8
0
 10
820.75625844452134
 20
549.43696270045848
 30
0.0
 11
1430.356258444521
 21
549.43696270045848
 31
0.0
  0
LINE
  5
59D0
  8
0
 10
820.75625844452134
 20
548.34071470045853
 30
0.0
 11
1430.356258444521
 21
548.34071470045853
 31
0.0
  0
LINE
  5
59DF
  8
2
 10
820.75625844452134
 20
576.65264670045849
 30
0.0
 11
820.75625844452134
 21
571.23042370045857
 31
0.0
  0
LINE
  5
59E0
  8
2
 10
820.75625844452134
 20
557.23042370045846
 30
0.0
 11
820.75625844452134
 21
552.03160670045861
 31
0.0
  0
TEXT
  5
5A93
  8
0
 62
     3
 10
0.0
 20
0.0
 30
0.0
 40
10.0
  1
RS35D-24
  7
STANDARD1
  0
ENDSEC
  0
EOF
