  0
SECTION
  2
HEADER
  9
$ACADVER
  1
AC1009
  9
$INSBASE
 10
0.0
 20
0.0
 30
0.0
  9
$EXTMIN
 10
0.0
 20
-2.960436562073669
 30
0.0
  9
$EXTMAX
 10
1079.915234197307
 20
431.64336649840061
 30
0.0
  9
$LIMMIN
 10
0.0
 20
0.0
  9
$LIMMAX
 10
187.5
 20
135.0
  9
$ORTHOMODE
 70
     1
  9
$REGENMODE
 70
     1
  9
$FILLMODE
 70
     1
  9
$QTEXTMODE
 70
     0
  9
$MIRRTEXT
 70
     0
  9
$DRAGMODE
 70
     2
  9
$LTSCALE
 40
10.0
  9
$OSMODE
 70
    55
  9
$ATTMODE
 70
     1
  9
$TEXTSIZE
 40
2.5
  9
$TRACEWID
 40
0.05
  9
$TEXTSTYLE
  7
STANDARD
  9
$CLAYER
  8
0
  9
$CELTYPE
  6
BYLAYER
  9
$CECOLOR
 62
   256
  9
$DIMSCALE
 40
0.5
  9
$DIMASZ
 40
3.0
  9
$DIMEXO
 40
2.0
  9
$DIMDLI
 40
10.0
  9
$DIMRND
 40
0.0
  9
$DIMDLE
 40
0.0
  9
$DIMEXE
 40
2.0
  9
$DIMTP
 40
0.0
  9
$DIMTM
 40
0.0
  9
$DIMTXT
 40
3.0
  9
$DIMCEN
 40
0.09
  9
$DIMTSZ
 40
0.0
  9
$DIMTOL
 70
     0
  9
$DIMLIM
 70
     0
  9
$DIMTIH
 70
     0
  9
$DIMTOH
 70
     0
  9
$DIMSE1
 70
     0
  9
$DIMSE2
 70
     0
  9
$DIMTAD
 70
     1
  9
$DIMZIN
 70
     0
  9
$DIMBLK
  1

  9
$DIMASO
 70
     0
  9
$DIMSHO
 70
     0
  9
$DIMPOST
  1

  9
$DIMAPOST
  1

  9
$DIMALT
 70
     0
  9
$DIMALTD
 70
     2
  9
$DIMALTF
 40
25.399999999999999
  9
$DIMLFAC
 40
1.0
  9
$DIMTOFL
 70
     1
  9
$DIMTVP
 40
1.6000000000000001
  9
$DIMTIX
 70
     1
  9
$DIMSOXD
 70
     0
  9
$DIMSAH
 70
     0
  9
$DIMBLK1
  1

  9
$DIMBLK2
  1

  9
$DIMSTYLE
  2
STANDARD
  9
$DIMCLRD
 70
     0
  9
$DIMCLRE
 70
     0
  9
$DIMCLRT
 70
     0
  9
$DIMTFAC
 40
1.0
  9
$DIMGAP
 40
0.09
  9
$LUNITS
 70
     2
  9
$LUPREC
 70
     4
  9
$SKETCHINC
 40
0.1
  9
$FILLETRAD
 40
0.0
  9
$AUNITS
 70
     0
  9
$AUPREC
 70
     0
  9
$MENU
  1
E:\r13\win\SUPPORT\ACAD
  9
$ELEVATION
 40
0.0
  9
$PELEVATION
 40
0.0
  9
$THICKNESS
 40
0.0
  9
$LIMCHECK
 70
     0
  9
$BLIPMODE
 70
     0
  9
$CHAMFERA
 40
1.6000000000000001
  9
$CHAMFERB
 40
1.6000000000000001
  9
$SKPOLY
 70
     0
  9
$TDCREATE
 40
2449840.5944097228
  9
$TDUPDATE
 40
2456598.6044842131
  9
$TDINDWG
 40
0.3828098032
  9
$TDUSRTIMER
 40
0.3828098032
  9
$USRTIMER
 70
     1
  9
$ANGBASE
 50
0.0
  9
$ANGDIR
 70
     0
  9
$PDMODE
 70
     0
  9
$PDSIZE
 40
0.0
  9
$PLINEWID
 40
0.0
  9
$COORDS
 70
     1
  9
$SPLFRAME
 70
     0
  9
$SPLINETYPE
 70
     6
  9
$SPLINESEGS
 70
     8
  9
$ATTDIA
 70
     0
  9
$ATTREQ
 70
     1
  9
$HANDLING
 70
     1
  9
$HANDSEED
  5
3A59
  9
$SURFTAB1
 70
     6
  9
$SURFTAB2
 70
     6
  9
$SURFTYPE
 70
     6
  9
$SURFU
 70
     6
  9
$SURFV
 70
     6
  9
$UCSNAME
  2

  9
$UCSORG
 10
0.0
 20
0.0
 30
0.0
  9
$UCSXDIR
 10
1.0
 20
0.0
 30
0.0
  9
$UCSYDIR
 10
0.0
 20
1.0
 30
0.0
  9
$PUCSNAME
  2

  9
$PUCSORG
 10
0.0
 20
0.0
 30
0.0
  9
$PUCSXDIR
 10
1.0
 20
0.0
 30
0.0
  9
$PUCSYDIR
 10
0.0
 20
1.0
 30
0.0
  9
$USERI1
 70
     0
  9
$USERI2
 70
     1
  9
$USERI3
 70
     1
  9
$USERI4
 70
     0
  9
$USERI5
 70
     0
  9
$USERR1
 40
0.0
  9
$USERR2
 40
0.0
  9
$USERR3
 40
0.0
  9
$USERR4
 40
0.0
  9
$USERR5
 40
0.0
  9
$WORLDVIEW
 70
     1
  9
$SHADEDGE
 70
     3
  9
$SHADEDIF
 70
    70
  9
$TILEMODE
 70
     1
  9
$MAXACTVP
 70
    16
  9
$PLIMCHECK
 70
     0
  9
$PEXTMIN
 10
1.0000000000000000E+020
 20
1.0000000000000000E+020
 30
1.0000000000000000E+020
  9
$PEXTMAX
 10
-1.0000000000000000E+020
 20
-1.0000000000000000E+020
 30
-1.0000000000000000E+020
  9
$PLIMMIN
 10
0.0
 20
0.0
  9
$PLIMMAX
 10
12.0
 20
9.0
  9
$UNITMODE
 70
     0
  9
$VISRETAIN
 70
     0
  9
$PLINEGEN
 70
     0
  9
$PSLTSCALE
 70
     0
  0
ENDSEC
  0
SECTION
  2
TABLES
  0
TABLE
  2
VPORT
 70
     1
  0
VPORT
  2
*ACTIVE
 70
     0
 10
0.0
 20
0.0
 11
1.0
 21
1.0
 12
539.9576196130273
 22
311.8986485616266
 13
0.0
 23
0.0
 14
5.0
 24
5.0
 15
5.0
 25
5.0
 16
0.0
 26
0.0
 36
1.0
 17
0.0
 27
0.0
 37
0.0
 40
635.84435410807794
 41
1.7807262569832401
 42
50.0
 43
0.0
 44
0.0
 50
0.0
 51
0.0
 71
     0
 72
   100
 73
     1
 74
     0
 75
     0
 76
     0
 77
     0
 78
     0
  0
ENDTAB
  0
TABLE
  2
LTYPE
 70
     4
  0
LTYPE
  2
CONTINUOUS
 70
     0
  3
Solid Line
 72
    65
 73
     0
 40
0.0
  0
LTYPE
  2
CENTER
 70
     0
  3
____ _ ____ _ ____ _ ____ _ ____ _ ____ _ ____
 72
    65
 73
     4
 40
2.0
 49
1.25
 49
-0.25
 49
0.25
 49
-0.25
  0
LTYPE
  2
HIDDEN
 70
     0
  3
_ _ _ _ _ _ _ _ _ _ _ _ _ _ _ _ _ _ _ _ _ _ _
 72
    65
 73
     2
 40
0.375
 49
0.25
 49
-0.125
  0
LTYPE
  2
PHANTOM2
 70
     0
  3
___ _ _ ___ _ _ ___ _ _ ___ _ _
 72
    65
 73
     6
 40
1.25
 49
0.625
 49
-0.125
 49
0.125
 49
-0.125
 49
0.125
 49
-0.125
  0
ENDTAB
  0
TABLE
  2
LAYER
 70
     4
  0
LAYER
  2
0
 70
     0
 62
     7
  6
CONTINUOUS
  0
LAYER
  2
1
 70
     0
 62
     1
  6
CENTER
  0
LAYER
  2
2
 70
     0
 62
     2
  6
HIDDEN
  0
LAYER
  2
4
 70
     0
 62
     1
  6
CONTINUOUS
  0
ENDTAB
  0
TABLE
  2
STYLE
 70
     5
  0
STYLE
  2
STANDARD
 70
     0
 40
0.0
 41
1.0
 50
0.0
 71
     0
 42
2.5
  3
TXT
  4
BIGFONT
  0
STYLE
  2
KANJI
 70
     0
 40
0.0
 41
1.0
 50
0.0
 71
     0
 42
5.0
  3
TXT.SHX
  4
bigfont
  0
STYLE
  2
STYLE2
 70
     0
 40
13.0
 41
1.0
 50
0.0
 71
     0
 42
2.5
  3
C:\Program Files\AutoCAD LT\txt.shx
  4
C:\Program Files\AutoCAD LT\bigfont.shx
  0
STYLE
  2
STANDARD2
 70
     0
 40
8.0
 41
1.0
 50
0.0
 71
     0
 42
0.2
  3
C:\Program Files\AutoCAD LT\txt.shx
  4
C:\Program Files\AutoCAD LT\bigfont.shx
  0
STYLE
  2
STANDARD1
 70
     0
 40
0.0
 41
1.0
 50
0.0
 71
     0
 42
3.0
  3
txt
  4

  0
ENDTAB
  0
TABLE
  2
VIEW
 70
     1
  0
VIEW
  2
ALL
 70
     0
 40
135.0
 10
110.49579799999999
 20
67.5
 41
0.0
 11
0.0
 21
0.0
 31
1.0
 12
0.0
 22
0.0
 32
0.0
 42
0.0
 43
0.0
 44
0.0
 50
0.0
 71
     0
  0
ENDTAB
  0
TABLE
  2
UCS
 70
     0
  0
ENDTAB
  0
TABLE
  2
APPID
 70
     4
  0
APPID
  2
ACAD
 70
     0
  0
APPID
  2
DCO15
 70
     0
  0
APPID
  2
ACAD_MLEADERVER
 70
     0
  0
APPID
  2
ACAD_NAV_VCDISPLAY
 70
     0
  0
ENDTAB
  0
TABLE
  2
DIMSTYLE
 70
     1
  0
DIMSTYLE
  2
STANDARD
 70
     0
  3

  4

  5

  6

  7

 40
1.0
 41
0.18
 42
0.0625
 43
0.38
 44
0.18
 45
0.0
 46
0.0
 47
0.0
 48
0.0
140
0.18
141
0.09
142
0.0
143
25.399999999999999
144
1.0
145
0.0
146
1.0
147
0.09
 71
     0
 72
     0
 73
     1
 74
     1
 75
     0
 76
     0
 77
     0
 78
     0
170
     0
171
     2
172
     0
173
     0
174
     0
175
     0
176
     0
177
     0
178
     0
  0
ENDTAB
  0
ENDSEC
  0
SECTION
  2
BLOCKS
  0
BLOCK
  8
0
  2
$MODEL_SPACE
 70
     0
 10
0.0
 20
0.0
 30
0.0
  3
$MODEL_SPACE
  1

  0
ENDBLK
  5
15D
  8
0
  0
BLOCK
 67
     1
  8
0
  2
$PAPER_SPACE
 70
     0
 10
0.0
 20
0.0
 30
0.0
  3
$PAPER_SPACE
  1

  0
ENDBLK
  5
15B
 67
     1
  8
0
  0
BLOCK
  8
0
  2
STDGX5
 70
     0
 10
0.0
 20
0.0
 30
0.0
  3
STDGX5
  1

  0
ENDBLK
  5
41
  8
0
  0
ENDSEC
  0
SECTION
  2
ENTITIES
  0
INSERT
  5
CA
  8
0
  2
STDGX5
 10
0.0
 20
0.0
 30
0.0
  0
INSERT
  5
69A
  8
0
  2
STDGX5
 10
194.3272563481562
 20
13.52129245667936
 30
0.0
  0
INSERT
  5
1343
  8
0
  2
STDGX5
 10
563.10080863610574
 20
-59.557035590067017
 30
0.0
  0
INSERT
  5
1345
  8
0
  2
STDGX5
 10
757.42806498426194
 20
-46.035743133387648
 30
0.0
  0
LINE
  5
2641
  8
0
 10
85.015234197307564
 20
403.20614349840048
 30
0.0
 11
85.015234197307564
 21
424.73059049840049
 31
0.0
  0
LINE
  5
2642
  8
0
 10
83.465234197307609
 20
403.20614349840048
 30
0.0
 11
83.465234197307609
 21
424.73059049840049
 31
0.0
  0
LINE
  5
2643
  8
0
 10
73.915234197307655
 20
403.20614349840048
 30
0.0
 11
73.915234197307655
 21
424.73059049840049
 31
0.0
  0
LINE
  5
2644
  8
0
 10
78.415234197307655
 20
402.9065134984005
 30
0.0
 11
78.415234197307655
 21
403.54442649840058
 31
0.0
  0
ARC
  5
2645
  8
0
 10
80.565234197307646
 20
400.05336649840052
 30
0.0
 40
4.0999999999999988
 50
48.493283999998241
 51
121.62720400000229
  0
LINE
  5
2646
  8
0
 10
68.865234197307586
 20
402.9065134984005
 30
0.0
 11
68.865234197307586
 21
403.54442649840058
 31
0.0
  0
ARC
  5
2647
  8
0
 10
71.015234197307564
 20
400.05336649840052
 30
0.0
 40
4.0999999999999988
 50
48.493283999998241
 51
121.62720400000229
  0
LINE
  5
2648
  8
0
 10
77.115234197307586
 20
400.40734849840049
 30
0.0
 11
77.115234197307586
 21
427.52938449840047
 31
0.0
  0
LINE
  5
2649
  8
0
 10
75.465234197307595
 20
400.40734849840049
 30
0.0
 11
75.465234197307595
 21
427.52938449840047
 31
0.0
  0
LINE
  5
264A
  8
0
 10
67.565234197307632
 20
400.40734849840049
 30
0.0
 11
67.565234197307632
 21
427.52938449840047
 31
0.0
  0
LINE
  5
264B
  8
0
 10
77.365234197307586
 20
401.03264149840049
 30
0.0
 11
77.365234197307586
 21
408.11836649840058
 31
0.0
  0
LINE
  5
264C
  8
0
 10
77.865234197307586
 20
401.03264149840049
 30
0.0
 11
77.865234197307586
 21
408.11836649840058
 31
0.0
  0
LINE
  5
264D
  8
0
 10
68.315234197307632
 20
401.03264149840049
 30
0.0
 11
68.315234197307632
 21
408.11836649840058
 31
0.0
  0
LINE
  5
264E
  8
0
 10
67.815234197307632
 20
401.03264149840049
 30
0.0
 11
67.815234197307632
 21
408.11836649840058
 31
0.0
  0
LINE
  5
264F
  8
0
 10
65.915234197307655
 20
400.40734849840049
 30
0.0
 11
65.915234197307655
 21
427.52938449840047
 31
0.0
  0
ARC
  5
2650
  8
0
 10
83.355234197307595
 20
403.20614349840048
 30
0.0
 40
0.11
 50
228.4932839999982
 51
0.0
  0
ARC
  5
2651
  8
0
 10
73.805234197307641
 20
403.20614349840048
 30
0.0
 40
0.11
 50
228.4932839999982
 51
0.0
  0
ARC
  5
2652
  8
0
 10
80.566664197307645
 20
400.25065549840048
 30
0.0
 40
2.399999999999999
 50
7.8069229999993377
 51
21.539564000001231
  0
LINE
  5
2653
  8
0
 10
83.232981197307694
 20
401.31256649840049
 30
0.0
 11
82.799058197307659
 21
401.13180049840059
 31
0.0
  0
ARC
  5
2654
  8
0
 10
80.566664197307645
 20
400.25065549840048
 30
0.0
 40
2.8700000000000001
 50
6.0208820000001513
 51
21.71585500000073
  0
LINE
  5
2655
  8
0
 10
84.335668197307555
 20
400.00306149840048
 30
0.0
 11
84.361836197307639
 21
400.50237649840051
 31
0.0
  0
ARC
  5
2656
  8
0
 10
77.365234197307586
 20
400.40734849840049
 30
0.0
 40
0.25
 50
180.0
 51
223.82118700000069
  0
ARC
  5
2657
  8
0
 10
78.065234197307632
 20
401.03264149840049
 30
0.0
 40
0.7
 50
180.0
 51
267.00000000000091
  0
ARC
  5
2658
  8
0
 10
78.065234197307632
 20
401.03264149840049
 30
0.0
 40
0.2
 50
180.0
 51
267.00000000000091
  0
LINE
  5
2659
  8
0
 10
78.054767197307683
 20
400.8329154984005
 30
0.0
 11
84.361836197307639
 21
400.50237649840051
 31
0.0
  0
LINE
  5
265A
  8
0
 10
78.028599197307585
 20
400.33360149840058
 30
0.0
 11
84.335668197307555
 21
400.00306149840048
 31
0.0
  0
ARC
  5
265B
  8
0
 10
80.527412197307626
 20
399.50168349840061
 30
0.0
 40
2.0
 50
33.869898000000177
 51
140.13010199999951
  0
LINE
  5
265C
  8
0
 10
74.785668197307587
 20
400.00306149840048
 30
0.0
 11
74.811836197307684
 21
400.50237649840051
 31
0.0
  0
ARC
  5
265D
  8
0
 10
71.016664197307705
 20
400.25065549840048
 30
0.0
 40
2.8700000000000001
 50
6.0208820000001513
 51
21.71585500000073
  0
LINE
  5
265E
  8
0
 10
73.68298119730764
 20
401.31256649840049
 30
0.0
 11
73.24905819730759
 21
401.13180049840059
 31
0.0
  0
ARC
  5
265F
  8
0
 10
71.016664197307705
 20
400.25065549840048
 30
0.0
 40
2.399999999999999
 50
7.8069229999993377
 51
21.539564000001231
  0
ARC
  5
2660
  8
0
 10
68.515234197307564
 20
401.03264149840049
 30
0.0
 40
0.2
 50
180.0
 51
267.00000000000091
  0
ARC
  5
2661
  8
0
 10
68.515234197307564
 20
401.03264149840049
 30
0.0
 40
0.7
 50
180.0
 51
267.00000000000091
  0
ARC
  5
2662
  8
0
 10
67.815234197307632
 20
400.40734849840049
 30
0.0
 40
0.25
 50
180.0
 51
223.82118700000069
  0
ARC
  5
2663
  8
0
 10
70.977412197307672
 20
399.50168349840061
 30
0.0
 40
2.0
 50
33.869898000000177
 51
140.13010199999951
  0
LINE
  5
2664
  8
0
 10
68.478599197307631
 20
400.33360149840058
 30
0.0
 11
74.785668197307587
 21
400.00306149840048
 31
0.0
  0
LINE
  5
2665
  8
0
 10
68.504767197307615
 20
400.8329154984005
 30
0.0
 11
74.811836197307684
 21
400.50237649840051
 31
0.0
  0
LINE
  5
2666
  8
0
 10
82.928986197307722
 20
399.17490549840062
 30
0.0
 11
84.025234197307554
 21
398.07865749840062
 31
0.0
  0
LINE
  5
2668
  8
0
 10
82.368124197307665
 20
398.59047649840062
 30
0.0
 11
82.928986197307722
 21
399.17490549840062
 31
0.0
  0
LINE
  5
2669
  8
0
 10
77.566096197307616
 20
397.49422849840062
 30
0.0
 11
75.966526197307644
 21
399.16101049840063
 31
0.0
  0
ARC
  5
266A
  8
0
 10
80.565234197307646
 20
400.3933664984005
 30
0.0
 40
2.5499999999999989
 50
222.3264279999992
 51
315.0
  0
ARC
  5
266B
  8
0
 10
80.465234197307595
 20
400.3933664984005
 30
0.0
 40
4.0999999999999988
 50
225.0
 51
315.0
  0
LINE
  5
266C
  8
0
 10
72.818124197307611
 20
398.59047649840062
 30
0.0
 11
73.378986197307654
 21
399.17490549840062
 31
0.0
  0
LINE
  5
266E
  8
0
 10
73.378986197307654
 20
399.17490549840062
 30
0.0
 11
74.4752341973076
 21
398.07865749840062
 31
0.0
  0
ARC
  5
266F
  8
0
 10
70.915234197307655
 20
400.3933664984005
 30
0.0
 40
4.0999999999999988
 50
225.0
 51
315.0
  0
ARC
  5
2670
  8
0
 10
71.015234197307564
 20
400.3933664984005
 30
0.0
 40
2.5499999999999989
 50
222.3264279999992
 51
315.0
  0
ARC
  5
2671
  8
0
 10
77.265234197307564
 20
400.40734849840049
 30
0.0
 40
1.8
 50
180.0
 51
223.82118700000069
  0
LINE
  5
2672
  8
0
 10
78.679966197307635
 20
398.67631449840059
 30
0.0
 11
77.184858197307676
 21
400.23424649840052
 31
0.0
  0
ARC
  5
2673
  8
0
 10
80.565234197307646
 20
400.22336649840048
 30
0.0
 40
2.379999999999999
 50
177.5458540000011
 51
356.45414600000072
  0
LINE
  5
2674
  8
0
 10
69.129966197307681
 20
398.67631449840059
 30
0.0
 11
67.634858197307594
 21
400.23424649840052
 31
0.0
  0
ARC
  5
2675
  8
0
 10
71.015234197307564
 20
400.22336649840048
 30
0.0
 40
2.379999999999999
 50
177.5458540000011
 51
356.45414600000072
  0
ARC
  5
2676
  8
0
 10
83.355234197307595
 20
403.20614349840048
 30
0.0
 40
1.659999999999999
 50
228.4932839999982
 51
0.0
  0
LINE
  5
2677
  8
0
 10
79.030606197307634
 20
402.08988749840051
 30
0.0
 11
78.415234197307655
 21
402.9065134984005
 31
0.0
  0
ARC
  5
2678
  8
0
 10
80.565234197307646
 20
400.22336649840048
 30
0.0
 40
2.379999999999999
 50
8.5695469999987441
 51
165.43045300000159
  0
ARC
  5
2679
  8
0
 10
80.565234197307646
 20
400.05336649840052
 30
0.0
 40
2.5499999999999989
 50
48.549999999999031
 51
127.000000000002
  0
ARC
  5
267A
  8
0
 10
73.805234197307641
 20
403.20614349840048
 30
0.0
 40
1.659999999999999
 50
228.4932839999982
 51
0.0
  0
LINE
  5
267B
  8
0
 10
69.480606197307665
 20
402.08988749840051
 30
0.0
 11
68.865234197307586
 21
402.9065134984005
 31
0.0
  0
ARC
  5
267C
  8
0
 10
71.015234197307564
 20
400.05336649840052
 30
0.0
 40
2.5499999999999989
 50
48.549999999999031
 51
127.000000000002
  0
ARC
  5
267D
  8
0
 10
71.015234197307564
 20
400.22336649840048
 30
0.0
 40
2.379999999999999
 50
8.5695469999987441
 51
165.43045300000159
  0
ARC
  5
267E
  8
0
 10
67.715234197307609
 20
400.40734849840049
 30
0.0
 40
1.8
 50
180.0
 51
223.82118700000069
  0
LINE
  5
267F
  8
0
 10
68.016096197307661
 20
397.49422849840062
 30
0.0
 11
66.416526197307576
 21
399.16101049840063
 31
0.0
  0
LINE
  5
2680
  8
1
 10
61.115234197307579
 20
413.9683664984006
 30
0.0
 11
90.015234197307564
 21
413.9683664984006
 31
0.0
  0
LINE
  5
2682
  8
0
 10
82.368124197307665
 20
429.34625649840058
 30
0.0
 11
82.928986197307722
 21
428.76182849840052
 31
0.0
  0
LINE
  5
2683
  8
0
 10
82.928986197307722
 20
428.76182849840052
 30
0.0
 11
84.025234197307554
 21
429.85807549840058
 31
0.0
  0
LINE
  5
2684
  8
0
 10
77.566096197307616
 20
430.44250449840058
 30
0.0
 11
75.966526197307644
 21
428.77572249840051
 31
0.0
  0
ARC
  5
2685
  8
0
 10
80.565234197307646
 20
427.54336649840059
 30
0.0
 40
2.5499999999999989
 50
45.0
 51
137.6735720000008
  0
ARC
  5
2686
  8
0
 10
80.465234197307595
 20
427.54336649840059
 30
0.0
 40
4.0999999999999988
 50
45.0
 51
135.0
  0
LINE
  5
2687
  8
0
 10
73.378986197307654
 20
428.76182849840052
 30
0.0
 11
74.4752341973076
 21
429.85807549840058
 31
0.0
  0
LINE
  5
2688
  8
0
 10
72.818124197307611
 20
429.34625649840058
 30
0.0
 11
73.378986197307654
 21
428.76182849840052
 31
0.0
  0
ARC
  5
268A
  8
0
 10
71.015234197307564
 20
427.54336649840059
 30
0.0
 40
2.5499999999999989
 50
45.0
 51
137.6735720000008
  0
ARC
  5
268B
  8
0
 10
70.915234197307655
 20
427.54336649840059
 30
0.0
 40
4.0999999999999988
 50
45.0
 51
135.0
  0
LINE
  5
268C
  8
0
 10
80.565234197307646
 20
409.01836649840061
 30
0.0
 11
80.565234197307646
 21
418.91836649840047
 31
0.0
  0
LINE
  5
268D
  8
0
 10
80.065234197307632
 20
409.01836649840061
 30
0.0
 11
80.065234197307632
 21
418.91836649840047
 31
0.0
  0
LINE
  5
268E
  8
0
 10
71.015234197307564
 20
409.01836649840061
 30
0.0
 11
71.015234197307564
 21
418.91836649840047
 31
0.0
  0
LINE
  5
268F
  8
0
 10
70.515234197307564
 20
409.01836649840061
 30
0.0
 11
70.515234197307564
 21
418.91836649840047
 31
0.0
  0
LINE
  5
2690
  8
0
 10
78.065234197307632
 20
408.31836649840062
 30
0.0
 11
79.865234197307586
 21
408.31836649840062
 31
0.0
  0
LINE
  5
2691
  8
0
 10
78.065234197307632
 20
408.81836649840062
 30
0.0
 11
79.865234197307586
 21
408.81836649840062
 31
0.0
  0
ARC
  5
2692
  8
0
 10
78.065234197307632
 20
408.11836649840058
 30
0.0
 40
0.7
 50
90.0
 51
180.0
  0
ARC
  5
2693
  8
0
 10
78.065234197307632
 20
408.11836649840058
 30
0.0
 40
0.2
 50
90.0
 51
180.0
  0
ARC
  5
2694
  8
0
 10
79.865234197307586
 20
409.01836649840061
 30
0.0
 40
0.2
 50
270.0
 51
0.0
  0
ARC
  5
2695
  8
0
 10
79.865234197307586
 20
409.01836649840061
 30
0.0
 40
0.7
 50
270.0
 51
0.0
  0
ARC
  5
2696
  8
0
 10
70.315234197307632
 20
409.01836649840061
 30
0.0
 40
0.2
 50
270.0
 51
0.0
  0
ARC
  5
2697
  8
0
 10
68.515234197307564
 20
408.11836649840058
 30
0.0
 40
0.2
 50
90.0
 51
180.0
  0
ARC
  5
2698
  8
0
 10
68.515234197307564
 20
408.11836649840058
 30
0.0
 40
0.7
 50
90.0
 51
180.0
  0
LINE
  5
2699
  8
0
 10
68.515234197307564
 20
408.81836649840062
 30
0.0
 11
70.315234197307632
 21
408.81836649840062
 31
0.0
  0
LINE
  5
269A
  8
0
 10
68.515234197307564
 20
408.31836649840062
 30
0.0
 11
70.315234197307632
 21
408.31836649840062
 31
0.0
  0
ARC
  5
269B
  8
0
 10
70.315234197307632
 20
409.01836649840061
 30
0.0
 40
0.7
 50
270.0
 51
0.0
  0
ARC
  5
269C
  8
0
 10
83.355234197307595
 20
424.73059049840049
 30
0.0
 40
1.659999999999999
 50
0.0
 51
131.50671600000169
  0
ARC
  5
269D
  8
0
 10
83.355234197307595
 20
424.73059049840049
 30
0.0
 40
0.11
 50
0.0
 51
131.50671600000169
  0
ARC
  5
269E
  8
0
 10
80.566664197307645
 20
427.68607749840049
 30
0.0
 40
2.399999999999999
 50
338.46043599999871
 51
352.1930770000007
  0
ARC
  5
269F
  8
0
 10
80.566664197307645
 20
427.68607749840049
 30
0.0
 40
2.8700000000000001
 50
338.28414499999928
 51
353.97911799999991
  0
LINE
  5
26A0
  8
0
 10
83.232981197307694
 20
426.6241664984006
 30
0.0
 11
82.799058197307659
 21
426.8049334984006
 31
0.0
  0
LINE
  5
26A1
  8
0
 10
79.030606197307634
 20
425.84684649840051
 30
0.0
 11
78.415234197307655
 21
425.03022049840058
 31
0.0
  0
LINE
  5
26A2
  8
0
 10
78.415234197307655
 20
425.03022049840058
 30
0.0
 11
78.415234197307655
 21
424.3923064984005
 31
0.0
  0
ARC
  5
26A3
  8
0
 10
77.365234197307586
 20
427.52938449840047
 30
0.0
 40
0.25
 50
136.17881299999931
 51
180.0
  0
ARC
  5
26A4
  8
0
 10
78.065234197307632
 20
426.90409149840059
 30
0.0
 40
0.7
 50
92.999999999999105
 51
180.0
  0
ARC
  5
26A5
  8
0
 10
78.065234197307632
 20
426.90409149840059
 30
0.0
 40
0.2
 50
92.999999999999105
 51
180.0
  0
ARC
  5
26A6
  8
0
 10
80.565234197307646
 20
427.88336649840062
 30
0.0
 40
4.0999999999999988
 50
238.37279599999769
 51
311.5067160000018
  0
ARC
  5
26A7
  8
0
 10
80.565234197307646
 20
427.71336649840049
 30
0.0
 40
2.379999999999999
 50
194.56954699999829
 51
351.43045300000119
  0
LINE
  5
26A8
  8
0
 10
78.054767197307683
 20
427.10381749840047
 30
0.0
 11
84.361836197307639
 21
427.43435649840058
 31
0.0
  0
ARC
  5
26A9
  8
0
 10
80.565234197307646
 20
427.88336649840062
 30
0.0
 40
2.5499999999999989
 50
232.9999999999979
 51
311.45000000000101
  0
ARC
  5
26AA
  8
0
 10
80.527412197307626
 20
428.43505049840053
 30
0.0
 40
2.0
 50
219.8698980000004
 51
326.13010199999979
  0
LINE
  5
26AB
  8
0
 10
73.68298119730764
 20
426.6241664984006
 30
0.0
 11
73.24905819730759
 21
426.8049334984006
 31
0.0
  0
ARC
  5
26AC
  8
0
 10
71.016664197307705
 20
427.68607749840049
 30
0.0
 40
2.8700000000000001
 50
338.28414499999928
 51
353.97911799999991
  0
ARC
  5
26AD
  8
0
 10
71.016664197307705
 20
427.68607749840049
 30
0.0
 40
2.399999999999999
 50
338.46043599999871
 51
352.1930770000007
  0
ARC
  5
26AE
  8
0
 10
73.805234197307641
 20
424.73059049840049
 30
0.0
 40
0.11
 50
0.0
 51
131.50671600000169
  0
ARC
  5
26AF
  8
0
 10
73.805234197307641
 20
424.73059049840049
 30
0.0
 40
1.659999999999999
 50
0.0
 51
131.50671600000169
  0
LINE
  5
26B0
  8
0
 10
78.065234197307632
 20
419.61836649840058
 30
0.0
 11
79.865234197307586
 21
419.61836649840058
 31
0.0
  0
LINE
  5
26B1
  8
0
 10
78.065234197307632
 20
419.11836649840058
 30
0.0
 11
79.865234197307586
 21
419.11836649840058
 31
0.0
  0
ARC
  5
26B2
  8
0
 10
78.065234197307632
 20
419.81836649840051
 30
0.0
 40
0.7
 50
180.0
 51
270.0
  0
ARC
  5
26B3
  8
0
 10
78.065234197307632
 20
419.81836649840051
 30
0.0
 40
0.2
 50
180.0
 51
270.0
  0
ARC
  5
26B4
  8
0
 10
79.865234197307586
 20
418.91836649840047
 30
0.0
 40
0.2
 50
0.0
 51
90.0
  0
ARC
  5
26B5
  8
0
 10
79.865234197307586
 20
418.91836649840047
 30
0.0
 40
0.7
 50
0.0
 51
90.0
  0
LINE
  5
26B6
  8
0
 10
77.865234197307586
 20
426.90409149840059
 30
0.0
 11
77.865234197307586
 21
419.81836649840051
 31
0.0
  0
LINE
  5
26B7
  8
0
 10
77.365234197307586
 20
426.90409149840059
 30
0.0
 11
77.365234197307586
 21
419.81836649840051
 31
0.0
  0
ARC
  5
26B8
  8
0
 10
68.515234197307564
 20
426.90409149840059
 30
0.0
 40
0.2
 50
92.999999999999105
 51
180.0
  0
ARC
  5
26B9
  8
0
 10
68.515234197307564
 20
426.90409149840059
 30
0.0
 40
0.7
 50
92.999999999999105
 51
180.0
  0
ARC
  5
26BA
  8
0
 10
67.815234197307632
 20
427.52938449840047
 30
0.0
 40
0.25
 50
136.17881299999931
 51
180.0
  0
LINE
  5
26BB
  8
0
 10
68.865234197307586
 20
425.03022049840058
 30
0.0
 11
68.865234197307586
 21
424.3923064984005
 31
0.0
  0
LINE
  5
26BC
  8
0
 10
69.480606197307665
 20
425.84684649840051
 30
0.0
 11
68.865234197307586
 21
425.03022049840058
 31
0.0
  0
ARC
  5
26BD
  8
0
 10
70.315234197307632
 20
418.91836649840047
 30
0.0
 40
0.2
 50
0.0
 51
90.0
  0
ARC
  5
26BE
  8
0
 10
68.515234197307564
 20
419.81836649840051
 30
0.0
 40
0.2
 50
180.0
 51
270.0
  0
ARC
  5
26BF
  8
0
 10
68.515234197307564
 20
419.81836649840051
 30
0.0
 40
0.7
 50
180.0
 51
270.0
  0
LINE
  5
26C0
  8
0
 10
68.515234197307564
 20
419.11836649840058
 30
0.0
 11
70.315234197307632
 21
419.11836649840058
 31
0.0
  0
LINE
  5
26C1
  8
0
 10
68.515234197307564
 20
419.61836649840058
 30
0.0
 11
70.315234197307632
 21
419.61836649840058
 31
0.0
  0
LINE
  5
26C2
  8
0
 10
67.815234197307632
 20
426.90409149840059
 30
0.0
 11
67.815234197307632
 21
419.81836649840051
 31
0.0
  0
LINE
  5
26C3
  8
0
 10
68.315234197307632
 20
426.90409149840059
 30
0.0
 11
68.315234197307632
 21
419.81836649840051
 31
0.0
  0
ARC
  5
26C4
  8
0
 10
70.977412197307672
 20
428.43505049840053
 30
0.0
 40
2.0
 50
219.8698980000004
 51
326.13010199999979
  0
ARC
  5
26C5
  8
0
 10
71.015234197307564
 20
427.88336649840062
 30
0.0
 40
2.5499999999999989
 50
232.9999999999979
 51
311.45000000000101
  0
LINE
  5
26C6
  8
0
 10
68.504767197307615
 20
427.10381749840047
 30
0.0
 11
74.811836197307684
 21
427.43435649840058
 31
0.0
  0
ARC
  5
26C7
  8
0
 10
71.015234197307564
 20
427.71336649840049
 30
0.0
 40
2.379999999999999
 50
194.56954699999829
 51
351.43045300000119
  0
ARC
  5
26C8
  8
0
 10
70.315234197307632
 20
418.91836649840047
 30
0.0
 40
0.7
 50
0.0
 51
90.0
  0
ARC
  5
26C9
  8
0
 10
71.015234197307564
 20
427.88336649840062
 30
0.0
 40
4.0999999999999988
 50
238.37279599999769
 51
311.5067160000018
  0
ARC
  5
26CA
  8
0
 10
77.265234197307564
 20
427.52938449840047
 30
0.0
 40
1.8
 50
136.17881299999931
 51
180.0
  0
LINE
  5
26CB
  8
0
 10
84.335668197307555
 20
427.9336714984006
 30
0.0
 11
84.361836197307639
 21
427.43435649840058
 31
0.0
  0
LINE
  5
26CC
  8
0
 10
78.679966197307635
 20
429.2604184984005
 30
0.0
 11
77.184858197307676
 21
427.70248749840061
 31
0.0
  0
LINE
  5
26CD
  8
0
 10
78.028599197307585
 20
427.6031324984005
 30
0.0
 11
84.335668197307555
 21
427.9336714984006
 31
0.0
  0
ARC
  5
26CE
  8
0
 10
80.565234197307646
 20
427.71336649840049
 30
0.0
 40
2.379999999999999
 50
3.545853999999327
 51
182.45414599999879
  0
LINE
  5
26CF
  8
0
 10
74.785668197307587
 20
427.9336714984006
 30
0.0
 11
74.811836197307684
 21
427.43435649840058
 31
0.0
  0
LINE
  5
26D0
  8
0
 10
69.129966197307681
 20
429.2604184984005
 30
0.0
 11
67.634858197307594
 21
427.70248749840061
 31
0.0
  0
ARC
  5
26D1
  8
0
 10
71.015234197307564
 20
427.71336649840049
 30
0.0
 40
2.379999999999999
 50
3.545853999999327
 51
182.45414599999879
  0
LINE
  5
26D2
  8
0
 10
68.478599197307631
 20
427.6031324984005
 30
0.0
 11
74.785668197307587
 21
427.9336714984006
 31
0.0
  0
ARC
  5
26D3
  8
0
 10
67.715234197307609
 20
427.52938449840047
 30
0.0
 40
1.8
 50
136.17881299999931
 51
180.0
  0
LINE
  5
26D4
  8
0
 10
68.016096197307661
 20
430.44250449840058
 30
0.0
 11
66.416526197307576
 21
428.77572249840051
 31
0.0
  0
LINE
  5
2A2E
  8
0
 10
84.025234197307554
 20
429.85807549840058
 30
0.0
 11
83.364372000172466
 21
430.44250430126539
 31
0.0
  0
LINE
  5
2A2F
  8
0
 10
83.364372000172466
 20
397.4942286955357
 30
0.0
 11
84.025234197307554
 21
398.07865749840062
 31
0.0
  0
LINE
  5
2A30
  8
0
 10
73.814372000172398
 20
430.44250430126539
 30
0.0
 11
74.4752341973076
 21
429.85807549840058
 31
0.0
  0
LINE
  5
2A31
  8
0
 10
73.814372000172398
 20
397.4942286955357
 30
0.0
 11
74.4752341973076
 21
398.07865749840062
 31
0.0
  0
LINE
  5
2F1B
  8
1
 10
120.01523419730751
 20
413.9683664984006
 30
0.0
 11
1079.915234197307
 21
413.9683664984006
 31
0.0
  0
LINE
  5
2F1C
  8
2
 10
130.01523419730751
 20
404.1533664984006
 30
0.0
 11
583.21523419730761
 21
404.1533664984006
 31
0.0
  0
LINE
  5
2F1D
  8
0
 10
130.01523419730751
 20
401.54614349840068
 30
0.0
 11
583.21523419730761
 21
401.54614349840068
 31
0.0
  0
LINE
  5
2F1E
  8
2
 10
130.01523419730751
 20
423.7833664984006
 30
0.0
 11
583.21523419730761
 21
423.7833664984006
 31
0.0
  0
LINE
  5
2F1F
  8
0
 10
130.01523419730751
 20
426.39059049840063
 30
0.0
 11
583.21523419730761
 21
426.39059049840063
 31
0.0
  0
LINE
  5
2F20
  8
0
 10
130.01523419730751
 20
426.39059049840063
 30
0.0
 11
130.01523419730751
 21
401.54614349840068
 31
0.0
  0
ARC
  5
2F21
  8
0
 10
145.91523419730751
 20
413.56836649840051
 30
0.0
 40
2.25
 50
180.0
 51
0.0
  0
LINE
  5
2F22
  8
1
 10
145.91523419730751
 20
419.96836649840048
 30
0.0
 11
145.91523419730751
 21
407.96836649840048
 31
0.0
  0
ARC
  5
2F23
  8
0
 10
145.91523419730751
 20
414.36836649840052
 30
0.0
 40
2.25
 50
0.0
 51
180.0
  0
LINE
  5
2F24
  8
0
 10
143.66523419730751
 20
413.56836649840051
 30
0.0
 11
143.66523419730751
 21
414.36836649840052
 31
0.0
  0
LINE
  5
2F25
  8
0
 10
148.16523419730751
 20
413.56836649840051
 30
0.0
 11
148.16523419730751
 21
414.36836649840052
 31
0.0
  0
ARC
  5
2F26
  8
0
 10
158.61523419730759
 20
413.56836649840051
 30
0.0
 40
2.25
 50
180.0
 51
0.0
  0
LINE
  5
2F27
  8
1
 10
158.61523419730759
 20
419.96836649840048
 30
0.0
 11
158.61523419730759
 21
407.96836649840048
 31
0.0
  0
LINE
  5
2F28
  8
0
 10
160.86523419730759
 20
414.36836649840052
 30
0.0
 11
160.86523419730759
 21
413.56836649840051
 31
0.0
  0
LINE
  5
2F29
  8
0
 10
156.36523419730759
 20
414.36836649840052
 30
0.0
 11
156.36523419730759
 21
413.56836649840051
 31
0.0
  0
ARC
  5
2F2A
  8
0
 10
158.61523419730759
 20
414.36836649840052
 30
0.0
 40
2.25
 50
0.0
 51
180.0
  0
LINE
  5
2F2B
  8
0
 10
269.31523419730752
 20
411.7183664984006
 30
0.0
 11
270.11523419730759
 21
411.7183664984006
 31
0.0
  0
LINE
  5
2F2C
  8
0
 10
269.31523419730752
 20
416.2183664984006
 30
0.0
 11
270.11523419730759
 21
416.2183664984006
 31
0.0
  0
ARC
  5
2F2D
  8
0
 10
269.31523419730752
 20
413.9683664984006
 30
0.0
 40
2.25
 50
90.0
 51
270.0
  0
LINE
  5
2F2E
  8
1
 10
269.71523419730761
 20
419.96836649840048
 30
0.0
 11
269.71523419730761
 21
407.96836649840048
 31
0.0
  0
ARC
  5
2F2F
  8
0
 10
270.11523419730759
 20
413.9683664984006
 30
0.0
 40
2.25
 50
270.0
 51
90.0
  0
LINE
  5
2F31
  8
0
 10
862.51523419730745
 20
399.17490549840062
 30
0.0
 11
1066.7152341973081
 21
399.17490549840062
 31
0.0
  0
LINE
  5
2F32
  8
0
 10
860.11523419730736
 20
398.07865749840067
 30
0.0
 11
1066.7152341973081
 21
398.07865749840067
 31
0.0
  0
LINE
  5
2F33
  8
0
 10
860.11523419730736
 20
396.2933664984007
 30
0.0
 11
1066.7152341973081
 21
396.2933664984007
 31
0.0
  0
LINE
  5
2F34
  8
0
 10
860.11523419730736
 20
429.85807549840058
 30
0.0
 11
1066.7152341973081
 21
429.85807549840058
 31
0.0
  0
LINE
  5
2F35
  8
0
 10
862.51523419730745
 20
428.76182849840052
 30
0.0
 11
1066.7152341973081
 21
428.76182849840052
 31
0.0
  0
LINE
  5
2F36
  8
0
 10
860.11523419730736
 20
431.64336649840061
 30
0.0
 11
1066.7152341973081
 21
431.64336649840061
 31
0.0
  0
LINE
  5
2F41
  8
2
 10
610.61523419730759
 20
426.39059049840063
 30
0.0
 11
836.01523419730745
 21
426.39059049840063
 31
0.0
  0
LINE
  5
2F42
  8
2
 10
610.61523419730759
 20
423.7833664984006
 30
0.0
 11
837.61523419730747
 21
423.7833664984006
 31
0.0
  0
LINE
  5
2F43
  8
2
 10
610.61523419730759
 20
404.1533664984006
 30
0.0
 11
837.61523419730747
 21
404.1533664984006
 31
0.0
  0
LINE
  5
2F44
  8
2
 10
610.61523419730759
 20
401.54614349840068
 30
0.0
 11
836.01523419730745
 21
401.54614349840068
 31
0.0
  0
LINE
  5
2F45
  8
0
 10
402.91523419730748
 20
399.17490549840062
 30
0.0
 11
860.11523419730736
 21
399.17490549840062
 31
0.0
  0
LINE
  5
2F46
  8
0
 10
402.91523419730748
 20
396.2933664984007
 30
0.0
 11
860.11523419730736
 21
396.2933664984007
 31
0.0
  0
LINE
  5
2F47
  8
0
 10
402.91523419730748
 20
428.76182849840052
 30
0.0
 11
860.11523419730736
 21
428.76182849840052
 31
0.0
  0
LINE
  5
2F48
  8
0
 10
402.91523419730748
 20
431.64336649840061
 30
0.0
 11
860.11523419730736
 21
431.64336649840061
 31
0.0
  0
LINE
  5
2F4D
  8
2
 10
399.81523419730752
 20
406.21836649840048
 30
0.0
 11
475.31523419730752
 21
406.21836649840048
 31
0.0
  0
LINE
  5
2F4E
  8
2
 10
399.81523419730752
 20
421.71836649840048
 30
0.0
 11
475.31523419730752
 21
421.71836649840048
 31
0.0
  0
LINE
  5
2F50
  8
0
 10
402.91523419730748
 20
396.2933664984007
 30
0.0
 11
402.91523419730748
 21
401.54614349840068
 31
0.0
  0
LINE
  5
2F51
  8
2
 10
399.81523419730752
 20
421.71836649840048
 30
0.0
 11
383.91523419730748
 21
420.26836649840061
 31
0.0
  0
ARC
  5
2F52
  8
0
 10
397.61523419730759
 20
412.56836649840062
 30
0.0
 40
2.5
 50
180.0
 51
0.0
  0
ARC
  5
2F53
  8
0
 10
397.61523419730759
 20
415.36836649840052
 30
0.0
 40
2.5
 50
0.0
 51
180.0
  0
LINE
  5
2F54
  8
2
 10
399.81523419730752
 20
406.21836649840048
 30
0.0
 11
383.91523419730748
 21
407.66836649840059
 31
0.0
  0
ARC
  5
2F55
  8
0
 10
359.01523419730762
 20
413.9683664984006
 30
0.0
 40
2.25
 50
270.0
 51
90.0
  0
LINE
  5
2F56
  8
0
 10
358.21523419730761
 20
411.7183664984006
 30
0.0
 11
359.01523419730762
 21
411.7183664984006
 31
0.0
  0
LINE
  5
2F57
  8
0
 10
358.21523419730761
 20
416.2183664984006
 30
0.0
 11
359.01523419730762
 21
416.2183664984006
 31
0.0
  0
ARC
  5
2F58
  8
0
 10
358.21523419730761
 20
413.9683664984006
 30
0.0
 40
2.25
 50
90.0
 51
270.0
  0
LINE
  5
2F59
  8
1
 10
358.61523419730759
 20
419.96836649840048
 30
0.0
 11
358.61523419730759
 21
407.96836649840048
 31
0.0
  0
LINE
  5
2F5A
  8
0
 10
395.11523419730759
 20
412.56836649840062
 30
0.0
 11
395.11523419730759
 21
415.36836649840052
 31
0.0
  0
LINE
  5
2F5B
  8
0
 10
379.91523419730748
 20
410.55436749840061
 30
0.0
 11
379.91523419730748
 21
417.38236549840059
 31
0.0
  0
LINE
  5
2F5C
  8
0
 10
383.91523419730748
 20
410.31836649840062
 30
0.0
 11
383.91523419730748
 21
417.61836649840052
 31
0.0
  0
LINE
  5
2F5D
  8
0
 10
378.71523419730761
 20
410.31836649840062
 30
0.0
 11
378.71523419730761
 21
417.61836649840052
 31
0.0
  0
LINE
  5
2F5E
  8
2
 10
383.91523419730748
 20
407.66836649840059
 30
0.0
 11
382.70622479355342
 21
408.12174519258667
 31
0.0
  0
ARC
  5
2F5F
  8
0
 10
381.9152341973076
 20
410.55436749840061
 30
0.0
 40
2.0
 50
180.0
 51
249.44395499999951
  0
ARC
  5
2F60
  8
0
 10
381.31523419730752
 20
410.31836649840062
 30
0.0
 40
2.6000000000000001
 50
180.0
 51
0.0
  0
ARC
  5
2F61
  8
0
 10
381.9152341973076
 20
417.38236549840059
 30
0.0
 40
2.0
 50
110.55604500000049
 51
180.0
  0
ARC
  5
2F62
  8
0
 10
381.31523419730752
 20
417.61836649840052
 30
0.0
 40
2.6000000000000001
 50
0.0
 51
180.0
  0
LINE
  5
2F63
  8
0
 10
382.70622434980118
 20
419.8149880852165
 30
0.0
 11
381.2129871973076
 21
419.25502449840059
 31
0.0
  0
LINE
  5
2F64
  8
2
 10
414.81523419730752
 20
426.39059049840063
 30
0.0
 11
414.81523419730752
 21
401.54614349840068
 31
0.0
  0
LINE
  5
2F65
  8
2
 10
422.81523419730752
 20
426.39059049840063
 30
0.0
 11
422.81523419730752
 21
401.54614349840068
 31
0.0
  0
LINE
  5
2F67
  8
2
 10
432.51523419730751
 20
422.91836649840059
 30
0.0
 11
438.91523419730748
 21
422.91836649840059
 31
0.0
  0
LINE
  5
2F68
  8
2
 10
432.51523419730751
 20
405.01836649840072
 30
0.0
 11
438.91523419730748
 21
405.01836649840072
 31
0.0
  0
LINE
  5
2F69
  8
2
 10
432.51523419730751
 20
408.81836649840062
 30
0.0
 11
438.91523419730748
 21
408.81836649840062
 31
0.0
  0
LINE
  5
2F6A
  8
2
 10
432.51523419730751
 20
419.11836649840058
 30
0.0
 11
438.91523419730748
 21
419.11836649840058
 31
0.0
  0
LINE
  5
2F6B
  8
0
 10
422.81523419730752
 20
399.76836649840072
 30
0.0
 11
422.81523419730752
 21
401.54614349840068
 31
0.0
  0
LINE
  5
2F6C
  8
0
 10
432.41523419730748
 20
399.67490549840062
 30
0.0
 11
432.41523419730748
 21
399.17490549840062
 31
0.0
  0
POLYLINE
  8
0
  5
3549
  66
     1
 10
0.000000
 20
0.000000
 30
0.000000
  70
     8
  0
VERTEX
  8
0
  5
354A
 10
432.415
 20
399.675
 30
0.000000
  70
    32
  0
VERTEX
  8
0
  5
354B
 10
432.400
 20
399.693
 30
0.000000
  70
    32
  0
VERTEX
  8
0
  5
354C
 10
432.384
 20
399.710
 30
0.000000
  70
    32
  0
VERTEX
  8
0
  5
354D
 10
432.369
 20
399.728
 30
0.000000
  70
    32
  0
VERTEX
  8
0
  5
354E
 10
432.354
 20
399.745
 30
0.000000
  70
    32
  0
VERTEX
  8
0
  5
354F
 10
432.338
 20
399.763
 30
0.000000
  70
    32
  0
VERTEX
  8
0
  5
3550
 10
432.323
 20
399.781
 30
0.000000
  70
    32
  0
VERTEX
  8
0
  5
3551
 10
432.307
 20
399.798
 30
0.000000
  70
    32
  0
VERTEX
  8
0
  5
3552
 10
432.292
 20
399.816
 30
0.000000
  70
    32
  0
VERTEX
  8
0
  5
3553
 10
432.276
 20
399.833
 30
0.000000
  70
    32
  0
VERTEX
  8
0
  5
3554
 10
432.261
 20
399.851
 30
0.000000
  70
    32
  0
VERTEX
  8
0
  5
3555
 10
432.245
 20
399.868
 30
0.000000
  70
    32
  0
VERTEX
  8
0
  5
3556
 10
432.230
 20
399.886
 30
0.000000
  70
    32
  0
VERTEX
  8
0
  5
3557
 10
432.214
 20
399.903
 30
0.000000
  70
    32
  0
VERTEX
  8
0
  5
3558
 10
432.199
 20
399.921
 30
0.000000
  70
    32
  0
VERTEX
  8
0
  5
3559
 10
432.183
 20
399.938
 30
0.000000
  70
    32
  0
VERTEX
  8
0
  5
355A
 10
432.168
 20
399.956
 30
0.000000
  70
    32
  0
VERTEX
  8
0
  5
355B
 10
432.152
 20
399.973
 30
0.000000
  70
    32
  0
VERTEX
  8
0
  5
355C
 10
432.137
 20
399.990
 30
0.000000
  70
    32
  0
VERTEX
  8
0
  5
355D
 10
432.121
 20
400.008
 30
0.000000
  70
    32
  0
VERTEX
  8
0
  5
355E
 10
432.105
 20
400.025
 30
0.000000
  70
    32
  0
VERTEX
  8
0
  5
355F
 10
432.090
 20
400.042
 30
0.000000
  70
    32
  0
VERTEX
  8
0
  5
3560
 10
432.074
 20
400.060
 30
0.000000
  70
    32
  0
VERTEX
  8
0
  5
3561
 10
432.058
 20
400.077
 30
0.000000
  70
    32
  0
VERTEX
  8
0
  5
3562
 10
432.043
 20
400.094
 30
0.000000
  70
    32
  0
VERTEX
  8
0
  5
3563
 10
432.027
 20
400.111
 30
0.000000
  70
    32
  0
VERTEX
  8
0
  5
3564
 10
432.011
 20
400.128
 30
0.000000
  70
    32
  0
VERTEX
  8
0
  5
3565
 10
431.995
 20
400.145
 30
0.000000
  70
    32
  0
VERTEX
  8
0
  5
3566
 10
431.980
 20
400.162
 30
0.000000
  70
    32
  0
VERTEX
  8
0
  5
3567
 10
431.964
 20
400.179
 30
0.000000
  70
    32
  0
VERTEX
  8
0
  5
3568
 10
431.948
 20
400.196
 30
0.000000
  70
    32
  0
VERTEX
  8
0
  5
3569
 10
431.932
 20
400.213
 30
0.000000
  70
    32
  0
VERTEX
  8
0
  5
356A
 10
431.916
 20
400.230
 30
0.000000
  70
    32
  0
VERTEX
  8
0
  5
356B
 10
431.900
 20
400.246
 30
0.000000
  70
    32
  0
VERTEX
  8
0
  5
356C
 10
431.884
 20
400.263
 30
0.000000
  70
    32
  0
VERTEX
  8
0
  5
356D
 10
431.868
 20
400.279
 30
0.000000
  70
    32
  0
VERTEX
  8
0
  5
356E
 10
431.852
 20
400.296
 30
0.000000
  70
    32
  0
VERTEX
  8
0
  5
356F
 10
431.836
 20
400.313
 30
0.000000
  70
    32
  0
VERTEX
  8
0
  5
3570
 10
431.820
 20
400.329
 30
0.000000
  70
    32
  0
VERTEX
  8
0
  5
3571
 10
431.804
 20
400.345
 30
0.000000
  70
    32
  0
VERTEX
  8
0
  5
3572
 10
431.787
 20
400.362
 30
0.000000
  70
    32
  0
VERTEX
  8
0
  5
3573
 10
431.771
 20
400.378
 30
0.000000
  70
    32
  0
VERTEX
  8
0
  5
3574
 10
431.755
 20
400.394
 30
0.000000
  70
    32
  0
VERTEX
  8
0
  5
3575
 10
431.738
 20
400.410
 30
0.000000
  70
    32
  0
VERTEX
  8
0
  5
3576
 10
431.722
 20
400.426
 30
0.000000
  70
    32
  0
VERTEX
  8
0
  5
3577
 10
431.706
 20
400.442
 30
0.000000
  70
    32
  0
VERTEX
  8
0
  5
3578
 10
431.689
 20
400.458
 30
0.000000
  70
    32
  0
VERTEX
  8
0
  5
3579
 10
431.673
 20
400.474
 30
0.000000
  70
    32
  0
VERTEX
  8
0
  5
357A
 10
431.656
 20
400.489
 30
0.000000
  70
    32
  0
VERTEX
  8
0
  5
357B
 10
431.639
 20
400.505
 30
0.000000
  70
    32
  0
VERTEX
  8
0
  5
357C
 10
431.623
 20
400.520
 30
0.000000
  70
    32
  0
VERTEX
  8
0
  5
357D
 10
431.606
 20
400.536
 30
0.000000
  70
    32
  0
VERTEX
  8
0
  5
357E
 10
431.589
 20
400.551
 30
0.000000
  70
    32
  0
VERTEX
  8
0
  5
357F
 10
431.573
 20
400.566
 30
0.000000
  70
    32
  0
VERTEX
  8
0
  5
3580
 10
431.556
 20
400.582
 30
0.000000
  70
    32
  0
VERTEX
  8
0
  5
3581
 10
431.539
 20
400.597
 30
0.000000
  70
    32
  0
VERTEX
  8
0
  5
3582
 10
431.522
 20
400.612
 30
0.000000
  70
    32
  0
VERTEX
  8
0
  5
3583
 10
431.505
 20
400.626
 30
0.000000
  70
    32
  0
VERTEX
  8
0
  5
3584
 10
431.488
 20
400.641
 30
0.000000
  70
    32
  0
VERTEX
  8
0
  5
3585
 10
431.470
 20
400.656
 30
0.000000
  70
    32
  0
VERTEX
  8
0
  5
3586
 10
431.453
 20
400.671
 30
0.000000
  70
    32
  0
VERTEX
  8
0
  5
3587
 10
431.436
 20
400.685
 30
0.000000
  70
    32
  0
VERTEX
  8
0
  5
3588
 10
431.419
 20
400.699
 30
0.000000
  70
    32
  0
VERTEX
  8
0
  5
3589
 10
431.401
 20
400.714
 30
0.000000
  70
    32
  0
VERTEX
  8
0
  5
358A
 10
431.384
 20
400.728
 30
0.000000
  70
    32
  0
VERTEX
  8
0
  5
358B
 10
431.366
 20
400.742
 30
0.000000
  70
    32
  0
VERTEX
  8
0
  5
358C
 10
431.349
 20
400.756
 30
0.000000
  70
    32
  0
VERTEX
  8
0
  5
358D
 10
431.331
 20
400.770
 30
0.000000
  70
    32
  0
VERTEX
  8
0
  5
358E
 10
431.313
 20
400.783
 30
0.000000
  70
    32
  0
VERTEX
  8
0
  5
358F
 10
431.295
 20
400.797
 30
0.000000
  70
    32
  0
VERTEX
  8
0
  5
3590
 10
431.278
 20
400.810
 30
0.000000
  70
    32
  0
VERTEX
  8
0
  5
3591
 10
431.260
 20
400.824
 30
0.000000
  70
    32
  0
VERTEX
  8
0
  5
3592
 10
431.242
 20
400.837
 30
0.000000
  70
    32
  0
VERTEX
  8
0
  5
3593
 10
431.224
 20
400.850
 30
0.000000
  70
    32
  0
VERTEX
  8
0
  5
3594
 10
431.205
 20
400.863
 30
0.000000
  70
    32
  0
VERTEX
  8
0
  5
3595
 10
431.187
 20
400.876
 30
0.000000
  70
    32
  0
VERTEX
  8
0
  5
3596
 10
431.169
 20
400.889
 30
0.000000
  70
    32
  0
VERTEX
  8
0
  5
3597
 10
431.150
 20
400.901
 30
0.000000
  70
    32
  0
VERTEX
  8
0
  5
3598
 10
431.132
 20
400.914
 30
0.000000
  70
    32
  0
VERTEX
  8
0
  5
3599
 10
431.113
 20
400.926
 30
0.000000
  70
    32
  0
VERTEX
  8
0
  5
359A
 10
431.095
 20
400.938
 30
0.000000
  70
    32
  0
VERTEX
  8
0
  5
359B
 10
431.076
 20
400.950
 30
0.000000
  70
    32
  0
VERTEX
  8
0
  5
359C
 10
431.057
 20
400.962
 30
0.000000
  70
    32
  0
VERTEX
  8
0
  5
359D
 10
431.039
 20
400.974
 30
0.000000
  70
    32
  0
VERTEX
  8
0
  5
359E
 10
431.020
 20
400.986
 30
0.000000
  70
    32
  0
VERTEX
  8
0
  5
359F
 10
431.001
 20
400.997
 30
0.000000
  70
    32
  0
VERTEX
  8
0
  5
35A0
 10
430.981
 20
401.008
 30
0.000000
  70
    32
  0
VERTEX
  8
0
  5
35A1
 10
430.962
 20
401.020
 30
0.000000
  70
    32
  0
VERTEX
  8
0
  5
35A2
 10
430.943
 20
401.031
 30
0.000000
  70
    32
  0
VERTEX
  8
0
  5
35A3
 10
430.924
 20
401.042
 30
0.000000
  70
    32
  0
VERTEX
  8
0
  5
35A4
 10
430.904
 20
401.052
 30
0.000000
  70
    32
  0
VERTEX
  8
0
  5
35A5
 10
430.884
 20
401.063
 30
0.000000
  70
    32
  0
VERTEX
  8
0
  5
35A6
 10
430.865
 20
401.073
 30
0.000000
  70
    32
  0
VERTEX
  8
0
  5
35A7
 10
430.845
 20
401.084
 30
0.000000
  70
    32
  0
VERTEX
  8
0
  5
35A8
 10
430.825
 20
401.094
 30
0.000000
  70
    32
  0
VERTEX
  8
0
  5
35A9
 10
430.805
 20
401.104
 30
0.000000
  70
    32
  0
VERTEX
  8
0
  5
35AA
 10
430.785
 20
401.114
 30
0.000000
  70
    32
  0
VERTEX
  8
0
  5
35AB
 10
430.765
 20
401.123
 30
0.000000
  70
    32
  0
VERTEX
  8
0
  5
35AC
 10
430.745
 20
401.133
 30
0.000000
  70
    32
  0
VERTEX
  8
0
  5
35AD
 10
430.725
 20
401.142
 30
0.000000
  70
    32
  0
VERTEX
  8
0
  5
35AE
 10
430.705
 20
401.152
 30
0.000000
  70
    32
  0
VERTEX
  8
0
  5
35AF
 10
430.684
 20
401.161
 30
0.000000
  70
    32
  0
VERTEX
  8
0
  5
35B0
 10
430.664
 20
401.170
 30
0.000000
  70
    32
  0
VERTEX
  8
0
  5
35B1
 10
430.643
 20
401.179
 30
0.000000
  70
    32
  0
VERTEX
  8
0
  5
35B2
 10
430.623
 20
401.188
 30
0.000000
  70
    32
  0
VERTEX
  8
0
  5
35B3
 10
430.602
 20
401.196
 30
0.000000
  70
    32
  0
VERTEX
  8
0
  5
35B4
 10
430.581
 20
401.205
 30
0.000000
  70
    32
  0
VERTEX
  8
0
  5
35B5
 10
430.560
 20
401.213
 30
0.000000
  70
    32
  0
VERTEX
  8
0
  5
35B6
 10
430.539
 20
401.222
 30
0.000000
  70
    32
  0
VERTEX
  8
0
  5
35B7
 10
430.519
 20
401.230
 30
0.000000
  70
    32
  0
VERTEX
  8
0
  5
35B8
 10
430.498
 20
401.238
 30
0.000000
  70
    32
  0
VERTEX
  8
0
  5
35B9
 10
430.476
 20
401.246
 30
0.000000
  70
    32
  0
VERTEX
  8
0
  5
35BA
 10
430.455
 20
401.254
 30
0.000000
  70
    32
  0
VERTEX
  8
0
  5
35BB
 10
430.434
 20
401.262
 30
0.000000
  70
    32
  0
VERTEX
  8
0
  5
35BC
 10
430.413
 20
401.269
 30
0.000000
  70
    32
  0
VERTEX
  8
0
  5
35BD
 10
430.392
 20
401.277
 30
0.000000
  70
    32
  0
VERTEX
  8
0
  5
35BE
 10
430.370
 20
401.284
 30
0.000000
  70
    32
  0
VERTEX
  8
0
  5
35BF
 10
430.349
 20
401.292
 30
0.000000
  70
    32
  0
VERTEX
  8
0
  5
35C0
 10
430.327
 20
401.299
 30
0.000000
  70
    32
  0
VERTEX
  8
0
  5
35C1
 10
430.306
 20
401.306
 30
0.000000
  70
    32
  0
VERTEX
  8
0
  5
35C2
 10
430.284
 20
401.314
 30
0.000000
  70
    32
  0
VERTEX
  8
0
  5
35C3
 10
430.262
 20
401.321
 30
0.000000
  70
    32
  0
VERTEX
  8
0
  5
35C4
 10
430.241
 20
401.328
 30
0.000000
  70
    32
  0
VERTEX
  8
0
  5
35C5
 10
430.219
 20
401.334
 30
0.000000
  70
    32
  0
VERTEX
  8
0
  5
35C6
 10
430.197
 20
401.341
 30
0.000000
  70
    32
  0
VERTEX
  8
0
  5
35C7
 10
430.175
 20
401.348
 30
0.000000
  70
    32
  0
VERTEX
  8
0
  5
35C8
 10
430.153
 20
401.355
 30
0.000000
  70
    32
  0
VERTEX
  8
0
  5
35C9
 10
430.132
 20
401.361
 30
0.000000
  70
    32
  0
VERTEX
  8
0
  5
35CA
 10
430.110
 20
401.368
 30
0.000000
  70
    32
  0
VERTEX
  8
0
  5
35CB
 10
430.088
 20
401.374
 30
0.000000
  70
    32
  0
VERTEX
  8
0
  5
35CC
 10
430.066
 20
401.380
 30
0.000000
  70
    32
  0
VERTEX
  8
0
  5
35CD
 10
430.043
 20
401.387
 30
0.000000
  70
    32
  0
VERTEX
  8
0
  5
35CE
 10
430.021
 20
401.393
 30
0.000000
  70
    32
  0
VERTEX
  8
0
  5
35CF
 10
429.999
 20
401.399
 30
0.000000
  70
    32
  0
VERTEX
  8
0
  5
35D0
 10
429.977
 20
401.405
 30
0.000000
  70
    32
  0
VERTEX
  8
0
  5
35D1
 10
429.955
 20
401.411
 30
0.000000
  70
    32
  0
VERTEX
  8
0
  5
35D2
 10
429.933
 20
401.417
 30
0.000000
  70
    32
  0
VERTEX
  8
0
  5
35D3
 10
429.910
 20
401.423
 30
0.000000
  70
    32
  0
VERTEX
  8
0
  5
35D4
 10
429.888
 20
401.429
 30
0.000000
  70
    32
  0
VERTEX
  8
0
  5
35D5
 10
429.866
 20
401.435
 30
0.000000
  70
    32
  0
VERTEX
  8
0
  5
35D6
 10
429.843
 20
401.441
 30
0.000000
  70
    32
  0
VERTEX
  8
0
  5
35D7
 10
429.821
 20
401.447
 30
0.000000
  70
    32
  0
VERTEX
  8
0
  5
35D8
 10
429.798
 20
401.452
 30
0.000000
  70
    32
  0
VERTEX
  8
0
  5
35D9
 10
429.776
 20
401.458
 30
0.000000
  70
    32
  0
VERTEX
  8
0
  5
35DA
 10
429.754
 20
401.464
 30
0.000000
  70
    32
  0
VERTEX
  8
0
  5
35DB
 10
429.731
 20
401.469
 30
0.000000
  70
    32
  0
VERTEX
  8
0
  5
35DC
 10
429.709
 20
401.475
 30
0.000000
  70
    32
  0
VERTEX
  8
0
  5
35DD
 10
429.686
 20
401.481
 30
0.000000
  70
    32
  0
VERTEX
  8
0
  5
35DE
 10
429.664
 20
401.486
 30
0.000000
  70
    32
  0
VERTEX
  8
0
  5
35DF
 10
429.641
 20
401.492
 30
0.000000
  70
    32
  0
VERTEX
  8
0
  5
35E0
 10
429.619
 20
401.497
 30
0.000000
  70
    32
  0
VERTEX
  8
0
  5
35E1
 10
429.596
 20
401.503
 30
0.000000
  70
    32
  0
VERTEX
  8
0
  5
35E2
 10
429.573
 20
401.508
 30
0.000000
  70
    32
  0
VERTEX
  8
0
  5
35E3
 10
429.551
 20
401.514
 30
0.000000
  70
    32
  0
VERTEX
  8
0
  5
35E4
 10
429.528
 20
401.519
 30
0.000000
  70
    32
  0
VERTEX
  8
0
  5
35E5
 10
429.506
 20
401.525
 30
0.000000
  70
    32
  0
VERTEX
  8
0
  5
35E6
 10
429.483
 20
401.530
 30
0.000000
  70
    32
  0
VERTEX
  8
0
  5
35E7
 10
429.460
 20
401.535
 30
0.000000
  70
    32
  0
VERTEX
  8
0
  5
35E8
 10
429.438
 20
401.541
 30
0.000000
  70
    32
  0
VERTEX
  8
0
  5
35E9
 10
429.415
 20
401.546
 30
0.000000
  70
    32
  0
SEQEND
  8
0
  5
35EA
  0
LINE
  5
2F6E
  8
2
 10
409.06523419730752
 20
409.9683664984006
 30
0.0
 11
409.06523419730752
 21
417.9683664984006
 31
0.0
  0
LINE
  5
2F6F
  8
2
 10
409.06523419730752
 20
411.31836649840051
 30
0.0
 11
409.06523419730752
 21
416.61836649840052
 31
0.0
  0
LINE
  5
2F70
  8
2
 10
403.76523419730762
 20
411.31836649840051
 30
0.0
 11
403.76523419730762
 21
416.61836649840052
 31
0.0
  0
LINE
  5
2F71
  8
2
 10
406.41523419730748
 20
411.31836649840051
 30
0.0
 11
406.41523419730748
 21
416.61836649840052
 31
0.0
  0
LINE
  5
2F72
  8
2
 10
403.76523419730762
 20
411.31836649840051
 30
0.0
 11
409.06523419730752
 21
411.31836649840051
 31
0.0
  0
LINE
  5
2F73
  8
2
 10
403.76523419730762
 20
416.61836649840052
 30
0.0
 11
409.06523419730752
 21
416.61836649840052
 31
0.0
  0
LINE
  5
2F74
  8
0
 10
405.21523419730761
 20
399.67490549840062
 30
0.0
 11
405.21523419730761
 21
399.17490549840062
 31
0.0
  0
POLYLINE
  8
0
  5
35EB
  66
     1
 10
0.000000
 20
0.000000
 30
0.000000
  70
     8
  0
VERTEX
  8
0
  5
35EC
 10
405.215
 20
399.675
 30
0.000000
  70
    32
  0
VERTEX
  8
0
  5
35ED
 10
405.231
 20
399.693
 30
0.000000
  70
    32
  0
VERTEX
  8
0
  5
35EE
 10
405.246
 20
399.710
 30
0.000000
  70
    32
  0
VERTEX
  8
0
  5
35EF
 10
405.262
 20
399.728
 30
0.000000
  70
    32
  0
VERTEX
  8
0
  5
35F0
 10
405.277
 20
399.745
 30
0.000000
  70
    32
  0
VERTEX
  8
0
  5
35F1
 10
405.292
 20
399.763
 30
0.000000
  70
    32
  0
VERTEX
  8
0
  5
35F2
 10
405.308
 20
399.781
 30
0.000000
  70
    32
  0
VERTEX
  8
0
  5
35F3
 10
405.323
 20
399.798
 30
0.000000
  70
    32
  0
VERTEX
  8
0
  5
35F4
 10
405.339
 20
399.816
 30
0.000000
  70
    32
  0
VERTEX
  8
0
  5
35F5
 10
405.354
 20
399.833
 30
0.000000
  70
    32
  0
VERTEX
  8
0
  5
35F6
 10
405.370
 20
399.851
 30
0.000000
  70
    32
  0
VERTEX
  8
0
  5
35F7
 10
405.385
 20
399.868
 30
0.000000
  70
    32
  0
VERTEX
  8
0
  5
35F8
 10
405.401
 20
399.886
 30
0.000000
  70
    32
  0
VERTEX
  8
0
  5
35F9
 10
405.416
 20
399.903
 30
0.000000
  70
    32
  0
VERTEX
  8
0
  5
35FA
 10
405.432
 20
399.921
 30
0.000000
  70
    32
  0
VERTEX
  8
0
  5
35FB
 10
405.447
 20
399.938
 30
0.000000
  70
    32
  0
VERTEX
  8
0
  5
35FC
 10
405.463
 20
399.956
 30
0.000000
  70
    32
  0
VERTEX
  8
0
  5
35FD
 10
405.478
 20
399.973
 30
0.000000
  70
    32
  0
VERTEX
  8
0
  5
35FE
 10
405.494
 20
399.990
 30
0.000000
  70
    32
  0
VERTEX
  8
0
  5
35FF
 10
405.510
 20
400.008
 30
0.000000
  70
    32
  0
VERTEX
  8
0
  5
3600
 10
405.525
 20
400.025
 30
0.000000
  70
    32
  0
VERTEX
  8
0
  5
3601
 10
405.541
 20
400.042
 30
0.000000
  70
    32
  0
VERTEX
  8
0
  5
3602
 10
405.556
 20
400.060
 30
0.000000
  70
    32
  0
VERTEX
  8
0
  5
3603
 10
405.572
 20
400.077
 30
0.000000
  70
    32
  0
VERTEX
  8
0
  5
3604
 10
405.588
 20
400.094
 30
0.000000
  70
    32
  0
VERTEX
  8
0
  5
3605
 10
405.604
 20
400.111
 30
0.000000
  70
    32
  0
VERTEX
  8
0
  5
3606
 10
405.619
 20
400.128
 30
0.000000
  70
    32
  0
VERTEX
  8
0
  5
3607
 10
405.635
 20
400.145
 30
0.000000
  70
    32
  0
VERTEX
  8
0
  5
3608
 10
405.651
 20
400.162
 30
0.000000
  70
    32
  0
VERTEX
  8
0
  5
3609
 10
405.667
 20
400.179
 30
0.000000
  70
    32
  0
VERTEX
  8
0
  5
360A
 10
405.683
 20
400.196
 30
0.000000
  70
    32
  0
VERTEX
  8
0
  5
360B
 10
405.699
 20
400.213
 30
0.000000
  70
    32
  0
VERTEX
  8
0
  5
360C
 10
405.714
 20
400.230
 30
0.000000
  70
    32
  0
VERTEX
  8
0
  5
360D
 10
405.730
 20
400.246
 30
0.000000
  70
    32
  0
VERTEX
  8
0
  5
360E
 10
405.746
 20
400.263
 30
0.000000
  70
    32
  0
VERTEX
  8
0
  5
360F
 10
405.762
 20
400.279
 30
0.000000
  70
    32
  0
VERTEX
  8
0
  5
3610
 10
405.778
 20
400.296
 30
0.000000
  70
    32
  0
VERTEX
  8
0
  5
3611
 10
405.795
 20
400.313
 30
0.000000
  70
    32
  0
VERTEX
  8
0
  5
3612
 10
405.811
 20
400.329
 30
0.000000
  70
    32
  0
VERTEX
  8
0
  5
3613
 10
405.827
 20
400.345
 30
0.000000
  70
    32
  0
VERTEX
  8
0
  5
3614
 10
405.843
 20
400.362
 30
0.000000
  70
    32
  0
VERTEX
  8
0
  5
3615
 10
405.859
 20
400.378
 30
0.000000
  70
    32
  0
VERTEX
  8
0
  5
3616
 10
405.876
 20
400.394
 30
0.000000
  70
    32
  0
VERTEX
  8
0
  5
3617
 10
405.892
 20
400.410
 30
0.000000
  70
    32
  0
VERTEX
  8
0
  5
3618
 10
405.908
 20
400.426
 30
0.000000
  70
    32
  0
VERTEX
  8
0
  5
3619
 10
405.925
 20
400.442
 30
0.000000
  70
    32
  0
VERTEX
  8
0
  5
361A
 10
405.941
 20
400.458
 30
0.000000
  70
    32
  0
VERTEX
  8
0
  5
361B
 10
405.958
 20
400.474
 30
0.000000
  70
    32
  0
VERTEX
  8
0
  5
361C
 10
405.974
 20
400.489
 30
0.000000
  70
    32
  0
VERTEX
  8
0
  5
361D
 10
405.991
 20
400.505
 30
0.000000
  70
    32
  0
VERTEX
  8
0
  5
361E
 10
406.008
 20
400.520
 30
0.000000
  70
    32
  0
VERTEX
  8
0
  5
361F
 10
406.024
 20
400.536
 30
0.000000
  70
    32
  0
VERTEX
  8
0
  5
3620
 10
406.041
 20
400.551
 30
0.000000
  70
    32
  0
VERTEX
  8
0
  5
3621
 10
406.058
 20
400.566
 30
0.000000
  70
    32
  0
VERTEX
  8
0
  5
3622
 10
406.075
 20
400.582
 30
0.000000
  70
    32
  0
VERTEX
  8
0
  5
3623
 10
406.092
 20
400.597
 30
0.000000
  70
    32
  0
VERTEX
  8
0
  5
3624
 10
406.109
 20
400.612
 30
0.000000
  70
    32
  0
VERTEX
  8
0
  5
3625
 10
406.126
 20
400.626
 30
0.000000
  70
    32
  0
VERTEX
  8
0
  5
3626
 10
406.143
 20
400.641
 30
0.000000
  70
    32
  0
VERTEX
  8
0
  5
3627
 10
406.160
 20
400.656
 30
0.000000
  70
    32
  0
VERTEX
  8
0
  5
3628
 10
406.177
 20
400.671
 30
0.000000
  70
    32
  0
VERTEX
  8
0
  5
3629
 10
406.195
 20
400.685
 30
0.000000
  70
    32
  0
VERTEX
  8
0
  5
362A
 10
406.212
 20
400.699
 30
0.000000
  70
    32
  0
VERTEX
  8
0
  5
362B
 10
406.229
 20
400.714
 30
0.000000
  70
    32
  0
VERTEX
  8
0
  5
362C
 10
406.247
 20
400.728
 30
0.000000
  70
    32
  0
VERTEX
  8
0
  5
362D
 10
406.264
 20
400.742
 30
0.000000
  70
    32
  0
VERTEX
  8
0
  5
362E
 10
406.282
 20
400.756
 30
0.000000
  70
    32
  0
VERTEX
  8
0
  5
362F
 10
406.300
 20
400.770
 30
0.000000
  70
    32
  0
VERTEX
  8
0
  5
3630
 10
406.317
 20
400.783
 30
0.000000
  70
    32
  0
VERTEX
  8
0
  5
3631
 10
406.335
 20
400.797
 30
0.000000
  70
    32
  0
VERTEX
  8
0
  5
3632
 10
406.353
 20
400.810
 30
0.000000
  70
    32
  0
VERTEX
  8
0
  5
3633
 10
406.371
 20
400.824
 30
0.000000
  70
    32
  0
VERTEX
  8
0
  5
3634
 10
406.389
 20
400.837
 30
0.000000
  70
    32
  0
VERTEX
  8
0
  5
3635
 10
406.407
 20
400.850
 30
0.000000
  70
    32
  0
VERTEX
  8
0
  5
3636
 10
406.425
 20
400.863
 30
0.000000
  70
    32
  0
VERTEX
  8
0
  5
3637
 10
406.443
 20
400.876
 30
0.000000
  70
    32
  0
VERTEX
  8
0
  5
3638
 10
406.462
 20
400.889
 30
0.000000
  70
    32
  0
VERTEX
  8
0
  5
3639
 10
406.480
 20
400.901
 30
0.000000
  70
    32
  0
VERTEX
  8
0
  5
363A
 10
406.498
 20
400.914
 30
0.000000
  70
    32
  0
VERTEX
  8
0
  5
363B
 10
406.517
 20
400.926
 30
0.000000
  70
    32
  0
VERTEX
  8
0
  5
363C
 10
406.536
 20
400.938
 30
0.000000
  70
    32
  0
VERTEX
  8
0
  5
363D
 10
406.554
 20
400.950
 30
0.000000
  70
    32
  0
VERTEX
  8
0
  5
363E
 10
406.573
 20
400.962
 30
0.000000
  70
    32
  0
VERTEX
  8
0
  5
363F
 10
406.592
 20
400.974
 30
0.000000
  70
    32
  0
VERTEX
  8
0
  5
3640
 10
406.611
 20
400.986
 30
0.000000
  70
    32
  0
VERTEX
  8
0
  5
3641
 10
406.630
 20
400.997
 30
0.000000
  70
    32
  0
VERTEX
  8
0
  5
3642
 10
406.649
 20
401.008
 30
0.000000
  70
    32
  0
VERTEX
  8
0
  5
3643
 10
406.668
 20
401.020
 30
0.000000
  70
    32
  0
VERTEX
  8
0
  5
3644
 10
406.688
 20
401.031
 30
0.000000
  70
    32
  0
VERTEX
  8
0
  5
3645
 10
406.707
 20
401.042
 30
0.000000
  70
    32
  0
VERTEX
  8
0
  5
3646
 10
406.726
 20
401.052
 30
0.000000
  70
    32
  0
VERTEX
  8
0
  5
3647
 10
406.746
 20
401.063
 30
0.000000
  70
    32
  0
VERTEX
  8
0
  5
3648
 10
406.766
 20
401.073
 30
0.000000
  70
    32
  0
VERTEX
  8
0
  5
3649
 10
406.785
 20
401.084
 30
0.000000
  70
    32
  0
VERTEX
  8
0
  5
364A
 10
406.805
 20
401.094
 30
0.000000
  70
    32
  0
VERTEX
  8
0
  5
364B
 10
406.825
 20
401.104
 30
0.000000
  70
    32
  0
VERTEX
  8
0
  5
364C
 10
406.845
 20
401.114
 30
0.000000
  70
    32
  0
VERTEX
  8
0
  5
364D
 10
406.865
 20
401.123
 30
0.000000
  70
    32
  0
VERTEX
  8
0
  5
364E
 10
406.885
 20
401.133
 30
0.000000
  70
    32
  0
VERTEX
  8
0
  5
364F
 10
406.906
 20
401.142
 30
0.000000
  70
    32
  0
VERTEX
  8
0
  5
3650
 10
406.926
 20
401.152
 30
0.000000
  70
    32
  0
VERTEX
  8
0
  5
3651
 10
406.946
 20
401.161
 30
0.000000
  70
    32
  0
VERTEX
  8
0
  5
3652
 10
406.967
 20
401.170
 30
0.000000
  70
    32
  0
VERTEX
  8
0
  5
3653
 10
406.987
 20
401.179
 30
0.000000
  70
    32
  0
VERTEX
  8
0
  5
3654
 10
407.008
 20
401.188
 30
0.000000
  70
    32
  0
VERTEX
  8
0
  5
3655
 10
407.029
 20
401.196
 30
0.000000
  70
    32
  0
VERTEX
  8
0
  5
3656
 10
407.049
 20
401.205
 30
0.000000
  70
    32
  0
VERTEX
  8
0
  5
3657
 10
407.070
 20
401.213
 30
0.000000
  70
    32
  0
VERTEX
  8
0
  5
3658
 10
407.091
 20
401.222
 30
0.000000
  70
    32
  0
VERTEX
  8
0
  5
3659
 10
407.112
 20
401.230
 30
0.000000
  70
    32
  0
VERTEX
  8
0
  5
365A
 10
407.133
 20
401.238
 30
0.000000
  70
    32
  0
VERTEX
  8
0
  5
365B
 10
407.154
 20
401.246
 30
0.000000
  70
    32
  0
VERTEX
  8
0
  5
365C
 10
407.175
 20
401.254
 30
0.000000
  70
    32
  0
VERTEX
  8
0
  5
365D
 10
407.196
 20
401.262
 30
0.000000
  70
    32
  0
VERTEX
  8
0
  5
365E
 10
407.218
 20
401.269
 30
0.000000
  70
    32
  0
VERTEX
  8
0
  5
365F
 10
407.239
 20
401.277
 30
0.000000
  70
    32
  0
VERTEX
  8
0
  5
3660
 10
407.260
 20
401.284
 30
0.000000
  70
    32
  0
VERTEX
  8
0
  5
3661
 10
407.282
 20
401.292
 30
0.000000
  70
    32
  0
VERTEX
  8
0
  5
3662
 10
407.303
 20
401.299
 30
0.000000
  70
    32
  0
VERTEX
  8
0
  5
3663
 10
407.325
 20
401.306
 30
0.000000
  70
    32
  0
VERTEX
  8
0
  5
3664
 10
407.346
 20
401.314
 30
0.000000
  70
    32
  0
VERTEX
  8
0
  5
3665
 10
407.368
 20
401.321
 30
0.000000
  70
    32
  0
VERTEX
  8
0
  5
3666
 10
407.390
 20
401.328
 30
0.000000
  70
    32
  0
VERTEX
  8
0
  5
3667
 10
407.411
 20
401.334
 30
0.000000
  70
    32
  0
VERTEX
  8
0
  5
3668
 10
407.433
 20
401.341
 30
0.000000
  70
    32
  0
VERTEX
  8
0
  5
3669
 10
407.455
 20
401.348
 30
0.000000
  70
    32
  0
VERTEX
  8
0
  5
366A
 10
407.477
 20
401.355
 30
0.000000
  70
    32
  0
VERTEX
  8
0
  5
366B
 10
407.499
 20
401.361
 30
0.000000
  70
    32
  0
VERTEX
  8
0
  5
366C
 10
407.521
 20
401.368
 30
0.000000
  70
    32
  0
VERTEX
  8
0
  5
366D
 10
407.543
 20
401.374
 30
0.000000
  70
    32
  0
VERTEX
  8
0
  5
366E
 10
407.565
 20
401.380
 30
0.000000
  70
    32
  0
VERTEX
  8
0
  5
366F
 10
407.587
 20
401.387
 30
0.000000
  70
    32
  0
VERTEX
  8
0
  5
3670
 10
407.609
 20
401.393
 30
0.000000
  70
    32
  0
VERTEX
  8
0
  5
3671
 10
407.631
 20
401.399
 30
0.000000
  70
    32
  0
VERTEX
  8
0
  5
3672
 10
407.653
 20
401.405
 30
0.000000
  70
    32
  0
VERTEX
  8
0
  5
3673
 10
407.676
 20
401.411
 30
0.000000
  70
    32
  0
VERTEX
  8
0
  5
3674
 10
407.698
 20
401.417
 30
0.000000
  70
    32
  0
VERTEX
  8
0
  5
3675
 10
407.720
 20
401.423
 30
0.000000
  70
    32
  0
VERTEX
  8
0
  5
3676
 10
407.742
 20
401.429
 30
0.000000
  70
    32
  0
VERTEX
  8
0
  5
3677
 10
407.765
 20
401.435
 30
0.000000
  70
    32
  0
VERTEX
  8
0
  5
3678
 10
407.787
 20
401.441
 30
0.000000
  70
    32
  0
VERTEX
  8
0
  5
3679
 10
407.810
 20
401.447
 30
0.000000
  70
    32
  0
VERTEX
  8
0
  5
367A
 10
407.832
 20
401.452
 30
0.000000
  70
    32
  0
VERTEX
  8
0
  5
367B
 10
407.854
 20
401.458
 30
0.000000
  70
    32
  0
VERTEX
  8
0
  5
367C
 10
407.877
 20
401.464
 30
0.000000
  70
    32
  0
VERTEX
  8
0
  5
367D
 10
407.899
 20
401.469
 30
0.000000
  70
    32
  0
VERTEX
  8
0
  5
367E
 10
407.922
 20
401.475
 30
0.000000
  70
    32
  0
VERTEX
  8
0
  5
367F
 10
407.944
 20
401.481
 30
0.000000
  70
    32
  0
VERTEX
  8
0
  5
3680
 10
407.967
 20
401.486
 30
0.000000
  70
    32
  0
VERTEX
  8
0
  5
3681
 10
407.989
 20
401.492
 30
0.000000
  70
    32
  0
VERTEX
  8
0
  5
3682
 10
408.012
 20
401.497
 30
0.000000
  70
    32
  0
VERTEX
  8
0
  5
3683
 10
408.034
 20
401.503
 30
0.000000
  70
    32
  0
VERTEX
  8
0
  5
3684
 10
408.057
 20
401.508
 30
0.000000
  70
    32
  0
VERTEX
  8
0
  5
3685
 10
408.080
 20
401.514
 30
0.000000
  70
    32
  0
VERTEX
  8
0
  5
3686
 10
408.102
 20
401.519
 30
0.000000
  70
    32
  0
VERTEX
  8
0
  5
3687
 10
408.125
 20
401.525
 30
0.000000
  70
    32
  0
VERTEX
  8
0
  5
3688
 10
408.147
 20
401.530
 30
0.000000
  70
    32
  0
VERTEX
  8
0
  5
3689
 10
408.170
 20
401.535
 30
0.000000
  70
    32
  0
VERTEX
  8
0
  5
368A
 10
408.193
 20
401.541
 30
0.000000
  70
    32
  0
VERTEX
  8
0
  5
368B
 10
408.215
 20
401.546
 30
0.000000
  70
    32
  0
SEQEND
  8
0
  5
368C
  0
LINE
  5
2F76
  8
0
 10
414.81523419730752
 20
399.76836649840072
 30
0.0
 11
414.81523419730752
 21
401.54614349840068
 31
0.0
  0
CIRCLE
  5
2F77
  8
2
 10
418.81523419730752
 20
406.81836649840051
 30
0.0
 40
1.149999999999999
  0
CIRCLE
  5
2F78
  8
2
 10
418.81523419730752
 20
406.81836649840051
 30
0.0
 40
2.1000000000000001
  0
LINE
  5
2F79
  8
0
 10
414.81523419730752
 20
400.06836649840062
 30
0.0
 11
422.81523419730752
 21
400.06836649840062
 31
0.0
  0
LINE
  5
2F7A
  8
0
 10
414.81523419730752
 20
399.76836649840072
 30
0.0
 11
422.81523419730752
 21
399.76836649840072
 31
0.0
  0
CIRCLE
  5
2F7B
  8
2
 10
418.81523419730752
 20
421.11836649840052
 30
0.0
 40
1.149999999999999
  0
CIRCLE
  5
2F7C
  8
2
 10
418.81523419730752
 20
421.11836649840052
 30
0.0
 40
2.1000000000000001
  0
LINE
  5
2F7D
  8
2
 10
399.06523419730752
 20
409.9683664984006
 30
0.0
 11
399.06523419730752
 21
410.5318253129588
 31
0.0
  0
LINE
  5
2F7E
  8
0
 10
400.11523419730747
 20
412.56836649840062
 30
0.0
 11
400.11523419730747
 21
415.36836649840052
 31
0.0
  0
LINE
  5
2F7F
  8
2
 10
399.06523419730752
 20
417.9683664984006
 30
0.0
 11
409.06523419730752
 21
417.9683664984006
 31
0.0
  0
LINE
  5
2F80
  8
2
 10
399.06523419730752
 20
409.9683664984006
 30
0.0
 11
409.06523419730752
 21
409.9683664984006
 31
0.0
  0
CIRCLE
  5
2F81
  8
0
 10
467.36523419730759
 20
408.2183664984006
 30
0.0
 40
1.399999999999999
  0
CIRCLE
  5
2F82
  8
0
 10
462.61523419730747
 20
413.9683664984006
 30
0.0
 40
1.149999999999999
  0
CIRCLE
  5
2F83
  8
0
 10
462.61523419730747
 20
413.9683664984006
 30
0.0
 40
2.25
  0
CIRCLE
  5
2F84
  8
0
 10
467.36523419730759
 20
419.7183664984006
 30
0.0
 40
1.399999999999999
  0
LINE
  5
2F85
  8
2
 10
438.91523419730748
 20
408.81836649840062
 30
0.0
 11
438.91523419730748
 21
405.01836649840072
 31
0.0
  0
LINE
  5
2F86
  8
2
 10
436.91523419730748
 20
408.01836649840061
 30
0.0
 11
436.91523419730748
 21
405.81836649840062
 31
0.0
  0
LINE
  5
2F87
  8
2
 10
438.91523419730748
 20
419.11836649840058
 30
0.0
 11
438.91523419730748
 21
422.91836649840059
 31
0.0
  0
LINE
  5
2F88
  8
2
 10
436.91523419730748
 20
419.91836649840059
 30
0.0
 11
436.91523419730748
 21
422.11836649840052
 31
0.0
  0
LINE
  5
2F89
  8
0
 10
422.81523419730752
 20
428.16836649840059
 30
0.0
 11
422.81523419730752
 21
426.39059049840063
 31
0.0
  0
LINE
  5
2F8A
  8
0
 10
432.41523419730748
 20
428.26182849840052
 30
0.0
 11
432.41523419730748
 21
428.76182849840052
 31
0.0
  0
POLYLINE
  8
0
  5
368D
  66
     1
 10
0.000000
 20
0.000000
 30
0.000000
  70
     8
  0
VERTEX
  8
0
  5
368E
 10
432.415
 20
428.262
 30
0.000000
  70
    32
  0
VERTEX
  8
0
  5
368F
 10
432.400
 20
428.244
 30
0.000000
  70
    32
  0
VERTEX
  8
0
  5
3690
 10
432.384
 20
428.227
 30
0.000000
  70
    32
  0
VERTEX
  8
0
  5
3691
 10
432.369
 20
428.209
 30
0.000000
  70
    32
  0
VERTEX
  8
0
  5
3692
 10
432.354
 20
428.191
 30
0.000000
  70
    32
  0
VERTEX
  8
0
  5
3693
 10
432.338
 20
428.174
 30
0.000000
  70
    32
  0
VERTEX
  8
0
  5
3694
 10
432.323
 20
428.156
 30
0.000000
  70
    32
  0
VERTEX
  8
0
  5
3695
 10
432.307
 20
428.139
 30
0.000000
  70
    32
  0
VERTEX
  8
0
  5
3696
 10
432.292
 20
428.121
 30
0.000000
  70
    32
  0
VERTEX
  8
0
  5
3697
 10
432.276
 20
428.103
 30
0.000000
  70
    32
  0
VERTEX
  8
0
  5
3698
 10
432.261
 20
428.086
 30
0.000000
  70
    32
  0
VERTEX
  8
0
  5
3699
 10
432.245
 20
428.068
 30
0.000000
  70
    32
  0
VERTEX
  8
0
  5
369A
 10
432.230
 20
428.051
 30
0.000000
  70
    32
  0
VERTEX
  8
0
  5
369B
 10
432.214
 20
428.033
 30
0.000000
  70
    32
  0
VERTEX
  8
0
  5
369C
 10
432.199
 20
428.016
 30
0.000000
  70
    32
  0
VERTEX
  8
0
  5
369D
 10
432.183
 20
427.998
 30
0.000000
  70
    32
  0
VERTEX
  8
0
  5
369E
 10
432.168
 20
427.981
 30
0.000000
  70
    32
  0
VERTEX
  8
0
  5
369F
 10
432.152
 20
427.964
 30
0.000000
  70
    32
  0
VERTEX
  8
0
  5
36A0
 10
432.137
 20
427.946
 30
0.000000
  70
    32
  0
VERTEX
  8
0
  5
36A1
 10
432.121
 20
427.929
 30
0.000000
  70
    32
  0
VERTEX
  8
0
  5
36A2
 10
432.105
 20
427.912
 30
0.000000
  70
    32
  0
VERTEX
  8
0
  5
36A3
 10
432.090
 20
427.894
 30
0.000000
  70
    32
  0
VERTEX
  8
0
  5
36A4
 10
432.074
 20
427.877
 30
0.000000
  70
    32
  0
VERTEX
  8
0
  5
36A5
 10
432.058
 20
427.860
 30
0.000000
  70
    32
  0
VERTEX
  8
0
  5
36A6
 10
432.043
 20
427.843
 30
0.000000
  70
    32
  0
VERTEX
  8
0
  5
36A7
 10
432.027
 20
427.826
 30
0.000000
  70
    32
  0
VERTEX
  8
0
  5
36A8
 10
432.011
 20
427.809
 30
0.000000
  70
    32
  0
VERTEX
  8
0
  5
36A9
 10
431.995
 20
427.792
 30
0.000000
  70
    32
  0
VERTEX
  8
0
  5
36AA
 10
431.980
 20
427.775
 30
0.000000
  70
    32
  0
VERTEX
  8
0
  5
36AB
 10
431.964
 20
427.758
 30
0.000000
  70
    32
  0
VERTEX
  8
0
  5
36AC
 10
431.948
 20
427.741
 30
0.000000
  70
    32
  0
VERTEX
  8
0
  5
36AD
 10
431.932
 20
427.724
 30
0.000000
  70
    32
  0
VERTEX
  8
0
  5
36AE
 10
431.916
 20
427.707
 30
0.000000
  70
    32
  0
VERTEX
  8
0
  5
36AF
 10
431.900
 20
427.691
 30
0.000000
  70
    32
  0
VERTEX
  8
0
  5
36B0
 10
431.884
 20
427.674
 30
0.000000
  70
    32
  0
VERTEX
  8
0
  5
36B1
 10
431.868
 20
427.657
 30
0.000000
  70
    32
  0
VERTEX
  8
0
  5
36B2
 10
431.852
 20
427.641
 30
0.000000
  70
    32
  0
VERTEX
  8
0
  5
36B3
 10
431.836
 20
427.624
 30
0.000000
  70
    32
  0
VERTEX
  8
0
  5
36B4
 10
431.820
 20
427.608
 30
0.000000
  70
    32
  0
VERTEX
  8
0
  5
36B5
 10
431.804
 20
427.591
 30
0.000000
  70
    32
  0
VERTEX
  8
0
  5
36B6
 10
431.787
 20
427.575
 30
0.000000
  70
    32
  0
VERTEX
  8
0
  5
36B7
 10
431.771
 20
427.559
 30
0.000000
  70
    32
  0
VERTEX
  8
0
  5
36B8
 10
431.755
 20
427.543
 30
0.000000
  70
    32
  0
VERTEX
  8
0
  5
36B9
 10
431.738
 20
427.527
 30
0.000000
  70
    32
  0
VERTEX
  8
0
  5
36BA
 10
431.722
 20
427.511
 30
0.000000
  70
    32
  0
VERTEX
  8
0
  5
36BB
 10
431.706
 20
427.495
 30
0.000000
  70
    32
  0
VERTEX
  8
0
  5
36BC
 10
431.689
 20
427.479
 30
0.000000
  70
    32
  0
VERTEX
  8
0
  5
36BD
 10
431.673
 20
427.463
 30
0.000000
  70
    32
  0
VERTEX
  8
0
  5
36BE
 10
431.656
 20
427.448
 30
0.000000
  70
    32
  0
VERTEX
  8
0
  5
36BF
 10
431.639
 20
427.432
 30
0.000000
  70
    32
  0
VERTEX
  8
0
  5
36C0
 10
431.623
 20
427.416
 30
0.000000
  70
    32
  0
VERTEX
  8
0
  5
36C1
 10
431.606
 20
427.401
 30
0.000000
  70
    32
  0
VERTEX
  8
0
  5
36C2
 10
431.589
 20
427.386
 30
0.000000
  70
    32
  0
VERTEX
  8
0
  5
36C3
 10
431.573
 20
427.370
 30
0.000000
  70
    32
  0
VERTEX
  8
0
  5
36C4
 10
431.556
 20
427.355
 30
0.000000
  70
    32
  0
VERTEX
  8
0
  5
36C5
 10
431.539
 20
427.340
 30
0.000000
  70
    32
  0
VERTEX
  8
0
  5
36C6
 10
431.522
 20
427.325
 30
0.000000
  70
    32
  0
VERTEX
  8
0
  5
36C7
 10
431.505
 20
427.310
 30
0.000000
  70
    32
  0
VERTEX
  8
0
  5
36C8
 10
431.488
 20
427.295
 30
0.000000
  70
    32
  0
VERTEX
  8
0
  5
36C9
 10
431.470
 20
427.281
 30
0.000000
  70
    32
  0
VERTEX
  8
0
  5
36CA
 10
431.453
 20
427.266
 30
0.000000
  70
    32
  0
VERTEX
  8
0
  5
36CB
 10
431.436
 20
427.252
 30
0.000000
  70
    32
  0
VERTEX
  8
0
  5
36CC
 10
431.419
 20
427.237
 30
0.000000
  70
    32
  0
VERTEX
  8
0
  5
36CD
 10
431.401
 20
427.223
 30
0.000000
  70
    32
  0
VERTEX
  8
0
  5
36CE
 10
431.384
 20
427.209
 30
0.000000
  70
    32
  0
VERTEX
  8
0
  5
36CF
 10
431.366
 20
427.195
 30
0.000000
  70
    32
  0
VERTEX
  8
0
  5
36D0
 10
431.349
 20
427.181
 30
0.000000
  70
    32
  0
VERTEX
  8
0
  5
36D1
 10
431.331
 20
427.167
 30
0.000000
  70
    32
  0
VERTEX
  8
0
  5
36D2
 10
431.313
 20
427.153
 30
0.000000
  70
    32
  0
VERTEX
  8
0
  5
36D3
 10
431.295
 20
427.140
 30
0.000000
  70
    32
  0
VERTEX
  8
0
  5
36D4
 10
431.278
 20
427.126
 30
0.000000
  70
    32
  0
VERTEX
  8
0
  5
36D5
 10
431.260
 20
427.113
 30
0.000000
  70
    32
  0
VERTEX
  8
0
  5
36D6
 10
431.242
 20
427.100
 30
0.000000
  70
    32
  0
VERTEX
  8
0
  5
36D7
 10
431.224
 20
427.087
 30
0.000000
  70
    32
  0
VERTEX
  8
0
  5
36D8
 10
431.205
 20
427.074
 30
0.000000
  70
    32
  0
VERTEX
  8
0
  5
36D9
 10
431.187
 20
427.061
 30
0.000000
  70
    32
  0
VERTEX
  8
0
  5
36DA
 10
431.169
 20
427.048
 30
0.000000
  70
    32
  0
VERTEX
  8
0
  5
36DB
 10
431.150
 20
427.036
 30
0.000000
  70
    32
  0
VERTEX
  8
0
  5
36DC
 10
431.132
 20
427.023
 30
0.000000
  70
    32
  0
VERTEX
  8
0
  5
36DD
 10
431.113
 20
427.011
 30
0.000000
  70
    32
  0
VERTEX
  8
0
  5
36DE
 10
431.095
 20
426.999
 30
0.000000
  70
    32
  0
VERTEX
  8
0
  5
36DF
 10
431.076
 20
426.986
 30
0.000000
  70
    32
  0
VERTEX
  8
0
  5
36E0
 10
431.057
 20
426.975
 30
0.000000
  70
    32
  0
VERTEX
  8
0
  5
36E1
 10
431.039
 20
426.963
 30
0.000000
  70
    32
  0
VERTEX
  8
0
  5
36E2
 10
431.020
 20
426.951
 30
0.000000
  70
    32
  0
VERTEX
  8
0
  5
36E3
 10
431.001
 20
426.940
 30
0.000000
  70
    32
  0
VERTEX
  8
0
  5
36E4
 10
430.981
 20
426.928
 30
0.000000
  70
    32
  0
VERTEX
  8
0
  5
36E5
 10
430.962
 20
426.917
 30
0.000000
  70
    32
  0
VERTEX
  8
0
  5
36E6
 10
430.943
 20
426.906
 30
0.000000
  70
    32
  0
VERTEX
  8
0
  5
36E7
 10
430.924
 20
426.895
 30
0.000000
  70
    32
  0
VERTEX
  8
0
  5
36E8
 10
430.904
 20
426.884
 30
0.000000
  70
    32
  0
VERTEX
  8
0
  5
36E9
 10
430.884
 20
426.874
 30
0.000000
  70
    32
  0
VERTEX
  8
0
  5
36EA
 10
430.865
 20
426.863
 30
0.000000
  70
    32
  0
VERTEX
  8
0
  5
36EB
 10
430.845
 20
426.853
 30
0.000000
  70
    32
  0
VERTEX
  8
0
  5
36EC
 10
430.825
 20
426.843
 30
0.000000
  70
    32
  0
VERTEX
  8
0
  5
36ED
 10
430.805
 20
426.833
 30
0.000000
  70
    32
  0
VERTEX
  8
0
  5
36EE
 10
430.785
 20
426.823
 30
0.000000
  70
    32
  0
VERTEX
  8
0
  5
36EF
 10
430.765
 20
426.813
 30
0.000000
  70
    32
  0
VERTEX
  8
0
  5
36F0
 10
430.745
 20
426.804
 30
0.000000
  70
    32
  0
VERTEX
  8
0
  5
36F1
 10
430.725
 20
426.794
 30
0.000000
  70
    32
  0
VERTEX
  8
0
  5
36F2
 10
430.705
 20
426.785
 30
0.000000
  70
    32
  0
VERTEX
  8
0
  5
36F3
 10
430.684
 20
426.776
 30
0.000000
  70
    32
  0
VERTEX
  8
0
  5
36F4
 10
430.664
 20
426.767
 30
0.000000
  70
    32
  0
VERTEX
  8
0
  5
36F5
 10
430.643
 20
426.758
 30
0.000000
  70
    32
  0
VERTEX
  8
0
  5
36F6
 10
430.623
 20
426.749
 30
0.000000
  70
    32
  0
VERTEX
  8
0
  5
36F7
 10
430.602
 20
426.740
 30
0.000000
  70
    32
  0
VERTEX
  8
0
  5
36F8
 10
430.581
 20
426.732
 30
0.000000
  70
    32
  0
VERTEX
  8
0
  5
36F9
 10
430.560
 20
426.723
 30
0.000000
  70
    32
  0
VERTEX
  8
0
  5
36FA
 10
430.539
 20
426.715
 30
0.000000
  70
    32
  0
VERTEX
  8
0
  5
36FB
 10
430.519
 20
426.707
 30
0.000000
  70
    32
  0
VERTEX
  8
0
  5
36FC
 10
430.498
 20
426.699
 30
0.000000
  70
    32
  0
VERTEX
  8
0
  5
36FD
 10
430.476
 20
426.691
 30
0.000000
  70
    32
  0
VERTEX
  8
0
  5
36FE
 10
430.455
 20
426.683
 30
0.000000
  70
    32
  0
VERTEX
  8
0
  5
36FF
 10
430.434
 20
426.675
 30
0.000000
  70
    32
  0
VERTEX
  8
0
  5
3700
 10
430.413
 20
426.667
 30
0.000000
  70
    32
  0
VERTEX
  8
0
  5
3701
 10
430.392
 20
426.660
 30
0.000000
  70
    32
  0
VERTEX
  8
0
  5
3702
 10
430.370
 20
426.652
 30
0.000000
  70
    32
  0
VERTEX
  8
0
  5
3703
 10
430.349
 20
426.645
 30
0.000000
  70
    32
  0
VERTEX
  8
0
  5
3704
 10
430.327
 20
426.638
 30
0.000000
  70
    32
  0
VERTEX
  8
0
  5
3705
 10
430.306
 20
426.630
 30
0.000000
  70
    32
  0
VERTEX
  8
0
  5
3706
 10
430.284
 20
426.623
 30
0.000000
  70
    32
  0
VERTEX
  8
0
  5
3707
 10
430.262
 20
426.616
 30
0.000000
  70
    32
  0
VERTEX
  8
0
  5
3708
 10
430.241
 20
426.609
 30
0.000000
  70
    32
  0
VERTEX
  8
0
  5
3709
 10
430.219
 20
426.602
 30
0.000000
  70
    32
  0
VERTEX
  8
0
  5
370A
 10
430.197
 20
426.596
 30
0.000000
  70
    32
  0
VERTEX
  8
0
  5
370B
 10
430.175
 20
426.589
 30
0.000000
  70
    32
  0
VERTEX
  8
0
  5
370C
 10
430.153
 20
426.582
 30
0.000000
  70
    32
  0
VERTEX
  8
0
  5
370D
 10
430.132
 20
426.576
 30
0.000000
  70
    32
  0
VERTEX
  8
0
  5
370E
 10
430.110
 20
426.569
 30
0.000000
  70
    32
  0
VERTEX
  8
0
  5
370F
 10
430.088
 20
426.563
 30
0.000000
  70
    32
  0
VERTEX
  8
0
  5
3710
 10
430.066
 20
426.556
 30
0.000000
  70
    32
  0
VERTEX
  8
0
  5
3711
 10
430.043
 20
426.550
 30
0.000000
  70
    32
  0
VERTEX
  8
0
  5
3712
 10
430.021
 20
426.544
 30
0.000000
  70
    32
  0
VERTEX
  8
0
  5
3713
 10
429.999
 20
426.538
 30
0.000000
  70
    32
  0
VERTEX
  8
0
  5
3714
 10
429.977
 20
426.531
 30
0.000000
  70
    32
  0
VERTEX
  8
0
  5
3715
 10
429.955
 20
426.525
 30
0.000000
  70
    32
  0
VERTEX
  8
0
  5
3716
 10
429.933
 20
426.519
 30
0.000000
  70
    32
  0
VERTEX
  8
0
  5
3717
 10
429.910
 20
426.513
 30
0.000000
  70
    32
  0
VERTEX
  8
0
  5
3718
 10
429.888
 20
426.507
 30
0.000000
  70
    32
  0
VERTEX
  8
0
  5
3719
 10
429.866
 20
426.502
 30
0.000000
  70
    32
  0
VERTEX
  8
0
  5
371A
 10
429.843
 20
426.496
 30
0.000000
  70
    32
  0
VERTEX
  8
0
  5
371B
 10
429.821
 20
426.490
 30
0.000000
  70
    32
  0
VERTEX
  8
0
  5
371C
 10
429.798
 20
426.484
 30
0.000000
  70
    32
  0
VERTEX
  8
0
  5
371D
 10
429.776
 20
426.479
 30
0.000000
  70
    32
  0
VERTEX
  8
0
  5
371E
 10
429.754
 20
426.473
 30
0.000000
  70
    32
  0
VERTEX
  8
0
  5
371F
 10
429.731
 20
426.467
 30
0.000000
  70
    32
  0
VERTEX
  8
0
  5
3720
 10
429.709
 20
426.462
 30
0.000000
  70
    32
  0
VERTEX
  8
0
  5
3721
 10
429.686
 20
426.456
 30
0.000000
  70
    32
  0
VERTEX
  8
0
  5
3722
 10
429.664
 20
426.451
 30
0.000000
  70
    32
  0
VERTEX
  8
0
  5
3723
 10
429.641
 20
426.445
 30
0.000000
  70
    32
  0
VERTEX
  8
0
  5
3724
 10
429.619
 20
426.439
 30
0.000000
  70
    32
  0
VERTEX
  8
0
  5
3725
 10
429.596
 20
426.434
 30
0.000000
  70
    32
  0
VERTEX
  8
0
  5
3726
 10
429.573
 20
426.429
 30
0.000000
  70
    32
  0
VERTEX
  8
0
  5
3727
 10
429.551
 20
426.423
 30
0.000000
  70
    32
  0
VERTEX
  8
0
  5
3728
 10
429.528
 20
426.418
 30
0.000000
  70
    32
  0
VERTEX
  8
0
  5
3729
 10
429.506
 20
426.412
 30
0.000000
  70
    32
  0
VERTEX
  8
0
  5
372A
 10
429.483
 20
426.407
 30
0.000000
  70
    32
  0
VERTEX
  8
0
  5
372B
 10
429.460
 20
426.401
 30
0.000000
  70
    32
  0
VERTEX
  8
0
  5
372C
 10
429.438
 20
426.396
 30
0.000000
  70
    32
  0
VERTEX
  8
0
  5
372D
 10
429.415
 20
426.391
 30
0.000000
  70
    32
  0
SEQEND
  8
0
  5
372E
  0
LINE
  5
2F8C
  8
0
 10
405.21523419730761
 20
428.26182849840052
 30
0.0
 11
405.21523419730761
 21
428.76182849840052
 31
0.0
  0
POLYLINE
  8
0
  5
372F
  66
     1
 10
0.000000
 20
0.000000
 30
0.000000
  70
     8
  0
VERTEX
  8
0
  5
3730
 10
405.215
 20
428.262
 30
0.000000
  70
    32
  0
VERTEX
  8
0
  5
3731
 10
405.231
 20
428.244
 30
0.000000
  70
    32
  0
VERTEX
  8
0
  5
3732
 10
405.246
 20
428.227
 30
0.000000
  70
    32
  0
VERTEX
  8
0
  5
3733
 10
405.262
 20
428.209
 30
0.000000
  70
    32
  0
VERTEX
  8
0
  5
3734
 10
405.277
 20
428.191
 30
0.000000
  70
    32
  0
VERTEX
  8
0
  5
3735
 10
405.292
 20
428.174
 30
0.000000
  70
    32
  0
VERTEX
  8
0
  5
3736
 10
405.308
 20
428.156
 30
0.000000
  70
    32
  0
VERTEX
  8
0
  5
3737
 10
405.323
 20
428.139
 30
0.000000
  70
    32
  0
VERTEX
  8
0
  5
3738
 10
405.339
 20
428.121
 30
0.000000
  70
    32
  0
VERTEX
  8
0
  5
3739
 10
405.354
 20
428.103
 30
0.000000
  70
    32
  0
VERTEX
  8
0
  5
373A
 10
405.370
 20
428.086
 30
0.000000
  70
    32
  0
VERTEX
  8
0
  5
373B
 10
405.385
 20
428.068
 30
0.000000
  70
    32
  0
VERTEX
  8
0
  5
373C
 10
405.401
 20
428.051
 30
0.000000
  70
    32
  0
VERTEX
  8
0
  5
373D
 10
405.416
 20
428.033
 30
0.000000
  70
    32
  0
VERTEX
  8
0
  5
373E
 10
405.432
 20
428.016
 30
0.000000
  70
    32
  0
VERTEX
  8
0
  5
373F
 10
405.447
 20
427.998
 30
0.000000
  70
    32
  0
VERTEX
  8
0
  5
3740
 10
405.463
 20
427.981
 30
0.000000
  70
    32
  0
VERTEX
  8
0
  5
3741
 10
405.478
 20
427.964
 30
0.000000
  70
    32
  0
VERTEX
  8
0
  5
3742
 10
405.494
 20
427.946
 30
0.000000
  70
    32
  0
VERTEX
  8
0
  5
3743
 10
405.510
 20
427.929
 30
0.000000
  70
    32
  0
VERTEX
  8
0
  5
3744
 10
405.525
 20
427.912
 30
0.000000
  70
    32
  0
VERTEX
  8
0
  5
3745
 10
405.541
 20
427.894
 30
0.000000
  70
    32
  0
VERTEX
  8
0
  5
3746
 10
405.556
 20
427.877
 30
0.000000
  70
    32
  0
VERTEX
  8
0
  5
3747
 10
405.572
 20
427.860
 30
0.000000
  70
    32
  0
VERTEX
  8
0
  5
3748
 10
405.588
 20
427.843
 30
0.000000
  70
    32
  0
VERTEX
  8
0
  5
3749
 10
405.604
 20
427.826
 30
0.000000
  70
    32
  0
VERTEX
  8
0
  5
374A
 10
405.619
 20
427.809
 30
0.000000
  70
    32
  0
VERTEX
  8
0
  5
374B
 10
405.635
 20
427.792
 30
0.000000
  70
    32
  0
VERTEX
  8
0
  5
374C
 10
405.651
 20
427.775
 30
0.000000
  70
    32
  0
VERTEX
  8
0
  5
374D
 10
405.667
 20
427.758
 30
0.000000
  70
    32
  0
VERTEX
  8
0
  5
374E
 10
405.683
 20
427.741
 30
0.000000
  70
    32
  0
VERTEX
  8
0
  5
374F
 10
405.699
 20
427.724
 30
0.000000
  70
    32
  0
VERTEX
  8
0
  5
3750
 10
405.714
 20
427.707
 30
0.000000
  70
    32
  0
VERTEX
  8
0
  5
3751
 10
405.730
 20
427.691
 30
0.000000
  70
    32
  0
VERTEX
  8
0
  5
3752
 10
405.746
 20
427.674
 30
0.000000
  70
    32
  0
VERTEX
  8
0
  5
3753
 10
405.762
 20
427.657
 30
0.000000
  70
    32
  0
VERTEX
  8
0
  5
3754
 10
405.778
 20
427.641
 30
0.000000
  70
    32
  0
VERTEX
  8
0
  5
3755
 10
405.795
 20
427.624
 30
0.000000
  70
    32
  0
VERTEX
  8
0
  5
3756
 10
405.811
 20
427.608
 30
0.000000
  70
    32
  0
VERTEX
  8
0
  5
3757
 10
405.827
 20
427.591
 30
0.000000
  70
    32
  0
VERTEX
  8
0
  5
3758
 10
405.843
 20
427.575
 30
0.000000
  70
    32
  0
VERTEX
  8
0
  5
3759
 10
405.859
 20
427.559
 30
0.000000
  70
    32
  0
VERTEX
  8
0
  5
375A
 10
405.876
 20
427.543
 30
0.000000
  70
    32
  0
VERTEX
  8
0
  5
375B
 10
405.892
 20
427.527
 30
0.000000
  70
    32
  0
VERTEX
  8
0
  5
375C
 10
405.908
 20
427.511
 30
0.000000
  70
    32
  0
VERTEX
  8
0
  5
375D
 10
405.925
 20
427.495
 30
0.000000
  70
    32
  0
VERTEX
  8
0
  5
375E
 10
405.941
 20
427.479
 30
0.000000
  70
    32
  0
VERTEX
  8
0
  5
375F
 10
405.958
 20
427.463
 30
0.000000
  70
    32
  0
VERTEX
  8
0
  5
3760
 10
405.974
 20
427.448
 30
0.000000
  70
    32
  0
VERTEX
  8
0
  5
3761
 10
405.991
 20
427.432
 30
0.000000
  70
    32
  0
VERTEX
  8
0
  5
3762
 10
406.008
 20
427.416
 30
0.000000
  70
    32
  0
VERTEX
  8
0
  5
3763
 10
406.024
 20
427.401
 30
0.000000
  70
    32
  0
VERTEX
  8
0
  5
3764
 10
406.041
 20
427.386
 30
0.000000
  70
    32
  0
VERTEX
  8
0
  5
3765
 10
406.058
 20
427.370
 30
0.000000
  70
    32
  0
VERTEX
  8
0
  5
3766
 10
406.075
 20
427.355
 30
0.000000
  70
    32
  0
VERTEX
  8
0
  5
3767
 10
406.092
 20
427.340
 30
0.000000
  70
    32
  0
VERTEX
  8
0
  5
3768
 10
406.109
 20
427.325
 30
0.000000
  70
    32
  0
VERTEX
  8
0
  5
3769
 10
406.126
 20
427.310
 30
0.000000
  70
    32
  0
VERTEX
  8
0
  5
376A
 10
406.143
 20
427.295
 30
0.000000
  70
    32
  0
VERTEX
  8
0
  5
376B
 10
406.160
 20
427.281
 30
0.000000
  70
    32
  0
VERTEX
  8
0
  5
376C
 10
406.177
 20
427.266
 30
0.000000
  70
    32
  0
VERTEX
  8
0
  5
376D
 10
406.195
 20
427.252
 30
0.000000
  70
    32
  0
VERTEX
  8
0
  5
376E
 10
406.212
 20
427.237
 30
0.000000
  70
    32
  0
VERTEX
  8
0
  5
376F
 10
406.229
 20
427.223
 30
0.000000
  70
    32
  0
VERTEX
  8
0
  5
3770
 10
406.247
 20
427.209
 30
0.000000
  70
    32
  0
VERTEX
  8
0
  5
3771
 10
406.264
 20
427.195
 30
0.000000
  70
    32
  0
VERTEX
  8
0
  5
3772
 10
406.282
 20
427.181
 30
0.000000
  70
    32
  0
VERTEX
  8
0
  5
3773
 10
406.300
 20
427.167
 30
0.000000
  70
    32
  0
VERTEX
  8
0
  5
3774
 10
406.317
 20
427.153
 30
0.000000
  70
    32
  0
VERTEX
  8
0
  5
3775
 10
406.335
 20
427.140
 30
0.000000
  70
    32
  0
VERTEX
  8
0
  5
3776
 10
406.353
 20
427.126
 30
0.000000
  70
    32
  0
VERTEX
  8
0
  5
3777
 10
406.371
 20
427.113
 30
0.000000
  70
    32
  0
VERTEX
  8
0
  5
3778
 10
406.389
 20
427.100
 30
0.000000
  70
    32
  0
VERTEX
  8
0
  5
3779
 10
406.407
 20
427.087
 30
0.000000
  70
    32
  0
VERTEX
  8
0
  5
377A
 10
406.425
 20
427.074
 30
0.000000
  70
    32
  0
VERTEX
  8
0
  5
377B
 10
406.443
 20
427.061
 30
0.000000
  70
    32
  0
VERTEX
  8
0
  5
377C
 10
406.462
 20
427.048
 30
0.000000
  70
    32
  0
VERTEX
  8
0
  5
377D
 10
406.480
 20
427.036
 30
0.000000
  70
    32
  0
VERTEX
  8
0
  5
377E
 10
406.498
 20
427.023
 30
0.000000
  70
    32
  0
VERTEX
  8
0
  5
377F
 10
406.517
 20
427.011
 30
0.000000
  70
    32
  0
VERTEX
  8
0
  5
3780
 10
406.536
 20
426.999
 30
0.000000
  70
    32
  0
VERTEX
  8
0
  5
3781
 10
406.554
 20
426.986
 30
0.000000
  70
    32
  0
VERTEX
  8
0
  5
3782
 10
406.573
 20
426.975
 30
0.000000
  70
    32
  0
VERTEX
  8
0
  5
3783
 10
406.592
 20
426.963
 30
0.000000
  70
    32
  0
VERTEX
  8
0
  5
3784
 10
406.611
 20
426.951
 30
0.000000
  70
    32
  0
VERTEX
  8
0
  5
3785
 10
406.630
 20
426.940
 30
0.000000
  70
    32
  0
VERTEX
  8
0
  5
3786
 10
406.649
 20
426.928
 30
0.000000
  70
    32
  0
VERTEX
  8
0
  5
3787
 10
406.668
 20
426.917
 30
0.000000
  70
    32
  0
VERTEX
  8
0
  5
3788
 10
406.688
 20
426.906
 30
0.000000
  70
    32
  0
VERTEX
  8
0
  5
3789
 10
406.707
 20
426.895
 30
0.000000
  70
    32
  0
VERTEX
  8
0
  5
378A
 10
406.726
 20
426.884
 30
0.000000
  70
    32
  0
VERTEX
  8
0
  5
378B
 10
406.746
 20
426.874
 30
0.000000
  70
    32
  0
VERTEX
  8
0
  5
378C
 10
406.766
 20
426.863
 30
0.000000
  70
    32
  0
VERTEX
  8
0
  5
378D
 10
406.785
 20
426.853
 30
0.000000
  70
    32
  0
VERTEX
  8
0
  5
378E
 10
406.805
 20
426.843
 30
0.000000
  70
    32
  0
VERTEX
  8
0
  5
378F
 10
406.825
 20
426.833
 30
0.000000
  70
    32
  0
VERTEX
  8
0
  5
3790
 10
406.845
 20
426.823
 30
0.000000
  70
    32
  0
VERTEX
  8
0
  5
3791
 10
406.865
 20
426.813
 30
0.000000
  70
    32
  0
VERTEX
  8
0
  5
3792
 10
406.885
 20
426.804
 30
0.000000
  70
    32
  0
VERTEX
  8
0
  5
3793
 10
406.906
 20
426.794
 30
0.000000
  70
    32
  0
VERTEX
  8
0
  5
3794
 10
406.926
 20
426.785
 30
0.000000
  70
    32
  0
VERTEX
  8
0
  5
3795
 10
406.946
 20
426.776
 30
0.000000
  70
    32
  0
VERTEX
  8
0
  5
3796
 10
406.967
 20
426.767
 30
0.000000
  70
    32
  0
VERTEX
  8
0
  5
3797
 10
406.987
 20
426.758
 30
0.000000
  70
    32
  0
VERTEX
  8
0
  5
3798
 10
407.008
 20
426.749
 30
0.000000
  70
    32
  0
VERTEX
  8
0
  5
3799
 10
407.029
 20
426.740
 30
0.000000
  70
    32
  0
VERTEX
  8
0
  5
379A
 10
407.049
 20
426.732
 30
0.000000
  70
    32
  0
VERTEX
  8
0
  5
379B
 10
407.070
 20
426.723
 30
0.000000
  70
    32
  0
VERTEX
  8
0
  5
379C
 10
407.091
 20
426.715
 30
0.000000
  70
    32
  0
VERTEX
  8
0
  5
379D
 10
407.112
 20
426.707
 30
0.000000
  70
    32
  0
VERTEX
  8
0
  5
379E
 10
407.133
 20
426.699
 30
0.000000
  70
    32
  0
VERTEX
  8
0
  5
379F
 10
407.154
 20
426.691
 30
0.000000
  70
    32
  0
VERTEX
  8
0
  5
37A0
 10
407.175
 20
426.683
 30
0.000000
  70
    32
  0
VERTEX
  8
0
  5
37A1
 10
407.196
 20
426.675
 30
0.000000
  70
    32
  0
VERTEX
  8
0
  5
37A2
 10
407.218
 20
426.667
 30
0.000000
  70
    32
  0
VERTEX
  8
0
  5
37A3
 10
407.239
 20
426.660
 30
0.000000
  70
    32
  0
VERTEX
  8
0
  5
37A4
 10
407.260
 20
426.652
 30
0.000000
  70
    32
  0
VERTEX
  8
0
  5
37A5
 10
407.282
 20
426.645
 30
0.000000
  70
    32
  0
VERTEX
  8
0
  5
37A6
 10
407.303
 20
426.638
 30
0.000000
  70
    32
  0
VERTEX
  8
0
  5
37A7
 10
407.325
 20
426.630
 30
0.000000
  70
    32
  0
VERTEX
  8
0
  5
37A8
 10
407.346
 20
426.623
 30
0.000000
  70
    32
  0
VERTEX
  8
0
  5
37A9
 10
407.368
 20
426.616
 30
0.000000
  70
    32
  0
VERTEX
  8
0
  5
37AA
 10
407.390
 20
426.609
 30
0.000000
  70
    32
  0
VERTEX
  8
0
  5
37AB
 10
407.411
 20
426.602
 30
0.000000
  70
    32
  0
VERTEX
  8
0
  5
37AC
 10
407.433
 20
426.596
 30
0.000000
  70
    32
  0
VERTEX
  8
0
  5
37AD
 10
407.455
 20
426.589
 30
0.000000
  70
    32
  0
VERTEX
  8
0
  5
37AE
 10
407.477
 20
426.582
 30
0.000000
  70
    32
  0
VERTEX
  8
0
  5
37AF
 10
407.499
 20
426.576
 30
0.000000
  70
    32
  0
VERTEX
  8
0
  5
37B0
 10
407.521
 20
426.569
 30
0.000000
  70
    32
  0
VERTEX
  8
0
  5
37B1
 10
407.543
 20
426.563
 30
0.000000
  70
    32
  0
VERTEX
  8
0
  5
37B2
 10
407.565
 20
426.556
 30
0.000000
  70
    32
  0
VERTEX
  8
0
  5
37B3
 10
407.587
 20
426.550
 30
0.000000
  70
    32
  0
VERTEX
  8
0
  5
37B4
 10
407.609
 20
426.544
 30
0.000000
  70
    32
  0
VERTEX
  8
0
  5
37B5
 10
407.631
 20
426.538
 30
0.000000
  70
    32
  0
VERTEX
  8
0
  5
37B6
 10
407.653
 20
426.531
 30
0.000000
  70
    32
  0
VERTEX
  8
0
  5
37B7
 10
407.676
 20
426.525
 30
0.000000
  70
    32
  0
VERTEX
  8
0
  5
37B8
 10
407.698
 20
426.519
 30
0.000000
  70
    32
  0
VERTEX
  8
0
  5
37B9
 10
407.720
 20
426.513
 30
0.000000
  70
    32
  0
VERTEX
  8
0
  5
37BA
 10
407.742
 20
426.507
 30
0.000000
  70
    32
  0
VERTEX
  8
0
  5
37BB
 10
407.765
 20
426.502
 30
0.000000
  70
    32
  0
VERTEX
  8
0
  5
37BC
 10
407.787
 20
426.496
 30
0.000000
  70
    32
  0
VERTEX
  8
0
  5
37BD
 10
407.810
 20
426.490
 30
0.000000
  70
    32
  0
VERTEX
  8
0
  5
37BE
 10
407.832
 20
426.484
 30
0.000000
  70
    32
  0
VERTEX
  8
0
  5
37BF
 10
407.854
 20
426.479
 30
0.000000
  70
    32
  0
VERTEX
  8
0
  5
37C0
 10
407.877
 20
426.473
 30
0.000000
  70
    32
  0
VERTEX
  8
0
  5
37C1
 10
407.899
 20
426.467
 30
0.000000
  70
    32
  0
VERTEX
  8
0
  5
37C2
 10
407.922
 20
426.462
 30
0.000000
  70
    32
  0
VERTEX
  8
0
  5
37C3
 10
407.944
 20
426.456
 30
0.000000
  70
    32
  0
VERTEX
  8
0
  5
37C4
 10
407.967
 20
426.451
 30
0.000000
  70
    32
  0
VERTEX
  8
0
  5
37C5
 10
407.989
 20
426.445
 30
0.000000
  70
    32
  0
VERTEX
  8
0
  5
37C6
 10
408.012
 20
426.439
 30
0.000000
  70
    32
  0
VERTEX
  8
0
  5
37C7
 10
408.034
 20
426.434
 30
0.000000
  70
    32
  0
VERTEX
  8
0
  5
37C8
 10
408.057
 20
426.429
 30
0.000000
  70
    32
  0
VERTEX
  8
0
  5
37C9
 10
408.080
 20
426.423
 30
0.000000
  70
    32
  0
VERTEX
  8
0
  5
37CA
 10
408.102
 20
426.418
 30
0.000000
  70
    32
  0
VERTEX
  8
0
  5
37CB
 10
408.125
 20
426.412
 30
0.000000
  70
    32
  0
VERTEX
  8
0
  5
37CC
 10
408.147
 20
426.407
 30
0.000000
  70
    32
  0
VERTEX
  8
0
  5
37CD
 10
408.170
 20
426.401
 30
0.000000
  70
    32
  0
VERTEX
  8
0
  5
37CE
 10
408.193
 20
426.396
 30
0.000000
  70
    32
  0
VERTEX
  8
0
  5
37CF
 10
408.215
 20
426.391
 30
0.000000
  70
    32
  0
SEQEND
  8
0
  5
37D0
  0
LINE
  5
2F8E
  8
0
 10
414.81523419730752
 20
428.16836649840059
 30
0.0
 11
414.81523419730752
 21
426.39059049840063
 31
0.0
  0
LINE
  5
2F8F
  8
0
 10
414.81523419730752
 20
428.16836649840059
 30
0.0
 11
422.81523419730752
 21
428.16836649840059
 31
0.0
  0
LINE
  5
2F90
  8
0
 10
414.81523419730752
 20
427.86836649840052
 30
0.0
 11
422.81523419730752
 21
427.86836649840052
 31
0.0
  0
LINE
  5
2F91
  8
0
 10
402.91523419730748
 20
426.39059049840063
 30
0.0
 11
402.91523419730748
 21
431.64336649840061
 31
0.0
  0
LINE
  5
2F92
  8
0
 10
609.51523419730756
 20
406.9683664984006
 30
0.0
 11
609.51523419730756
 21
396.2933664984007
 31
0.0
  0
CIRCLE
  5
2F96
  8
2
 10
537.91523419730754
 20
413.9683664984006
 30
0.0
 40
6.5
  0
CIRCLE
  5
2F97
  8
0
 10
472.11523419730747
 20
413.9683664984006
 30
0.0
 40
2.25
  0
CIRCLE
  5
2F98
  8
0
 10
472.11523419730747
 20
413.9683664984006
 30
0.0
 40
1.149999999999999
  0
LINE
  5
2F9A
  8
2
 10
475.31523419730752
 20
406.21836649840048
 30
0.0
 11
475.31523419730752
 21
421.71836649840048
 31
0.0
  0
LINE
  5
2F9B
  8
2
 10
610.61523419730759
 20
426.39059049840063
 30
0.0
 11
610.61523419730759
 21
401.54614349840068
 31
0.0
  0
LINE
  5
2F9C
  8
0
 10
609.51523419730756
 20
431.64336649840061
 30
0.0
 11
609.51523419730756
 21
420.96836649840048
 31
0.0
  0
LINE
  5
2F9D
  8
0
 10
583.21523419730761
 20
426.39059049840063
 30
0.0
 11
583.21523419730761
 21
422.36836649840052
 31
0.0
  0
LINE
  5
2F9E
  8
0
 10
583.21523419730761
 20
422.36836649840052
 30
0.0
 11
577.62949519730751
 21
422.36836649840052
 31
0.0
  0
LINE
  5
2F9F
  8
0
 10
583.21523419730761
 20
405.56836649840062
 30
0.0
 11
577.62949519730751
 21
405.56836649840062
 31
0.0
  0
LINE
  5
2FA0
  8
0
 10
577.38893019730767
 20
407.13134049840068
 30
0.0
 11
582.86558719730772
 21
408.85812349840057
 31
0.0
  0
LINE
  5
2FA1
  8
0
 10
577.38893019730767
 20
420.80539349840058
 30
0.0
 11
582.86558719730772
 21
419.07860949840051
 31
0.0
  0
ARC
  5
2FA2
  8
0
 10
577.62949519730751
 20
421.56836649840051
 30
0.0
 40
0.8
 50
90.0
 51
252.5000000000002
  0
ARC
  5
2FA3
  8
0
 10
577.62949519730751
 20
406.36836649840052
 30
0.0
 40
0.8
 50
107.4999999999998
 51
270.0
  0
LINE
  5
2FA4
  8
1
 10
571.31523419730752
 20
419.96836649840048
 30
0.0
 11
571.31523419730752
 21
407.96836649840048
 31
0.0
  0
ARC
  5
2FA5
  8
0
 10
571.31523419730752
 20
413.56836649840051
 30
0.0
 40
2.25
 50
180.0
 51
0.0
  0
LINE
  5
2FA6
  8
0
 10
573.56523419730752
 20
414.36836649840052
 30
0.0
 11
573.56523419730752
 21
413.56836649840051
 31
0.0
  0
LINE
  5
2FA7
  8
0
 10
569.06523419730752
 20
414.36836649840052
 30
0.0
 11
569.06523419730752
 21
413.56836649840051
 31
0.0
  0
ARC
  5
2FA8
  8
0
 10
571.31523419730752
 20
414.36836649840052
 30
0.0
 40
2.25
 50
0.0
 51
180.0
  0
ARC
  5
2FA9
  8
0
 10
558.61523419730747
 20
413.56836649840051
 30
0.0
 40
2.25
 50
180.0
 51
0.0
  0
LINE
  5
2FAA
  8
1
 10
558.61523419730747
 20
419.96836649840048
 30
0.0
 11
558.61523419730747
 21
407.96836649840048
 31
0.0
  0
LINE
  5
2FAB
  8
0
 10
560.86523419730747
 20
413.56836649840051
 30
0.0
 11
560.86523419730747
 21
414.36836649840052
 31
0.0
  0
LINE
  5
2FAC
  8
0
 10
556.36523419730747
 20
413.56836649840051
 30
0.0
 11
556.36523419730747
 21
414.36836649840052
 31
0.0
  0
ARC
  5
2FAD
  8
0
 10
558.61523419730747
 20
414.36836649840052
 30
0.0
 40
2.25
 50
0.0
 51
180.0
  0
LINE
  5
2FAE
  8
1
 10
545.91523419730754
 20
419.96836649840048
 30
0.0
 11
545.91523419730754
 21
407.96836649840048
 31
0.0
  0
ARC
  5
2FAF
  8
0
 10
545.51523419730745
 20
413.9683664984006
 30
0.0
 40
2.25
 50
90.0
 51
270.0
  0
LINE
  5
2FB0
  8
0
 10
545.51523419730745
 20
411.7183664984006
 30
0.0
 11
546.31523419730752
 21
411.7183664984006
 31
0.0
  0
LINE
  5
2FB1
  8
0
 10
545.51523419730745
 20
416.2183664984006
 30
0.0
 11
546.31523419730752
 21
416.2183664984006
 31
0.0
  0
ARC
  5
2FB2
  8
0
 10
546.31523419730752
 20
413.9683664984006
 30
0.0
 40
2.25
 50
270.0
 51
90.0
  0
LINE
  5
2FB4
  8
0
 10
612.16523419730754
 20
421.4683664984006
 30
0.0
 11
609.51523419730756
 21
420.96836649840048
 31
0.0
  0
LINE
  5
2FB5
  8
2
 10
612.16523419730754
 20
421.4683664984006
 30
0.0
 11
613.71523419730761
 21
421.4683664984006
 31
0.0
  0
LINE
  5
2FB6
  8
0
 10
609.51523419730756
 20
406.9683664984006
 30
0.0
 11
612.16523419730754
 21
406.4683664984006
 31
0.0
  0
LINE
  5
2FB7
  8
2
 10
612.16523419730754
 20
406.4683664984006
 30
0.0
 11
613.71523419730761
 21
406.4683664984006
 31
0.0
  0
LINE
  5
2FB8
  8
0
 10
612.16523419730754
 20
421.4683664984006
 30
0.0
 11
612.16523419730754
 21
406.4683664984006
 31
0.0
  0
LINE
  5
2FB9
  8
2
 10
613.71523419730761
 20
421.4683664984006
 30
0.0
 11
613.71523419730761
 21
406.4683664984006
 31
0.0
  0
LINE
  5
2FC1
  8
0
 10
583.21523419730761
 20
418.60175149840057
 30
0.0
 11
583.21523419730761
 21
409.33498149840062
 31
0.0
  0
ARC
  5
2FC2
  8
0
 10
582.71523419730761
 20
418.60175149840057
 30
0.0
 40
0.5
 50
0.0
 51
72.500000000000142
  0
ARC
  5
2FC3
  8
0
 10
582.71523419730761
 20
409.33498149840062
 30
0.0
 40
0.5
 50
287.49999999999977
 51
0.0
  0
LINE
  5
2FC4
  8
0
 10
583.21523419730761
 20
401.54614349840068
 30
0.0
 11
583.21523419730761
 21
405.56836649840062
 31
0.0
  0
ARC
  5
3183
  8
2
 10
651.21523419730761
 20
413.9683664984006
 30
0.0
 40
2.25
 50
270.0
 51
90.0
  0
ARC
  5
3185
  8
2
 10
650.41523419730754
 20
413.9683664984006
 30
0.0
 40
2.25
 50
90.0
 51
270.0
  0
LINE
  5
3186
  8
1
 10
650.81523419730752
 20
419.96836649840048
 30
0.0
 11
650.81523419730752
 21
407.96836649840048
 31
0.0
  0
LINE
  5
3187
  8
2
 10
651.21523419730761
 20
411.7183664984006
 30
0.0
 11
650.41523419730754
 21
411.7183664984006
 31
0.0
  0
LINE
  5
3188
  8
2
 10
651.21523419730761
 20
416.2183664984006
 30
0.0
 11
650.41523419730754
 21
416.2183664984006
 31
0.0
  0
ARC
  5
3189
  8
2
 10
638.11523419730747
 20
413.56836649840051
 30
0.0
 40
2.25
 50
180.0
 51
0.0
  0
ARC
  5
318A
  8
2
 10
638.11523419730747
 20
414.36836649840052
 30
0.0
 40
2.25
 50
0.0
 51
180.0
  0
LINE
  5
318B
  8
1
 10
638.11523419730747
 20
419.96836649840048
 30
0.0
 11
638.11523419730747
 21
407.96836649840048
 31
0.0
  0
LINE
  5
318C
  8
2
 10
635.86523419730747
 20
414.36836649840052
 30
0.0
 11
635.86523419730747
 21
413.56836649840051
 31
0.0
  0
LINE
  5
318D
  8
2
 10
627.66523419730754
 20
414.36836649840052
 30
0.0
 11
627.66523419730754
 21
413.56836649840051
 31
0.0
  0
LINE
  5
318E
  8
2
 10
640.36523419730747
 20
414.36836649840052
 30
0.0
 11
640.36523419730747
 21
413.56836649840051
 31
0.0
  0
LINE
  5
319D
  8
1
 10
625.41523419730754
 20
419.96836649840048
 30
0.0
 11
625.41523419730754
 21
407.96836649840048
 31
0.0
  0
LINE
  5
319E
  8
2
 10
623.16523419730754
 20
414.36836649840052
 30
0.0
 11
623.16523419730754
 21
413.56836649840051
 31
0.0
  0
ARC
  5
319F
  8
2
 10
625.41523419730754
 20
413.56836649840051
 30
0.0
 40
2.25
 50
180.0
 51
0.0
  0
ARC
  5
31A0
  8
2
 10
625.41523419730754
 20
414.36836649840052
 30
0.0
 40
2.25
 50
0.0
 51
180.0
  0
LINE
  5
31AD
  8
1
 10
736.51523419730745
 20
419.96836649840048
 30
0.0
 11
736.51523419730745
 21
407.96836649840048
 31
0.0
  0
LINE
  5
31AE
  8
2
 10
736.91523419730765
 20
416.2183664984006
 30
0.0
 11
736.11523419730736
 21
416.2183664984006
 31
0.0
  0
ARC
  5
31AF
  8
2
 10
736.91523419730765
 20
413.9683664984006
 30
0.0
 40
2.25
 50
270.0
 51
90.0
  0
ARC
  5
31B0
  8
2
 10
736.11523419730736
 20
413.9683664984006
 30
0.0
 40
2.25
 50
90.0
 51
270.0
  0
LINE
  5
31B1
  8
2
 10
736.91523419730765
 20
411.7183664984006
 30
0.0
 11
736.11523419730736
 21
411.7183664984006
 31
0.0
  0
LINE
  5
31B2
  8
0
 10
860.11523419730736
 20
399.17490549840062
 30
0.0
 11
860.11523419730736
 21
396.2933664984007
 31
0.0
  0
LINE
  5
321E
  8
0
 10
838.61523419730736
 20
422.9683664984006
 30
0.0
 11
824.61523419730736
 21
420.96836649840048
 31
0.0
  0
LINE
  5
321F
  8
0
 10
838.61523419730736
 20
404.9683664984006
 30
0.0
 11
824.61523419730736
 21
406.9683664984006
 31
0.0
  0
LINE
  5
3220
  8
0
 10
838.89807719730743
 20
406.94826549840059
 30
0.0
 11
824.89807719730754
 21
408.94826549840059
 31
0.0
  0
LINE
  5
3221
  8
0
 10
838.89807719730743
 20
420.98846749840072
 30
0.0
 11
824.89807719730754
 21
418.98846749840061
 31
0.0
  0
LINE
  5
3222
  8
0
 10
796.51523419730745
 20
422.91836649840059
 30
0.0
 11
790.11523419730736
 21
422.91836649840059
 31
0.0
  0
LINE
  5
3223
  8
0
 10
792.11523419730736
 20
408.01836649840061
 30
0.0
 11
792.11523419730736
 21
405.81836649840062
 31
0.0
  0
LINE
  5
3226
  8
0
 10
790.11523419730736
 20
408.81836649840062
 30
0.0
 11
790.11523419730736
 21
405.01836649840072
 31
0.0
  0
LINE
  5
3227
  8
0
 10
796.51523419730745
 20
419.11836649840058
 30
0.0
 11
790.11523419730736
 21
419.11836649840058
 31
0.0
  0
LINE
  5
3228
  8
0
 10
796.51523419730745
 20
408.81836649840062
 30
0.0
 11
790.11523419730736
 21
408.81836649840062
 31
0.0
  0
LINE
  5
3229
  8
0
 10
796.51523419730745
 20
405.01836649840072
 30
0.0
 11
790.11523419730736
 21
405.01836649840072
 31
0.0
  0
LINE
  5
322A
  8
0
 10
790.11523419730736
 20
419.11836649840058
 30
0.0
 11
790.11523419730736
 21
422.91836649840059
 31
0.0
  0
LINE
  5
322B
  8
0
 10
792.11523419730736
 20
419.91836649840059
 30
0.0
 11
792.11523419730736
 21
422.11836649840052
 31
0.0
  0
CIRCLE
  5
322C
  8
0
 10
814.11523419730747
 20
413.9683664984006
 30
0.0
 40
3.0
  0
CIRCLE
  5
322E
  8
0
 10
814.11523419730747
 20
413.9683664984006
 30
0.0
 40
2.25
  0
POLYLINE
  8
0
  5
37D1
  66
     1
 10
0.000000
 20
0.000000
 30
0.000000
  70
     8
  0
VERTEX
  8
0
  5
37D2
 10
822.615
 20
407.968
 30
0.000000
  70
    32
  0
VERTEX
  8
0
  5
37D3
 10
822.626
 20
407.994
 30
0.000000
  70
    32
  0
VERTEX
  8
0
  5
37D4
 10
822.636
 20
408.021
 30
0.000000
  70
    32
  0
VERTEX
  8
0
  5
37D5
 10
822.647
 20
408.047
 30
0.000000
  70
    32
  0
VERTEX
  8
0
  5
37D6
 10
822.658
 20
408.073
 30
0.000000
  70
    32
  0
VERTEX
  8
0
  5
37D7
 10
822.668
 20
408.099
 30
0.000000
  70
    32
  0
VERTEX
  8
0
  5
37D8
 10
822.679
 20
408.125
 30
0.000000
  70
    32
  0
VERTEX
  8
0
  5
37D9
 10
822.690
 20
408.151
 30
0.000000
  70
    32
  0
VERTEX
  8
0
  5
37DA
 10
822.700
 20
408.176
 30
0.000000
  70
    32
  0
VERTEX
  8
0
  5
37DB
 10
822.711
 20
408.202
 30
0.000000
  70
    32
  0
VERTEX
  8
0
  5
37DC
 10
822.722
 20
408.228
 30
0.000000
  70
    32
  0
VERTEX
  8
0
  5
37DD
 10
822.732
 20
408.254
 30
0.000000
  70
    32
  0
VERTEX
  8
0
  5
37DE
 10
822.743
 20
408.279
 30
0.000000
  70
    32
  0
VERTEX
  8
0
  5
37DF
 10
822.754
 20
408.305
 30
0.000000
  70
    32
  0
VERTEX
  8
0
  5
37E0
 10
822.764
 20
408.330
 30
0.000000
  70
    32
  0
VERTEX
  8
0
  5
37E1
 10
822.775
 20
408.356
 30
0.000000
  70
    32
  0
VERTEX
  8
0
  5
37E2
 10
822.786
 20
408.381
 30
0.000000
  70
    32
  0
VERTEX
  8
0
  5
37E3
 10
822.797
 20
408.406
 30
0.000000
  70
    32
  0
VERTEX
  8
0
  5
37E4
 10
822.807
 20
408.431
 30
0.000000
  70
    32
  0
VERTEX
  8
0
  5
37E5
 10
822.818
 20
408.456
 30
0.000000
  70
    32
  0
VERTEX
  8
0
  5
37E6
 10
822.829
 20
408.481
 30
0.000000
  70
    32
  0
VERTEX
  8
0
  5
37E7
 10
822.840
 20
408.505
 30
0.000000
  70
    32
  0
VERTEX
  8
0
  5
37E8
 10
822.851
 20
408.530
 30
0.000000
  70
    32
  0
VERTEX
  8
0
  5
37E9
 10
822.862
 20
408.554
 30
0.000000
  70
    32
  0
VERTEX
  8
0
  5
37EA
 10
822.872
 20
408.578
 30
0.000000
  70
    32
  0
VERTEX
  8
0
  5
37EB
 10
822.883
 20
408.602
 30
0.000000
  70
    32
  0
VERTEX
  8
0
  5
37EC
 10
822.894
 20
408.626
 30
0.000000
  70
    32
  0
VERTEX
  8
0
  5
37ED
 10
822.905
 20
408.650
 30
0.000000
  70
    32
  0
VERTEX
  8
0
  5
37EE
 10
822.916
 20
408.673
 30
0.000000
  70
    32
  0
VERTEX
  8
0
  5
37EF
 10
822.927
 20
408.696
 30
0.000000
  70
    32
  0
VERTEX
  8
0
  5
37F0
 10
822.938
 20
408.720
 30
0.000000
  70
    32
  0
VERTEX
  8
0
  5
37F1
 10
822.949
 20
408.742
 30
0.000000
  70
    32
  0
VERTEX
  8
0
  5
37F2
 10
822.961
 20
408.765
 30
0.000000
  70
    32
  0
VERTEX
  8
0
  5
37F3
 10
822.972
 20
408.787
 30
0.000000
  70
    32
  0
VERTEX
  8
0
  5
37F4
 10
822.983
 20
408.810
 30
0.000000
  70
    32
  0
VERTEX
  8
0
  5
37F5
 10
822.994
 20
408.831
 30
0.000000
  70
    32
  0
VERTEX
  8
0
  5
37F6
 10
823.005
 20
408.853
 30
0.000000
  70
    32
  0
VERTEX
  8
0
  5
37F7
 10
823.017
 20
408.875
 30
0.000000
  70
    32
  0
VERTEX
  8
0
  5
37F8
 10
823.028
 20
408.896
 30
0.000000
  70
    32
  0
VERTEX
  8
0
  5
37F9
 10
823.039
 20
408.917
 30
0.000000
  70
    32
  0
VERTEX
  8
0
  5
37FA
 10
823.051
 20
408.937
 30
0.000000
  70
    32
  0
VERTEX
  8
0
  5
37FB
 10
823.062
 20
408.958
 30
0.000000
  70
    32
  0
VERTEX
  8
0
  5
37FC
 10
823.074
 20
408.978
 30
0.000000
  70
    32
  0
VERTEX
  8
0
  5
37FD
 10
823.085
 20
408.997
 30
0.000000
  70
    32
  0
VERTEX
  8
0
  5
37FE
 10
823.097
 20
409.017
 30
0.000000
  70
    32
  0
VERTEX
  8
0
  5
37FF
 10
823.108
 20
409.036
 30
0.000000
  70
    32
  0
VERTEX
  8
0
  5
3800
 10
823.120
 20
409.055
 30
0.000000
  70
    32
  0
VERTEX
  8
0
  5
3801
 10
823.132
 20
409.073
 30
0.000000
  70
    32
  0
VERTEX
  8
0
  5
3802
 10
823.144
 20
409.092
 30
0.000000
  70
    32
  0
VERTEX
  8
0
  5
3803
 10
823.155
 20
409.109
 30
0.000000
  70
    32
  0
VERTEX
  8
0
  5
3804
 10
823.167
 20
409.127
 30
0.000000
  70
    32
  0
VERTEX
  8
0
  5
3805
 10
823.179
 20
409.144
 30
0.000000
  70
    32
  0
VERTEX
  8
0
  5
3806
 10
823.191
 20
409.161
 30
0.000000
  70
    32
  0
VERTEX
  8
0
  5
3807
 10
823.203
 20
409.177
 30
0.000000
  70
    32
  0
VERTEX
  8
0
  5
3808
 10
823.215
 20
409.193
 30
0.000000
  70
    32
  0
VERTEX
  8
0
  5
3809
 10
823.227
 20
409.209
 30
0.000000
  70
    32
  0
VERTEX
  8
0
  5
380A
 10
823.239
 20
409.224
 30
0.000000
  70
    32
  0
VERTEX
  8
0
  5
380B
 10
823.252
 20
409.239
 30
0.000000
  70
    32
  0
VERTEX
  8
0
  5
380C
 10
823.264
 20
409.254
 30
0.000000
  70
    32
  0
VERTEX
  8
0
  5
380D
 10
823.276
 20
409.268
 30
0.000000
  70
    32
  0
VERTEX
  8
0
  5
380E
 10
823.289
 20
409.281
 30
0.000000
  70
    32
  0
VERTEX
  8
0
  5
380F
 10
823.301
 20
409.295
 30
0.000000
  70
    32
  0
VERTEX
  8
0
  5
3810
 10
823.313
 20
409.308
 30
0.000000
  70
    32
  0
VERTEX
  8
0
  5
3811
 10
823.326
 20
409.320
 30
0.000000
  70
    32
  0
VERTEX
  8
0
  5
3812
 10
823.339
 20
409.332
 30
0.000000
  70
    32
  0
VERTEX
  8
0
  5
3813
 10
823.351
 20
409.343
 30
0.000000
  70
    32
  0
VERTEX
  8
0
  5
3814
 10
823.364
 20
409.354
 30
0.000000
  70
    32
  0
VERTEX
  8
0
  5
3815
 10
823.377
 20
409.365
 30
0.000000
  70
    32
  0
VERTEX
  8
0
  5
3816
 10
823.390
 20
409.375
 30
0.000000
  70
    32
  0
VERTEX
  8
0
  5
3817
 10
823.403
 20
409.385
 30
0.000000
  70
    32
  0
VERTEX
  8
0
  5
3818
 10
823.416
 20
409.394
 30
0.000000
  70
    32
  0
VERTEX
  8
0
  5
3819
 10
823.429
 20
409.403
 30
0.000000
  70
    32
  0
VERTEX
  8
0
  5
381A
 10
823.442
 20
409.411
 30
0.000000
  70
    32
  0
VERTEX
  8
0
  5
381B
 10
823.455
 20
409.419
 30
0.000000
  70
    32
  0
VERTEX
  8
0
  5
381C
 10
823.469
 20
409.426
 30
0.000000
  70
    32
  0
VERTEX
  8
0
  5
381D
 10
823.482
 20
409.432
 30
0.000000
  70
    32
  0
VERTEX
  8
0
  5
381E
 10
823.496
 20
409.438
 30
0.000000
  70
    32
  0
VERTEX
  8
0
  5
381F
 10
823.509
 20
409.444
 30
0.000000
  70
    32
  0
VERTEX
  8
0
  5
3820
 10
823.523
 20
409.449
 30
0.000000
  70
    32
  0
VERTEX
  8
0
  5
3821
 10
823.536
 20
409.454
 30
0.000000
  70
    32
  0
VERTEX
  8
0
  5
3822
 10
823.550
 20
409.458
 30
0.000000
  70
    32
  0
VERTEX
  8
0
  5
3823
 10
823.564
 20
409.461
 30
0.000000
  70
    32
  0
VERTEX
  8
0
  5
3824
 10
823.578
 20
409.464
 30
0.000000
  70
    32
  0
VERTEX
  8
0
  5
3825
 10
823.592
 20
409.466
 30
0.000000
  70
    32
  0
VERTEX
  8
0
  5
3826
 10
823.606
 20
409.468
 30
0.000000
  70
    32
  0
VERTEX
  8
0
  5
3827
 10
823.620
 20
409.469
 30
0.000000
  70
    32
  0
VERTEX
  8
0
  5
3828
 10
823.635
 20
409.469
 30
0.000000
  70
    32
  0
VERTEX
  8
0
  5
3829
 10
823.649
 20
409.469
 30
0.000000
  70
    32
  0
VERTEX
  8
0
  5
382A
 10
823.663
 20
409.468
 30
0.000000
  70
    32
  0
VERTEX
  8
0
  5
382B
 10
823.678
 20
409.467
 30
0.000000
  70
    32
  0
VERTEX
  8
0
  5
382C
 10
823.692
 20
409.465
 30
0.000000
  70
    32
  0
VERTEX
  8
0
  5
382D
 10
823.707
 20
409.463
 30
0.000000
  70
    32
  0
VERTEX
  8
0
  5
382E
 10
823.722
 20
409.460
 30
0.000000
  70
    32
  0
VERTEX
  8
0
  5
382F
 10
823.737
 20
409.457
 30
0.000000
  70
    32
  0
VERTEX
  8
0
  5
3830
 10
823.752
 20
409.453
 30
0.000000
  70
    32
  0
VERTEX
  8
0
  5
3831
 10
823.767
 20
409.448
 30
0.000000
  70
    32
  0
VERTEX
  8
0
  5
3832
 10
823.782
 20
409.443
 30
0.000000
  70
    32
  0
VERTEX
  8
0
  5
3833
 10
823.797
 20
409.438
 30
0.000000
  70
    32
  0
VERTEX
  8
0
  5
3834
 10
823.812
 20
409.432
 30
0.000000
  70
    32
  0
VERTEX
  8
0
  5
3835
 10
823.827
 20
409.425
 30
0.000000
  70
    32
  0
VERTEX
  8
0
  5
3836
 10
823.843
 20
409.418
 30
0.000000
  70
    32
  0
VERTEX
  8
0
  5
3837
 10
823.858
 20
409.411
 30
0.000000
  70
    32
  0
VERTEX
  8
0
  5
3838
 10
823.873
 20
409.403
 30
0.000000
  70
    32
  0
VERTEX
  8
0
  5
3839
 10
823.889
 20
409.395
 30
0.000000
  70
    32
  0
VERTEX
  8
0
  5
383A
 10
823.905
 20
409.386
 30
0.000000
  70
    32
  0
VERTEX
  8
0
  5
383B
 10
823.920
 20
409.377
 30
0.000000
  70
    32
  0
VERTEX
  8
0
  5
383C
 10
823.936
 20
409.367
 30
0.000000
  70
    32
  0
VERTEX
  8
0
  5
383D
 10
823.952
 20
409.357
 30
0.000000
  70
    32
  0
VERTEX
  8
0
  5
383E
 10
823.967
 20
409.346
 30
0.000000
  70
    32
  0
VERTEX
  8
0
  5
383F
 10
823.983
 20
409.336
 30
0.000000
  70
    32
  0
VERTEX
  8
0
  5
3840
 10
823.999
 20
409.324
 30
0.000000
  70
    32
  0
VERTEX
  8
0
  5
3841
 10
824.015
 20
409.313
 30
0.000000
  70
    32
  0
VERTEX
  8
0
  5
3842
 10
824.031
 20
409.301
 30
0.000000
  70
    32
  0
VERTEX
  8
0
  5
3843
 10
824.047
 20
409.288
 30
0.000000
  70
    32
  0
VERTEX
  8
0
  5
3844
 10
824.064
 20
409.275
 30
0.000000
  70
    32
  0
VERTEX
  8
0
  5
3845
 10
824.080
 20
409.262
 30
0.000000
  70
    32
  0
VERTEX
  8
0
  5
3846
 10
824.096
 20
409.249
 30
0.000000
  70
    32
  0
VERTEX
  8
0
  5
3847
 10
824.112
 20
409.235
 30
0.000000
  70
    32
  0
VERTEX
  8
0
  5
3848
 10
824.129
 20
409.221
 30
0.000000
  70
    32
  0
VERTEX
  8
0
  5
3849
 10
824.145
 20
409.206
 30
0.000000
  70
    32
  0
VERTEX
  8
0
  5
384A
 10
824.162
 20
409.191
 30
0.000000
  70
    32
  0
VERTEX
  8
0
  5
384B
 10
824.178
 20
409.176
 30
0.000000
  70
    32
  0
VERTEX
  8
0
  5
384C
 10
824.195
 20
409.161
 30
0.000000
  70
    32
  0
VERTEX
  8
0
  5
384D
 10
824.211
 20
409.145
 30
0.000000
  70
    32
  0
VERTEX
  8
0
  5
384E
 10
824.228
 20
409.129
 30
0.000000
  70
    32
  0
VERTEX
  8
0
  5
384F
 10
824.245
 20
409.112
 30
0.000000
  70
    32
  0
VERTEX
  8
0
  5
3850
 10
824.261
 20
409.096
 30
0.000000
  70
    32
  0
VERTEX
  8
0
  5
3851
 10
824.278
 20
409.079
 30
0.000000
  70
    32
  0
VERTEX
  8
0
  5
3852
 10
824.295
 20
409.062
 30
0.000000
  70
    32
  0
VERTEX
  8
0
  5
3853
 10
824.312
 20
409.044
 30
0.000000
  70
    32
  0
VERTEX
  8
0
  5
3854
 10
824.328
 20
409.027
 30
0.000000
  70
    32
  0
VERTEX
  8
0
  5
3855
 10
824.345
 20
409.009
 30
0.000000
  70
    32
  0
VERTEX
  8
0
  5
3856
 10
824.362
 20
408.991
 30
0.000000
  70
    32
  0
VERTEX
  8
0
  5
3857
 10
824.379
 20
408.973
 30
0.000000
  70
    32
  0
VERTEX
  8
0
  5
3858
 10
824.396
 20
408.954
 30
0.000000
  70
    32
  0
VERTEX
  8
0
  5
3859
 10
824.413
 20
408.936
 30
0.000000
  70
    32
  0
VERTEX
  8
0
  5
385A
 10
824.430
 20
408.917
 30
0.000000
  70
    32
  0
VERTEX
  8
0
  5
385B
 10
824.447
 20
408.898
 30
0.000000
  70
    32
  0
VERTEX
  8
0
  5
385C
 10
824.464
 20
408.878
 30
0.000000
  70
    32
  0
VERTEX
  8
0
  5
385D
 10
824.481
 20
408.859
 30
0.000000
  70
    32
  0
VERTEX
  8
0
  5
385E
 10
824.499
 20
408.839
 30
0.000000
  70
    32
  0
VERTEX
  8
0
  5
385F
 10
824.516
 20
408.820
 30
0.000000
  70
    32
  0
VERTEX
  8
0
  5
3860
 10
824.533
 20
408.800
 30
0.000000
  70
    32
  0
VERTEX
  8
0
  5
3861
 10
824.550
 20
408.780
 30
0.000000
  70
    32
  0
VERTEX
  8
0
  5
3862
 10
824.567
 20
408.760
 30
0.000000
  70
    32
  0
VERTEX
  8
0
  5
3863
 10
824.584
 20
408.740
 30
0.000000
  70
    32
  0
VERTEX
  8
0
  5
3864
 10
824.602
 20
408.719
 30
0.000000
  70
    32
  0
VERTEX
  8
0
  5
3865
 10
824.619
 20
408.699
 30
0.000000
  70
    32
  0
VERTEX
  8
0
  5
3866
 10
824.636
 20
408.678
 30
0.000000
  70
    32
  0
VERTEX
  8
0
  5
3867
 10
824.653
 20
408.658
 30
0.000000
  70
    32
  0
VERTEX
  8
0
  5
3868
 10
824.671
 20
408.637
 30
0.000000
  70
    32
  0
VERTEX
  8
0
  5
3869
 10
824.688
 20
408.616
 30
0.000000
  70
    32
  0
VERTEX
  8
0
  5
386A
 10
824.705
 20
408.595
 30
0.000000
  70
    32
  0
VERTEX
  8
0
  5
386B
 10
824.723
 20
408.574
 30
0.000000
  70
    32
  0
VERTEX
  8
0
  5
386C
 10
824.740
 20
408.553
 30
0.000000
  70
    32
  0
VERTEX
  8
0
  5
386D
 10
824.757
 20
408.532
 30
0.000000
  70
    32
  0
VERTEX
  8
0
  5
386E
 10
824.775
 20
408.511
 30
0.000000
  70
    32
  0
VERTEX
  8
0
  5
386F
 10
824.792
 20
408.490
 30
0.000000
  70
    32
  0
VERTEX
  8
0
  5
3870
 10
824.809
 20
408.469
 30
0.000000
  70
    32
  0
VERTEX
  8
0
  5
3871
 10
824.827
 20
408.448
 30
0.000000
  70
    32
  0
SEQEND
  8
0
  5
3872
  0
POLYLINE
  8
0
  5
3873
  66
     1
 10
0.000000
 20
0.000000
 30
0.000000
  70
     8
  0
VERTEX
  8
0
  5
3874
 10
822.615
 20
419.968
 30
0.000000
  70
    32
  0
VERTEX
  8
0
  5
3875
 10
822.626
 20
419.942
 30
0.000000
  70
    32
  0
VERTEX
  8
0
  5
3876
 10
822.636
 20
419.916
 30
0.000000
  70
    32
  0
VERTEX
  8
0
  5
3877
 10
822.647
 20
419.890
 30
0.000000
  70
    32
  0
VERTEX
  8
0
  5
3878
 10
822.658
 20
419.864
 30
0.000000
  70
    32
  0
VERTEX
  8
0
  5
3879
 10
822.668
 20
419.838
 30
0.000000
  70
    32
  0
VERTEX
  8
0
  5
387A
 10
822.679
 20
419.812
 30
0.000000
  70
    32
  0
VERTEX
  8
0
  5
387B
 10
822.690
 20
419.786
 30
0.000000
  70
    32
  0
VERTEX
  8
0
  5
387C
 10
822.700
 20
419.760
 30
0.000000
  70
    32
  0
VERTEX
  8
0
  5
387D
 10
822.711
 20
419.734
 30
0.000000
  70
    32
  0
VERTEX
  8
0
  5
387E
 10
822.722
 20
419.709
 30
0.000000
  70
    32
  0
VERTEX
  8
0
  5
387F
 10
822.732
 20
419.683
 30
0.000000
  70
    32
  0
VERTEX
  8
0
  5
3880
 10
822.743
 20
419.657
 30
0.000000
  70
    32
  0
VERTEX
  8
0
  5
3881
 10
822.754
 20
419.632
 30
0.000000
  70
    32
  0
VERTEX
  8
0
  5
3882
 10
822.764
 20
419.606
 30
0.000000
  70
    32
  0
VERTEX
  8
0
  5
3883
 10
822.775
 20
419.581
 30
0.000000
  70
    32
  0
VERTEX
  8
0
  5
3884
 10
822.786
 20
419.556
 30
0.000000
  70
    32
  0
VERTEX
  8
0
  5
3885
 10
822.797
 20
419.531
 30
0.000000
  70
    32
  0
VERTEX
  8
0
  5
3886
 10
822.807
 20
419.506
 30
0.000000
  70
    32
  0
VERTEX
  8
0
  5
3887
 10
822.818
 20
419.481
 30
0.000000
  70
    32
  0
VERTEX
  8
0
  5
3888
 10
822.829
 20
419.456
 30
0.000000
  70
    32
  0
VERTEX
  8
0
  5
3889
 10
822.840
 20
419.431
 30
0.000000
  70
    32
  0
VERTEX
  8
0
  5
388A
 10
822.851
 20
419.407
 30
0.000000
  70
    32
  0
VERTEX
  8
0
  5
388B
 10
822.862
 20
419.383
 30
0.000000
  70
    32
  0
VERTEX
  8
0
  5
388C
 10
822.872
 20
419.358
 30
0.000000
  70
    32
  0
VERTEX
  8
0
  5
388D
 10
822.883
 20
419.334
 30
0.000000
  70
    32
  0
VERTEX
  8
0
  5
388E
 10
822.894
 20
419.311
 30
0.000000
  70
    32
  0
VERTEX
  8
0
  5
388F
 10
822.905
 20
419.287
 30
0.000000
  70
    32
  0
VERTEX
  8
0
  5
3890
 10
822.916
 20
419.263
 30
0.000000
  70
    32
  0
VERTEX
  8
0
  5
3891
 10
822.927
 20
419.240
 30
0.000000
  70
    32
  0
VERTEX
  8
0
  5
3892
 10
822.938
 20
419.217
 30
0.000000
  70
    32
  0
VERTEX
  8
0
  5
3893
 10
822.949
 20
419.194
 30
0.000000
  70
    32
  0
VERTEX
  8
0
  5
3894
 10
822.961
 20
419.172
 30
0.000000
  70
    32
  0
VERTEX
  8
0
  5
3895
 10
822.972
 20
419.149
 30
0.000000
  70
    32
  0
VERTEX
  8
0
  5
3896
 10
822.983
 20
419.127
 30
0.000000
  70
    32
  0
VERTEX
  8
0
  5
3897
 10
822.994
 20
419.105
 30
0.000000
  70
    32
  0
VERTEX
  8
0
  5
3898
 10
823.005
 20
419.084
 30
0.000000
  70
    32
  0
VERTEX
  8
0
  5
3899
 10
823.017
 20
419.062
 30
0.000000
  70
    32
  0
VERTEX
  8
0
  5
389A
 10
823.028
 20
419.041
 30
0.000000
  70
    32
  0
VERTEX
  8
0
  5
389B
 10
823.039
 20
419.020
 30
0.000000
  70
    32
  0
VERTEX
  8
0
  5
389C
 10
823.051
 20
419.000
 30
0.000000
  70
    32
  0
VERTEX
  8
0
  5
389D
 10
823.062
 20
418.979
 30
0.000000
  70
    32
  0
VERTEX
  8
0
  5
389E
 10
823.074
 20
418.959
 30
0.000000
  70
    32
  0
VERTEX
  8
0
  5
389F
 10
823.085
 20
418.939
 30
0.000000
  70
    32
  0
VERTEX
  8
0
  5
38A0
 10
823.097
 20
418.920
 30
0.000000
  70
    32
  0
VERTEX
  8
0
  5
38A1
 10
823.108
 20
418.901
 30
0.000000
  70
    32
  0
VERTEX
  8
0
  5
38A2
 10
823.120
 20
418.882
 30
0.000000
  70
    32
  0
VERTEX
  8
0
  5
38A3
 10
823.132
 20
418.863
 30
0.000000
  70
    32
  0
VERTEX
  8
0
  5
38A4
 10
823.144
 20
418.845
 30
0.000000
  70
    32
  0
VERTEX
  8
0
  5
38A5
 10
823.155
 20
418.827
 30
0.000000
  70
    32
  0
VERTEX
  8
0
  5
38A6
 10
823.167
 20
418.810
 30
0.000000
  70
    32
  0
VERTEX
  8
0
  5
38A7
 10
823.179
 20
418.793
 30
0.000000
  70
    32
  0
VERTEX
  8
0
  5
38A8
 10
823.191
 20
418.776
 30
0.000000
  70
    32
  0
VERTEX
  8
0
  5
38A9
 10
823.203
 20
418.759
 30
0.000000
  70
    32
  0
VERTEX
  8
0
  5
38AA
 10
823.215
 20
418.743
 30
0.000000
  70
    32
  0
VERTEX
  8
0
  5
38AB
 10
823.227
 20
418.728
 30
0.000000
  70
    32
  0
VERTEX
  8
0
  5
38AC
 10
823.239
 20
418.712
 30
0.000000
  70
    32
  0
VERTEX
  8
0
  5
38AD
 10
823.252
 20
418.698
 30
0.000000
  70
    32
  0
VERTEX
  8
0
  5
38AE
 10
823.264
 20
418.683
 30
0.000000
  70
    32
  0
VERTEX
  8
0
  5
38AF
 10
823.276
 20
418.669
 30
0.000000
  70
    32
  0
VERTEX
  8
0
  5
38B0
 10
823.289
 20
418.655
 30
0.000000
  70
    32
  0
VERTEX
  8
0
  5
38B1
 10
823.301
 20
418.642
 30
0.000000
  70
    32
  0
VERTEX
  8
0
  5
38B2
 10
823.313
 20
418.629
 30
0.000000
  70
    32
  0
VERTEX
  8
0
  5
38B3
 10
823.326
 20
418.617
 30
0.000000
  70
    32
  0
VERTEX
  8
0
  5
38B4
 10
823.339
 20
418.605
 30
0.000000
  70
    32
  0
VERTEX
  8
0
  5
38B5
 10
823.351
 20
418.593
 30
0.000000
  70
    32
  0
VERTEX
  8
0
  5
38B6
 10
823.364
 20
418.582
 30
0.000000
  70
    32
  0
VERTEX
  8
0
  5
38B7
 10
823.377
 20
418.572
 30
0.000000
  70
    32
  0
VERTEX
  8
0
  5
38B8
 10
823.390
 20
418.562
 30
0.000000
  70
    32
  0
VERTEX
  8
0
  5
38B9
 10
823.403
 20
418.552
 30
0.000000
  70
    32
  0
VERTEX
  8
0
  5
38BA
 10
823.416
 20
418.543
 30
0.000000
  70
    32
  0
VERTEX
  8
0
  5
38BB
 10
823.429
 20
418.534
 30
0.000000
  70
    32
  0
VERTEX
  8
0
  5
38BC
 10
823.442
 20
418.526
 30
0.000000
  70
    32
  0
VERTEX
  8
0
  5
38BD
 10
823.455
 20
418.518
 30
0.000000
  70
    32
  0
VERTEX
  8
0
  5
38BE
 10
823.469
 20
418.511
 30
0.000000
  70
    32
  0
VERTEX
  8
0
  5
38BF
 10
823.482
 20
418.504
 30
0.000000
  70
    32
  0
VERTEX
  8
0
  5
38C0
 10
823.496
 20
418.498
 30
0.000000
  70
    32
  0
VERTEX
  8
0
  5
38C1
 10
823.509
 20
418.493
 30
0.000000
  70
    32
  0
VERTEX
  8
0
  5
38C2
 10
823.523
 20
418.488
 30
0.000000
  70
    32
  0
VERTEX
  8
0
  5
38C3
 10
823.536
 20
418.483
 30
0.000000
  70
    32
  0
VERTEX
  8
0
  5
38C4
 10
823.550
 20
418.479
 30
0.000000
  70
    32
  0
VERTEX
  8
0
  5
38C5
 10
823.564
 20
418.476
 30
0.000000
  70
    32
  0
VERTEX
  8
0
  5
38C6
 10
823.578
 20
418.473
 30
0.000000
  70
    32
  0
VERTEX
  8
0
  5
38C7
 10
823.592
 20
418.471
 30
0.000000
  70
    32
  0
VERTEX
  8
0
  5
38C8
 10
823.606
 20
418.469
 30
0.000000
  70
    32
  0
VERTEX
  8
0
  5
38C9
 10
823.620
 20
418.468
 30
0.000000
  70
    32
  0
VERTEX
  8
0
  5
38CA
 10
823.635
 20
418.468
 30
0.000000
  70
    32
  0
VERTEX
  8
0
  5
38CB
 10
823.649
 20
418.468
 30
0.000000
  70
    32
  0
VERTEX
  8
0
  5
38CC
 10
823.663
 20
418.468
 30
0.000000
  70
    32
  0
VERTEX
  8
0
  5
38CD
 10
823.678
 20
418.470
 30
0.000000
  70
    32
  0
VERTEX
  8
0
  5
38CE
 10
823.692
 20
418.471
 30
0.000000
  70
    32
  0
VERTEX
  8
0
  5
38CF
 10
823.707
 20
418.474
 30
0.000000
  70
    32
  0
VERTEX
  8
0
  5
38D0
 10
823.722
 20
418.477
 30
0.000000
  70
    32
  0
VERTEX
  8
0
  5
38D1
 10
823.737
 20
418.480
 30
0.000000
  70
    32
  0
VERTEX
  8
0
  5
38D2
 10
823.752
 20
418.484
 30
0.000000
  70
    32
  0
VERTEX
  8
0
  5
38D3
 10
823.767
 20
418.489
 30
0.000000
  70
    32
  0
VERTEX
  8
0
  5
38D4
 10
823.782
 20
418.493
 30
0.000000
  70
    32
  0
VERTEX
  8
0
  5
38D5
 10
823.797
 20
418.499
 30
0.000000
  70
    32
  0
VERTEX
  8
0
  5
38D6
 10
823.812
 20
418.505
 30
0.000000
  70
    32
  0
VERTEX
  8
0
  5
38D7
 10
823.827
 20
418.511
 30
0.000000
  70
    32
  0
VERTEX
  8
0
  5
38D8
 10
823.843
 20
418.518
 30
0.000000
  70
    32
  0
VERTEX
  8
0
  5
38D9
 10
823.858
 20
418.526
 30
0.000000
  70
    32
  0
VERTEX
  8
0
  5
38DA
 10
823.873
 20
418.534
 30
0.000000
  70
    32
  0
VERTEX
  8
0
  5
38DB
 10
823.889
 20
418.542
 30
0.000000
  70
    32
  0
VERTEX
  8
0
  5
38DC
 10
823.905
 20
418.551
 30
0.000000
  70
    32
  0
VERTEX
  8
0
  5
38DD
 10
823.920
 20
418.560
 30
0.000000
  70
    32
  0
VERTEX
  8
0
  5
38DE
 10
823.936
 20
418.570
 30
0.000000
  70
    32
  0
VERTEX
  8
0
  5
38DF
 10
823.952
 20
418.580
 30
0.000000
  70
    32
  0
VERTEX
  8
0
  5
38E0
 10
823.967
 20
418.590
 30
0.000000
  70
    32
  0
VERTEX
  8
0
  5
38E1
 10
823.983
 20
418.601
 30
0.000000
  70
    32
  0
VERTEX
  8
0
  5
38E2
 10
823.999
 20
418.612
 30
0.000000
  70
    32
  0
VERTEX
  8
0
  5
38E3
 10
824.015
 20
418.624
 30
0.000000
  70
    32
  0
VERTEX
  8
0
  5
38E4
 10
824.031
 20
418.636
 30
0.000000
  70
    32
  0
VERTEX
  8
0
  5
38E5
 10
824.047
 20
418.649
 30
0.000000
  70
    32
  0
VERTEX
  8
0
  5
38E6
 10
824.064
 20
418.661
 30
0.000000
  70
    32
  0
VERTEX
  8
0
  5
38E7
 10
824.080
 20
418.675
 30
0.000000
  70
    32
  0
VERTEX
  8
0
  5
38E8
 10
824.096
 20
418.688
 30
0.000000
  70
    32
  0
VERTEX
  8
0
  5
38E9
 10
824.112
 20
418.702
 30
0.000000
  70
    32
  0
VERTEX
  8
0
  5
38EA
 10
824.129
 20
418.716
 30
0.000000
  70
    32
  0
VERTEX
  8
0
  5
38EB
 10
824.145
 20
418.731
 30
0.000000
  70
    32
  0
VERTEX
  8
0
  5
38EC
 10
824.162
 20
418.746
 30
0.000000
  70
    32
  0
VERTEX
  8
0
  5
38ED
 10
824.178
 20
418.761
 30
0.000000
  70
    32
  0
VERTEX
  8
0
  5
38EE
 10
824.195
 20
418.776
 30
0.000000
  70
    32
  0
VERTEX
  8
0
  5
38EF
 10
824.211
 20
418.792
 30
0.000000
  70
    32
  0
VERTEX
  8
0
  5
38F0
 10
824.228
 20
418.808
 30
0.000000
  70
    32
  0
VERTEX
  8
0
  5
38F1
 10
824.245
 20
418.824
 30
0.000000
  70
    32
  0
VERTEX
  8
0
  5
38F2
 10
824.261
 20
418.841
 30
0.000000
  70
    32
  0
VERTEX
  8
0
  5
38F3
 10
824.278
 20
418.858
 30
0.000000
  70
    32
  0
VERTEX
  8
0
  5
38F4
 10
824.295
 20
418.875
 30
0.000000
  70
    32
  0
VERTEX
  8
0
  5
38F5
 10
824.312
 20
418.892
 30
0.000000
  70
    32
  0
VERTEX
  8
0
  5
38F6
 10
824.328
 20
418.910
 30
0.000000
  70
    32
  0
VERTEX
  8
0
  5
38F7
 10
824.345
 20
418.928
 30
0.000000
  70
    32
  0
VERTEX
  8
0
  5
38F8
 10
824.362
 20
418.946
 30
0.000000
  70
    32
  0
VERTEX
  8
0
  5
38F9
 10
824.379
 20
418.964
 30
0.000000
  70
    32
  0
VERTEX
  8
0
  5
38FA
 10
824.396
 20
418.982
 30
0.000000
  70
    32
  0
VERTEX
  8
0
  5
38FB
 10
824.413
 20
419.001
 30
0.000000
  70
    32
  0
VERTEX
  8
0
  5
38FC
 10
824.430
 20
419.020
 30
0.000000
  70
    32
  0
VERTEX
  8
0
  5
38FD
 10
824.447
 20
419.039
 30
0.000000
  70
    32
  0
VERTEX
  8
0
  5
38FE
 10
824.464
 20
419.058
 30
0.000000
  70
    32
  0
VERTEX
  8
0
  5
38FF
 10
824.481
 20
419.078
 30
0.000000
  70
    32
  0
VERTEX
  8
0
  5
3900
 10
824.499
 20
419.097
 30
0.000000
  70
    32
  0
VERTEX
  8
0
  5
3901
 10
824.516
 20
419.117
 30
0.000000
  70
    32
  0
VERTEX
  8
0
  5
3902
 10
824.533
 20
419.137
 30
0.000000
  70
    32
  0
VERTEX
  8
0
  5
3903
 10
824.550
 20
419.157
 30
0.000000
  70
    32
  0
VERTEX
  8
0
  5
3904
 10
824.567
 20
419.177
 30
0.000000
  70
    32
  0
VERTEX
  8
0
  5
3905
 10
824.584
 20
419.197
 30
0.000000
  70
    32
  0
VERTEX
  8
0
  5
3906
 10
824.602
 20
419.217
 30
0.000000
  70
    32
  0
VERTEX
  8
0
  5
3907
 10
824.619
 20
419.238
 30
0.000000
  70
    32
  0
VERTEX
  8
0
  5
3908
 10
824.636
 20
419.258
 30
0.000000
  70
    32
  0
VERTEX
  8
0
  5
3909
 10
824.653
 20
419.279
 30
0.000000
  70
    32
  0
VERTEX
  8
0
  5
390A
 10
824.671
 20
419.300
 30
0.000000
  70
    32
  0
VERTEX
  8
0
  5
390B
 10
824.688
 20
419.321
 30
0.000000
  70
    32
  0
VERTEX
  8
0
  5
390C
 10
824.705
 20
419.341
 30
0.000000
  70
    32
  0
VERTEX
  8
0
  5
390D
 10
824.723
 20
419.362
 30
0.000000
  70
    32
  0
VERTEX
  8
0
  5
390E
 10
824.740
 20
419.383
 30
0.000000
  70
    32
  0
VERTEX
  8
0
  5
390F
 10
824.757
 20
419.404
 30
0.000000
  70
    32
  0
VERTEX
  8
0
  5
3910
 10
824.775
 20
419.425
 30
0.000000
  70
    32
  0
VERTEX
  8
0
  5
3911
 10
824.792
 20
419.446
 30
0.000000
  70
    32
  0
VERTEX
  8
0
  5
3912
 10
824.809
 20
419.467
 30
0.000000
  70
    32
  0
VERTEX
  8
0
  5
3913
 10
824.827
 20
419.488
 30
0.000000
  70
    32
  0
SEQEND
  8
0
  5
3914
  0
LINE
  5
3231
  8
0
 10
824.89807719730754
 20
408.94826549840059
 30
0.0
 11
824.61523419730736
 21
406.9683664984006
 31
0.0
  0
LINE
  5
3232
  8
0
 10
824.89807719730754
 20
418.98846749840061
 30
0.0
 11
824.61523419730736
 21
420.96836649840048
 31
0.0
  0
LINE
  5
3234
  8
0
 10
800.61523419730736
 20
417.9683664984006
 30
0.0
 11
800.61523419730736
 21
409.9683664984006
 31
0.0
  0
ARC
  5
3235
  8
0
 10
802.61523419730747
 20
409.9683664984006
 30
0.0
 40
2.0
 50
180.0
 51
270.0
  0
ARC
  5
3236
  8
0
 10
802.61523419730747
 20
417.9683664984006
 30
0.0
 40
2.0
 50
90.0
 51
180.0
  0
LINE
  5
3237
  8
0
 10
802.61523419730747
 20
407.96836649840048
 30
0.0
 11
822.61523419730736
 21
407.96836649840048
 31
0.0
  0
LINE
  5
3238
  8
0
 10
802.61523419730747
 20
419.96836649840048
 30
0.0
 11
822.61523419730736
 21
419.96836649840048
 31
0.0
  0
CIRCLE
  5
3239
  8
0
 10
814.11523419730747
 20
413.9683664984006
 30
0.0
 40
6.0
  0
LINE
  5
323A
  8
0
 10
856.11523419730747
 20
428.76182849840052
 30
0.0
 11
856.11523419730747
 21
399.17490549840062
 31
0.0
  0
LINE
  5
323B
  8
0
 10
862.51523419730745
 20
428.76836649840061
 30
0.0
 11
862.51523419730745
 21
399.1683664984007
 31
0.0
  0
LINE
  5
323C
  8
2
 10
836.01523419730745
 20
426.39059049840063
 30
0.0
 11
836.01523419730745
 21
401.54614349840068
 31
0.0
  0
ARC
  5
3240
  8
0
 10
850.61523419730736
 20
424.76836649840061
 30
0.0
 40
1.0
 50
0.0
 51
90.0
  0
LINE
  5
3241
  8
0
 10
860.11523419730736
 20
423.66836649840059
 30
0.0
 11
858.56523419730752
 21
423.66836649840059
 31
0.0
  0
ARC
  5
3244
  8
0
 10
850.61523419730736
 20
403.16836649840059
 30
0.0
 40
1.0
 50
270.0
 51
0.0
  0
ARC
  5
3249
  8
0
 10
861.51523419730745
 20
399.1683664984007
 30
0.0
 40
1.0
 50
270.0
 51
0.0
  0
LINE
  5
324A
  8
0
 10
860.11523419730736
 20
404.26836649840061
 30
0.0
 11
858.56523419730752
 21
404.26836649840061
 31
0.0
  0
LINE
  5
324B
  8
0
 10
860.11523419730736
 20
398.16836649840059
 30
0.0
 11
861.51523419730745
 21
398.16836649840059
 31
0.0
  0
LINE
  5
324C
  8
0
 10
850.21523419730761
 20
421.71836649840048
 30
0.0
 11
850.21523419730761
 21
406.21836649840048
 31
0.0
  0
LINE
  5
324D
  8
0
 10
851.61523419730747
 20
424.76836649840061
 30
0.0
 11
851.61523419730747
 21
403.16836649840059
 31
0.0
  0
LINE
  5
324E
  8
0
 10
858.56523419730752
 20
423.66836649840059
 30
0.0
 11
858.56523419730752
 21
404.26836649840061
 31
0.0
  0
LINE
  5
324F
  8
0
 10
860.11523419730736
 20
423.66836649840059
 30
0.0
 11
860.11523419730736
 21
404.26836649840061
 31
0.0
  0
ARC
  5
3250
  8
0
 10
839.11523419730747
 20
424.76836649840061
 30
0.0
 40
1.0
 50
90.0
 51
180.0
  0
LINE
  5
3251
  8
0
 10
840.61523419730736
 20
421.71836649840048
 30
0.0
 11
840.61523419730736
 21
420.41836649840059
 31
0.0
  0
LINE
  5
3252
  8
0
 10
838.89807719730743
 20
420.98846749840072
 30
0.0
 11
838.61523419730736
 21
422.9683664984006
 31
0.0
  0
LINE
  5
3253
  8
0
 10
838.89807719730743
 20
406.94826549840059
 30
0.0
 11
838.61523419730736
 21
404.9683664984006
 31
0.0
  0
LINE
  5
3254
  8
0
 10
840.61523419730736
 20
406.21836649840048
 30
0.0
 11
840.61523419730736
 21
407.51836649840061
 31
0.0
  0
LINE
  5
3255
  8
0
 10
838.84150819730746
 20
407.85228549840048
 30
0.0
 11
838.84150819730746
 21
406.95634649840048
 31
0.0
  0
POLYLINE
  8
0
  5
3915
  66
     1
 10
0.000000
 20
0.000000
 30
0.000000
  70
     8
  0
VERTEX
  8
0
  5
3916
 10
838.842
 20
407.852
 30
0.000000
  70
    32
  0
VERTEX
  8
0
  5
3917
 10
838.853
 20
407.867
 30
0.000000
  70
    32
  0
VERTEX
  8
0
  5
3918
 10
838.865
 20
407.881
 30
0.000000
  70
    32
  0
VERTEX
  8
0
  5
3919
 10
838.877
 20
407.895
 30
0.000000
  70
    32
  0
VERTEX
  8
0
  5
391A
 10
838.889
 20
407.910
 30
0.000000
  70
    32
  0
VERTEX
  8
0
  5
391B
 10
838.900
 20
407.924
 30
0.000000
  70
    32
  0
VERTEX
  8
0
  5
391C
 10
838.912
 20
407.938
 30
0.000000
  70
    32
  0
VERTEX
  8
0
  5
391D
 10
838.924
 20
407.952
 30
0.000000
  70
    32
  0
VERTEX
  8
0
  5
391E
 10
838.936
 20
407.967
 30
0.000000
  70
    32
  0
VERTEX
  8
0
  5
391F
 10
838.947
 20
407.981
 30
0.000000
  70
    32
  0
VERTEX
  8
0
  5
3920
 10
838.959
 20
407.995
 30
0.000000
  70
    32
  0
VERTEX
  8
0
  5
3921
 10
838.971
 20
408.009
 30
0.000000
  70
    32
  0
VERTEX
  8
0
  5
3922
 10
838.983
 20
408.023
 30
0.000000
  70
    32
  0
VERTEX
  8
0
  5
3923
 10
838.994
 20
408.037
 30
0.000000
  70
    32
  0
VERTEX
  8
0
  5
3924
 10
839.006
 20
408.051
 30
0.000000
  70
    32
  0
VERTEX
  8
0
  5
3925
 10
839.018
 20
408.064
 30
0.000000
  70
    32
  0
VERTEX
  8
0
  5
3926
 10
839.030
 20
408.078
 30
0.000000
  70
    32
  0
VERTEX
  8
0
  5
3927
 10
839.041
 20
408.092
 30
0.000000
  70
    32
  0
VERTEX
  8
0
  5
3928
 10
839.053
 20
408.105
 30
0.000000
  70
    32
  0
VERTEX
  8
0
  5
3929
 10
839.065
 20
408.118
 30
0.000000
  70
    32
  0
VERTEX
  8
0
  5
392A
 10
839.077
 20
408.132
 30
0.000000
  70
    32
  0
VERTEX
  8
0
  5
392B
 10
839.088
 20
408.145
 30
0.000000
  70
    32
  0
VERTEX
  8
0
  5
392C
 10
839.100
 20
408.158
 30
0.000000
  70
    32
  0
VERTEX
  8
0
  5
392D
 10
839.112
 20
408.171
 30
0.000000
  70
    32
  0
VERTEX
  8
0
  5
392E
 10
839.123
 20
408.183
 30
0.000000
  70
    32
  0
VERTEX
  8
0
  5
392F
 10
839.135
 20
408.196
 30
0.000000
  70
    32
  0
VERTEX
  8
0
  5
3930
 10
839.147
 20
408.208
 30
0.000000
  70
    32
  0
VERTEX
  8
0
  5
3931
 10
839.159
 20
408.221
 30
0.000000
  70
    32
  0
VERTEX
  8
0
  5
3932
 10
839.170
 20
408.233
 30
0.000000
  70
    32
  0
VERTEX
  8
0
  5
3933
 10
839.182
 20
408.245
 30
0.000000
  70
    32
  0
VERTEX
  8
0
  5
3934
 10
839.194
 20
408.256
 30
0.000000
  70
    32
  0
VERTEX
  8
0
  5
3935
 10
839.205
 20
408.268
 30
0.000000
  70
    32
  0
VERTEX
  8
0
  5
3936
 10
839.217
 20
408.280
 30
0.000000
  70
    32
  0
VERTEX
  8
0
  5
3937
 10
839.229
 20
408.291
 30
0.000000
  70
    32
  0
VERTEX
  8
0
  5
3938
 10
839.240
 20
408.302
 30
0.000000
  70
    32
  0
VERTEX
  8
0
  5
3939
 10
839.252
 20
408.313
 30
0.000000
  70
    32
  0
VERTEX
  8
0
  5
393A
 10
839.264
 20
408.323
 30
0.000000
  70
    32
  0
VERTEX
  8
0
  5
393B
 10
839.275
 20
408.334
 30
0.000000
  70
    32
  0
VERTEX
  8
0
  5
393C
 10
839.287
 20
408.344
 30
0.000000
  70
    32
  0
VERTEX
  8
0
  5
393D
 10
839.298
 20
408.354
 30
0.000000
  70
    32
  0
VERTEX
  8
0
  5
393E
 10
839.310
 20
408.364
 30
0.000000
  70
    32
  0
VERTEX
  8
0
  5
393F
 10
839.322
 20
408.373
 30
0.000000
  70
    32
  0
VERTEX
  8
0
  5
3940
 10
839.333
 20
408.383
 30
0.000000
  70
    32
  0
VERTEX
  8
0
  5
3941
 10
839.345
 20
408.392
 30
0.000000
  70
    32
  0
VERTEX
  8
0
  5
3942
 10
839.356
 20
408.400
 30
0.000000
  70
    32
  0
VERTEX
  8
0
  5
3943
 10
839.368
 20
408.409
 30
0.000000
  70
    32
  0
VERTEX
  8
0
  5
3944
 10
839.379
 20
408.417
 30
0.000000
  70
    32
  0
VERTEX
  8
0
  5
3945
 10
839.391
 20
408.425
 30
0.000000
  70
    32
  0
VERTEX
  8
0
  5
3946
 10
839.402
 20
408.433
 30
0.000000
  70
    32
  0
VERTEX
  8
0
  5
3947
 10
839.414
 20
408.440
 30
0.000000
  70
    32
  0
VERTEX
  8
0
  5
3948
 10
839.425
 20
408.447
 30
0.000000
  70
    32
  0
VERTEX
  8
0
  5
3949
 10
839.437
 20
408.454
 30
0.000000
  70
    32
  0
VERTEX
  8
0
  5
394A
 10
839.448
 20
408.461
 30
0.000000
  70
    32
  0
VERTEX
  8
0
  5
394B
 10
839.460
 20
408.467
 30
0.000000
  70
    32
  0
VERTEX
  8
0
  5
394C
 10
839.471
 20
408.473
 30
0.000000
  70
    32
  0
VERTEX
  8
0
  5
394D
 10
839.483
 20
408.478
 30
0.000000
  70
    32
  0
VERTEX
  8
0
  5
394E
 10
839.494
 20
408.484
 30
0.000000
  70
    32
  0
VERTEX
  8
0
  5
394F
 10
839.506
 20
408.489
 30
0.000000
  70
    32
  0
VERTEX
  8
0
  5
3950
 10
839.517
 20
408.493
 30
0.000000
  70
    32
  0
VERTEX
  8
0
  5
3951
 10
839.528
 20
408.498
 30
0.000000
  70
    32
  0
VERTEX
  8
0
  5
3952
 10
839.540
 20
408.502
 30
0.000000
  70
    32
  0
VERTEX
  8
0
  5
3953
 10
839.551
 20
408.505
 30
0.000000
  70
    32
  0
VERTEX
  8
0
  5
3954
 10
839.562
 20
408.508
 30
0.000000
  70
    32
  0
VERTEX
  8
0
  5
3955
 10
839.574
 20
408.511
 30
0.000000
  70
    32
  0
VERTEX
  8
0
  5
3956
 10
839.585
 20
408.514
 30
0.000000
  70
    32
  0
VERTEX
  8
0
  5
3957
 10
839.596
 20
408.516
 30
0.000000
  70
    32
  0
VERTEX
  8
0
  5
3958
 10
839.608
 20
408.517
 30
0.000000
  70
    32
  0
VERTEX
  8
0
  5
3959
 10
839.619
 20
408.519
 30
0.000000
  70
    32
  0
VERTEX
  8
0
  5
395A
 10
839.630
 20
408.520
 30
0.000000
  70
    32
  0
VERTEX
  8
0
  5
395B
 10
839.642
 20
408.520
 30
0.000000
  70
    32
  0
VERTEX
  8
0
  5
395C
 10
839.653
 20
408.520
 30
0.000000
  70
    32
  0
VERTEX
  8
0
  5
395D
 10
839.664
 20
408.520
 30
0.000000
  70
    32
  0
VERTEX
  8
0
  5
395E
 10
839.675
 20
408.520
 30
0.000000
  70
    32
  0
VERTEX
  8
0
  5
395F
 10
839.686
 20
408.519
 30
0.000000
  70
    32
  0
VERTEX
  8
0
  5
3960
 10
839.698
 20
408.517
 30
0.000000
  70
    32
  0
VERTEX
  8
0
  5
3961
 10
839.709
 20
408.516
 30
0.000000
  70
    32
  0
VERTEX
  8
0
  5
3962
 10
839.720
 20
408.514
 30
0.000000
  70
    32
  0
VERTEX
  8
0
  5
3963
 10
839.731
 20
408.511
 30
0.000000
  70
    32
  0
VERTEX
  8
0
  5
3964
 10
839.742
 20
408.508
 30
0.000000
  70
    32
  0
VERTEX
  8
0
  5
3965
 10
839.753
 20
408.505
 30
0.000000
  70
    32
  0
VERTEX
  8
0
  5
3966
 10
839.764
 20
408.502
 30
0.000000
  70
    32
  0
VERTEX
  8
0
  5
3967
 10
839.776
 20
408.498
 30
0.000000
  70
    32
  0
VERTEX
  8
0
  5
3968
 10
839.787
 20
408.494
 30
0.000000
  70
    32
  0
VERTEX
  8
0
  5
3969
 10
839.798
 20
408.490
 30
0.000000
  70
    32
  0
VERTEX
  8
0
  5
396A
 10
839.809
 20
408.485
 30
0.000000
  70
    32
  0
VERTEX
  8
0
  5
396B
 10
839.820
 20
408.480
 30
0.000000
  70
    32
  0
VERTEX
  8
0
  5
396C
 10
839.831
 20
408.474
 30
0.000000
  70
    32
  0
VERTEX
  8
0
  5
396D
 10
839.842
 20
408.469
 30
0.000000
  70
    32
  0
VERTEX
  8
0
  5
396E
 10
839.853
 20
408.463
 30
0.000000
  70
    32
  0
VERTEX
  8
0
  5
396F
 10
839.864
 20
408.456
 30
0.000000
  70
    32
  0
VERTEX
  8
0
  5
3970
 10
839.875
 20
408.450
 30
0.000000
  70
    32
  0
VERTEX
  8
0
  5
3971
 10
839.886
 20
408.443
 30
0.000000
  70
    32
  0
VERTEX
  8
0
  5
3972
 10
839.897
 20
408.436
 30
0.000000
  70
    32
  0
VERTEX
  8
0
  5
3973
 10
839.908
 20
408.428
 30
0.000000
  70
    32
  0
VERTEX
  8
0
  5
3974
 10
839.919
 20
408.421
 30
0.000000
  70
    32
  0
VERTEX
  8
0
  5
3975
 10
839.930
 20
408.413
 30
0.000000
  70
    32
  0
VERTEX
  8
0
  5
3976
 10
839.941
 20
408.404
 30
0.000000
  70
    32
  0
VERTEX
  8
0
  5
3977
 10
839.951
 20
408.396
 30
0.000000
  70
    32
  0
VERTEX
  8
0
  5
3978
 10
839.962
 20
408.387
 30
0.000000
  70
    32
  0
VERTEX
  8
0
  5
3979
 10
839.973
 20
408.378
 30
0.000000
  70
    32
  0
VERTEX
  8
0
  5
397A
 10
839.984
 20
408.368
 30
0.000000
  70
    32
  0
VERTEX
  8
0
  5
397B
 10
839.995
 20
408.359
 30
0.000000
  70
    32
  0
VERTEX
  8
0
  5
397C
 10
840.006
 20
408.349
 30
0.000000
  70
    32
  0
VERTEX
  8
0
  5
397D
 10
840.017
 20
408.339
 30
0.000000
  70
    32
  0
VERTEX
  8
0
  5
397E
 10
840.028
 20
408.329
 30
0.000000
  70
    32
  0
VERTEX
  8
0
  5
397F
 10
840.038
 20
408.318
 30
0.000000
  70
    32
  0
VERTEX
  8
0
  5
3980
 10
840.049
 20
408.307
 30
0.000000
  70
    32
  0
VERTEX
  8
0
  5
3981
 10
840.060
 20
408.296
 30
0.000000
  70
    32
  0
VERTEX
  8
0
  5
3982
 10
840.071
 20
408.285
 30
0.000000
  70
    32
  0
VERTEX
  8
0
  5
3983
 10
840.082
 20
408.274
 30
0.000000
  70
    32
  0
VERTEX
  8
0
  5
3984
 10
840.093
 20
408.262
 30
0.000000
  70
    32
  0
VERTEX
  8
0
  5
3985
 10
840.103
 20
408.250
 30
0.000000
  70
    32
  0
VERTEX
  8
0
  5
3986
 10
840.114
 20
408.238
 30
0.000000
  70
    32
  0
VERTEX
  8
0
  5
3987
 10
840.125
 20
408.226
 30
0.000000
  70
    32
  0
VERTEX
  8
0
  5
3988
 10
840.136
 20
408.213
 30
0.000000
  70
    32
  0
VERTEX
  8
0
  5
3989
 10
840.146
 20
408.200
 30
0.000000
  70
    32
  0
VERTEX
  8
0
  5
398A
 10
840.157
 20
408.188
 30
0.000000
  70
    32
  0
VERTEX
  8
0
  5
398B
 10
840.168
 20
408.175
 30
0.000000
  70
    32
  0
VERTEX
  8
0
  5
398C
 10
840.179
 20
408.161
 30
0.000000
  70
    32
  0
VERTEX
  8
0
  5
398D
 10
840.189
 20
408.148
 30
0.000000
  70
    32
  0
VERTEX
  8
0
  5
398E
 10
840.200
 20
408.134
 30
0.000000
  70
    32
  0
VERTEX
  8
0
  5
398F
 10
840.211
 20
408.121
 30
0.000000
  70
    32
  0
VERTEX
  8
0
  5
3990
 10
840.222
 20
408.107
 30
0.000000
  70
    32
  0
VERTEX
  8
0
  5
3991
 10
840.232
 20
408.093
 30
0.000000
  70
    32
  0
VERTEX
  8
0
  5
3992
 10
840.243
 20
408.079
 30
0.000000
  70
    32
  0
VERTEX
  8
0
  5
3993
 10
840.254
 20
408.064
 30
0.000000
  70
    32
  0
VERTEX
  8
0
  5
3994
 10
840.264
 20
408.050
 30
0.000000
  70
    32
  0
VERTEX
  8
0
  5
3995
 10
840.275
 20
408.035
 30
0.000000
  70
    32
  0
VERTEX
  8
0
  5
3996
 10
840.286
 20
408.020
 30
0.000000
  70
    32
  0
VERTEX
  8
0
  5
3997
 10
840.296
 20
408.005
 30
0.000000
  70
    32
  0
VERTEX
  8
0
  5
3998
 10
840.307
 20
407.990
 30
0.000000
  70
    32
  0
VERTEX
  8
0
  5
3999
 10
840.318
 20
407.975
 30
0.000000
  70
    32
  0
VERTEX
  8
0
  5
399A
 10
840.328
 20
407.960
 30
0.000000
  70
    32
  0
VERTEX
  8
0
  5
399B
 10
840.339
 20
407.945
 30
0.000000
  70
    32
  0
VERTEX
  8
0
  5
399C
 10
840.350
 20
407.929
 30
0.000000
  70
    32
  0
VERTEX
  8
0
  5
399D
 10
840.360
 20
407.914
 30
0.000000
  70
    32
  0
VERTEX
  8
0
  5
399E
 10
840.371
 20
407.898
 30
0.000000
  70
    32
  0
VERTEX
  8
0
  5
399F
 10
840.382
 20
407.882
 30
0.000000
  70
    32
  0
VERTEX
  8
0
  5
39A0
 10
840.392
 20
407.866
 30
0.000000
  70
    32
  0
VERTEX
  8
0
  5
39A1
 10
840.403
 20
407.850
 30
0.000000
  70
    32
  0
VERTEX
  8
0
  5
39A2
 10
840.414
 20
407.834
 30
0.000000
  70
    32
  0
VERTEX
  8
0
  5
39A3
 10
840.424
 20
407.818
 30
0.000000
  70
    32
  0
VERTEX
  8
0
  5
39A4
 10
840.435
 20
407.802
 30
0.000000
  70
    32
  0
VERTEX
  8
0
  5
39A5
 10
840.445
 20
407.785
 30
0.000000
  70
    32
  0
VERTEX
  8
0
  5
39A6
 10
840.456
 20
407.769
 30
0.000000
  70
    32
  0
VERTEX
  8
0
  5
39A7
 10
840.467
 20
407.753
 30
0.000000
  70
    32
  0
VERTEX
  8
0
  5
39A8
 10
840.477
 20
407.736
 30
0.000000
  70
    32
  0
VERTEX
  8
0
  5
39A9
 10
840.488
 20
407.720
 30
0.000000
  70
    32
  0
VERTEX
  8
0
  5
39AA
 10
840.499
 20
407.703
 30
0.000000
  70
    32
  0
VERTEX
  8
0
  5
39AB
 10
840.509
 20
407.686
 30
0.000000
  70
    32
  0
VERTEX
  8
0
  5
39AC
 10
840.520
 20
407.670
 30
0.000000
  70
    32
  0
VERTEX
  8
0
  5
39AD
 10
840.530
 20
407.653
 30
0.000000
  70
    32
  0
VERTEX
  8
0
  5
39AE
 10
840.541
 20
407.636
 30
0.000000
  70
    32
  0
VERTEX
  8
0
  5
39AF
 10
840.552
 20
407.619
 30
0.000000
  70
    32
  0
VERTEX
  8
0
  5
39B0
 10
840.562
 20
407.603
 30
0.000000
  70
    32
  0
VERTEX
  8
0
  5
39B1
 10
840.573
 20
407.586
 30
0.000000
  70
    32
  0
VERTEX
  8
0
  5
39B2
 10
840.583
 20
407.569
 30
0.000000
  70
    32
  0
VERTEX
  8
0
  5
39B3
 10
840.594
 20
407.552
 30
0.000000
  70
    32
  0
VERTEX
  8
0
  5
39B4
 10
840.605
 20
407.535
 30
0.000000
  70
    32
  0
VERTEX
  8
0
  5
39B5
 10
840.615
 20
407.518
 30
0.000000
  70
    32
  0
SEQEND
  8
0
  5
39B6
  0
ARC
  5
3257
  8
0
 10
839.11523419730747
 20
403.16836649840059
 30
0.0
 40
1.0
 50
180.0
 51
270.0
  0
LINE
  5
3259
  8
0
 10
838.84150819730746
 20
420.08444749840049
 30
0.0
 11
838.84150819730746
 21
420.98038649840061
 31
0.0
  0
POLYLINE
  8
0
  5
39B7
  66
     1
 10
0.000000
 20
0.000000
 30
0.000000
  70
     8
  0
VERTEX
  8
0
  5
39B8
 10
838.842
 20
420.084
 30
0.000000
  70
    32
  0
VERTEX
  8
0
  5
39B9
 10
838.853
 20
420.070
 30
0.000000
  70
    32
  0
VERTEX
  8
0
  5
39BA
 10
838.865
 20
420.056
 30
0.000000
  70
    32
  0
VERTEX
  8
0
  5
39BB
 10
838.877
 20
420.041
 30
0.000000
  70
    32
  0
VERTEX
  8
0
  5
39BC
 10
838.889
 20
420.027
 30
0.000000
  70
    32
  0
VERTEX
  8
0
  5
39BD
 10
838.900
 20
420.013
 30
0.000000
  70
    32
  0
VERTEX
  8
0
  5
39BE
 10
838.912
 20
419.999
 30
0.000000
  70
    32
  0
VERTEX
  8
0
  5
39BF
 10
838.924
 20
419.984
 30
0.000000
  70
    32
  0
VERTEX
  8
0
  5
39C0
 10
838.936
 20
419.970
 30
0.000000
  70
    32
  0
VERTEX
  8
0
  5
39C1
 10
838.947
 20
419.956
 30
0.000000
  70
    32
  0
VERTEX
  8
0
  5
39C2
 10
838.959
 20
419.942
 30
0.000000
  70
    32
  0
VERTEX
  8
0
  5
39C3
 10
838.971
 20
419.928
 30
0.000000
  70
    32
  0
VERTEX
  8
0
  5
39C4
 10
838.983
 20
419.914
 30
0.000000
  70
    32
  0
VERTEX
  8
0
  5
39C5
 10
838.994
 20
419.900
 30
0.000000
  70
    32
  0
VERTEX
  8
0
  5
39C6
 10
839.006
 20
419.886
 30
0.000000
  70
    32
  0
VERTEX
  8
0
  5
39C7
 10
839.018
 20
419.872
 30
0.000000
  70
    32
  0
VERTEX
  8
0
  5
39C8
 10
839.030
 20
419.859
 30
0.000000
  70
    32
  0
VERTEX
  8
0
  5
39C9
 10
839.041
 20
419.845
 30
0.000000
  70
    32
  0
VERTEX
  8
0
  5
39CA
 10
839.053
 20
419.832
 30
0.000000
  70
    32
  0
VERTEX
  8
0
  5
39CB
 10
839.065
 20
419.818
 30
0.000000
  70
    32
  0
VERTEX
  8
0
  5
39CC
 10
839.077
 20
419.805
 30
0.000000
  70
    32
  0
VERTEX
  8
0
  5
39CD
 10
839.088
 20
419.792
 30
0.000000
  70
    32
  0
VERTEX
  8
0
  5
39CE
 10
839.100
 20
419.779
 30
0.000000
  70
    32
  0
VERTEX
  8
0
  5
39CF
 10
839.112
 20
419.766
 30
0.000000
  70
    32
  0
VERTEX
  8
0
  5
39D0
 10
839.123
 20
419.753
 30
0.000000
  70
    32
  0
VERTEX
  8
0
  5
39D1
 10
839.135
 20
419.741
 30
0.000000
  70
    32
  0
VERTEX
  8
0
  5
39D2
 10
839.147
 20
419.728
 30
0.000000
  70
    32
  0
VERTEX
  8
0
  5
39D3
 10
839.159
 20
419.716
 30
0.000000
  70
    32
  0
VERTEX
  8
0
  5
39D4
 10
839.170
 20
419.704
 30
0.000000
  70
    32
  0
VERTEX
  8
0
  5
39D5
 10
839.182
 20
419.692
 30
0.000000
  70
    32
  0
VERTEX
  8
0
  5
39D6
 10
839.194
 20
419.680
 30
0.000000
  70
    32
  0
VERTEX
  8
0
  5
39D7
 10
839.205
 20
419.669
 30
0.000000
  70
    32
  0
VERTEX
  8
0
  5
39D8
 10
839.217
 20
419.657
 30
0.000000
  70
    32
  0
VERTEX
  8
0
  5
39D9
 10
839.229
 20
419.646
 30
0.000000
  70
    32
  0
VERTEX
  8
0
  5
39DA
 10
839.240
 20
419.635
 30
0.000000
  70
    32
  0
VERTEX
  8
0
  5
39DB
 10
839.252
 20
419.624
 30
0.000000
  70
    32
  0
VERTEX
  8
0
  5
39DC
 10
839.264
 20
419.613
 30
0.000000
  70
    32
  0
VERTEX
  8
0
  5
39DD
 10
839.275
 20
419.603
 30
0.000000
  70
    32
  0
VERTEX
  8
0
  5
39DE
 10
839.287
 20
419.593
 30
0.000000
  70
    32
  0
VERTEX
  8
0
  5
39DF
 10
839.298
 20
419.583
 30
0.000000
  70
    32
  0
VERTEX
  8
0
  5
39E0
 10
839.310
 20
419.573
 30
0.000000
  70
    32
  0
VERTEX
  8
0
  5
39E1
 10
839.322
 20
419.564
 30
0.000000
  70
    32
  0
VERTEX
  8
0
  5
39E2
 10
839.333
 20
419.554
 30
0.000000
  70
    32
  0
VERTEX
  8
0
  5
39E3
 10
839.345
 20
419.545
 30
0.000000
  70
    32
  0
VERTEX
  8
0
  5
39E4
 10
839.356
 20
419.536
 30
0.000000
  70
    32
  0
VERTEX
  8
0
  5
39E5
 10
839.368
 20
419.528
 30
0.000000
  70
    32
  0
VERTEX
  8
0
  5
39E6
 10
839.379
 20
419.520
 30
0.000000
  70
    32
  0
VERTEX
  8
0
  5
39E7
 10
839.391
 20
419.512
 30
0.000000
  70
    32
  0
VERTEX
  8
0
  5
39E8
 10
839.402
 20
419.504
 30
0.000000
  70
    32
  0
VERTEX
  8
0
  5
39E9
 10
839.414
 20
419.497
 30
0.000000
  70
    32
  0
VERTEX
  8
0
  5
39EA
 10
839.425
 20
419.489
 30
0.000000
  70
    32
  0
VERTEX
  8
0
  5
39EB
 10
839.437
 20
419.483
 30
0.000000
  70
    32
  0
VERTEX
  8
0
  5
39EC
 10
839.448
 20
419.476
 30
0.000000
  70
    32
  0
VERTEX
  8
0
  5
39ED
 10
839.460
 20
419.470
 30
0.000000
  70
    32
  0
VERTEX
  8
0
  5
39EE
 10
839.471
 20
419.464
 30
0.000000
  70
    32
  0
VERTEX
  8
0
  5
39EF
 10
839.483
 20
419.458
 30
0.000000
  70
    32
  0
VERTEX
  8
0
  5
39F0
 10
839.494
 20
419.453
 30
0.000000
  70
    32
  0
VERTEX
  8
0
  5
39F1
 10
839.506
 20
419.448
 30
0.000000
  70
    32
  0
VERTEX
  8
0
  5
39F2
 10
839.517
 20
419.443
 30
0.000000
  70
    32
  0
VERTEX
  8
0
  5
39F3
 10
839.528
 20
419.439
 30
0.000000
  70
    32
  0
VERTEX
  8
0
  5
39F4
 10
839.540
 20
419.435
 30
0.000000
  70
    32
  0
VERTEX
  8
0
  5
39F5
 10
839.551
 20
419.432
 30
0.000000
  70
    32
  0
VERTEX
  8
0
  5
39F6
 10
839.562
 20
419.428
 30
0.000000
  70
    32
  0
VERTEX
  8
0
  5
39F7
 10
839.574
 20
419.426
 30
0.000000
  70
    32
  0
VERTEX
  8
0
  5
39F8
 10
839.585
 20
419.423
 30
0.000000
  70
    32
  0
VERTEX
  8
0
  5
39F9
 10
839.596
 20
419.421
 30
0.000000
  70
    32
  0
VERTEX
  8
0
  5
39FA
 10
839.608
 20
419.419
 30
0.000000
  70
    32
  0
VERTEX
  8
0
  5
39FB
 10
839.619
 20
419.418
 30
0.000000
  70
    32
  0
VERTEX
  8
0
  5
39FC
 10
839.630
 20
419.417
 30
0.000000
  70
    32
  0
VERTEX
  8
0
  5
39FD
 10
839.642
 20
419.416
 30
0.000000
  70
    32
  0
VERTEX
  8
0
  5
39FE
 10
839.653
 20
419.416
 30
0.000000
  70
    32
  0
VERTEX
  8
0
  5
39FF
 10
839.664
 20
419.417
 30
0.000000
  70
    32
  0
VERTEX
  8
0
  5
3A00
 10
839.675
 20
419.417
 30
0.000000
  70
    32
  0
VERTEX
  8
0
  5
3A01
 10
839.686
 20
419.418
 30
0.000000
  70
    32
  0
VERTEX
  8
0
  5
3A02
 10
839.698
 20
419.419
 30
0.000000
  70
    32
  0
VERTEX
  8
0
  5
3A03
 10
839.709
 20
419.421
 30
0.000000
  70
    32
  0
VERTEX
  8
0
  5
3A04
 10
839.720
 20
419.423
 30
0.000000
  70
    32
  0
VERTEX
  8
0
  5
3A05
 10
839.731
 20
419.426
 30
0.000000
  70
    32
  0
VERTEX
  8
0
  5
3A06
 10
839.742
 20
419.428
 30
0.000000
  70
    32
  0
VERTEX
  8
0
  5
3A07
 10
839.753
 20
419.431
 30
0.000000
  70
    32
  0
VERTEX
  8
0
  5
3A08
 10
839.764
 20
419.435
 30
0.000000
  70
    32
  0
VERTEX
  8
0
  5
3A09
 10
839.776
 20
419.439
 30
0.000000
  70
    32
  0
VERTEX
  8
0
  5
3A0A
 10
839.787
 20
419.443
 30
0.000000
  70
    32
  0
VERTEX
  8
0
  5
3A0B
 10
839.798
 20
419.447
 30
0.000000
  70
    32
  0
VERTEX
  8
0
  5
3A0C
 10
839.809
 20
419.452
 30
0.000000
  70
    32
  0
VERTEX
  8
0
  5
3A0D
 10
839.820
 20
419.457
 30
0.000000
  70
    32
  0
VERTEX
  8
0
  5
3A0E
 10
839.831
 20
419.462
 30
0.000000
  70
    32
  0
VERTEX
  8
0
  5
3A0F
 10
839.842
 20
419.468
 30
0.000000
  70
    32
  0
VERTEX
  8
0
  5
3A10
 10
839.853
 20
419.474
 30
0.000000
  70
    32
  0
VERTEX
  8
0
  5
3A11
 10
839.864
 20
419.480
 30
0.000000
  70
    32
  0
VERTEX
  8
0
  5
3A12
 10
839.875
 20
419.487
 30
0.000000
  70
    32
  0
VERTEX
  8
0
  5
3A13
 10
839.886
 20
419.494
 30
0.000000
  70
    32
  0
VERTEX
  8
0
  5
3A14
 10
839.897
 20
419.501
 30
0.000000
  70
    32
  0
VERTEX
  8
0
  5
3A15
 10
839.908
 20
419.508
 30
0.000000
  70
    32
  0
VERTEX
  8
0
  5
3A16
 10
839.919
 20
419.516
 30
0.000000
  70
    32
  0
VERTEX
  8
0
  5
3A17
 10
839.930
 20
419.524
 30
0.000000
  70
    32
  0
VERTEX
  8
0
  5
3A18
 10
839.941
 20
419.533
 30
0.000000
  70
    32
  0
VERTEX
  8
0
  5
3A19
 10
839.951
 20
419.541
 30
0.000000
  70
    32
  0
VERTEX
  8
0
  5
3A1A
 10
839.962
 20
419.550
 30
0.000000
  70
    32
  0
VERTEX
  8
0
  5
3A1B
 10
839.973
 20
419.559
 30
0.000000
  70
    32
  0
VERTEX
  8
0
  5
3A1C
 10
839.984
 20
419.568
 30
0.000000
  70
    32
  0
VERTEX
  8
0
  5
3A1D
 10
839.995
 20
419.578
 30
0.000000
  70
    32
  0
VERTEX
  8
0
  5
3A1E
 10
840.006
 20
419.588
 30
0.000000
  70
    32
  0
VERTEX
  8
0
  5
3A1F
 10
840.017
 20
419.598
 30
0.000000
  70
    32
  0
VERTEX
  8
0
  5
3A20
 10
840.028
 20
419.608
 30
0.000000
  70
    32
  0
VERTEX
  8
0
  5
3A21
 10
840.038
 20
419.619
 30
0.000000
  70
    32
  0
VERTEX
  8
0
  5
3A22
 10
840.049
 20
419.630
 30
0.000000
  70
    32
  0
VERTEX
  8
0
  5
3A23
 10
840.060
 20
419.641
 30
0.000000
  70
    32
  0
VERTEX
  8
0
  5
3A24
 10
840.071
 20
419.652
 30
0.000000
  70
    32
  0
VERTEX
  8
0
  5
3A25
 10
840.082
 20
419.663
 30
0.000000
  70
    32
  0
VERTEX
  8
0
  5
3A26
 10
840.093
 20
419.675
 30
0.000000
  70
    32
  0
VERTEX
  8
0
  5
3A27
 10
840.103
 20
419.687
 30
0.000000
  70
    32
  0
VERTEX
  8
0
  5
3A28
 10
840.114
 20
419.699
 30
0.000000
  70
    32
  0
VERTEX
  8
0
  5
3A29
 10
840.125
 20
419.711
 30
0.000000
  70
    32
  0
VERTEX
  8
0
  5
3A2A
 10
840.136
 20
419.724
 30
0.000000
  70
    32
  0
VERTEX
  8
0
  5
3A2B
 10
840.146
 20
419.736
 30
0.000000
  70
    32
  0
VERTEX
  8
0
  5
3A2C
 10
840.157
 20
419.749
 30
0.000000
  70
    32
  0
VERTEX
  8
0
  5
3A2D
 10
840.168
 20
419.762
 30
0.000000
  70
    32
  0
VERTEX
  8
0
  5
3A2E
 10
840.179
 20
419.775
 30
0.000000
  70
    32
  0
VERTEX
  8
0
  5
3A2F
 10
840.189
 20
419.789
 30
0.000000
  70
    32
  0
VERTEX
  8
0
  5
3A30
 10
840.200
 20
419.802
 30
0.000000
  70
    32
  0
VERTEX
  8
0
  5
3A31
 10
840.211
 20
419.816
 30
0.000000
  70
    32
  0
VERTEX
  8
0
  5
3A32
 10
840.222
 20
419.830
 30
0.000000
  70
    32
  0
VERTEX
  8
0
  5
3A33
 10
840.232
 20
419.844
 30
0.000000
  70
    32
  0
VERTEX
  8
0
  5
3A34
 10
840.243
 20
419.858
 30
0.000000
  70
    32
  0
VERTEX
  8
0
  5
3A35
 10
840.254
 20
419.872
 30
0.000000
  70
    32
  0
VERTEX
  8
0
  5
3A36
 10
840.264
 20
419.887
 30
0.000000
  70
    32
  0
VERTEX
  8
0
  5
3A37
 10
840.275
 20
419.902
 30
0.000000
  70
    32
  0
VERTEX
  8
0
  5
3A38
 10
840.286
 20
419.916
 30
0.000000
  70
    32
  0
VERTEX
  8
0
  5
3A39
 10
840.296
 20
419.931
 30
0.000000
  70
    32
  0
VERTEX
  8
0
  5
3A3A
 10
840.307
 20
419.946
 30
0.000000
  70
    32
  0
VERTEX
  8
0
  5
3A3B
 10
840.318
 20
419.961
 30
0.000000
  70
    32
  0
VERTEX
  8
0
  5
3A3C
 10
840.328
 20
419.977
 30
0.000000
  70
    32
  0
VERTEX
  8
0
  5
3A3D
 10
840.339
 20
419.992
 30
0.000000
  70
    32
  0
VERTEX
  8
0
  5
3A3E
 10
840.350
 20
420.008
 30
0.000000
  70
    32
  0
VERTEX
  8
0
  5
3A3F
 10
840.360
 20
420.023
 30
0.000000
  70
    32
  0
VERTEX
  8
0
  5
3A40
 10
840.371
 20
420.039
 30
0.000000
  70
    32
  0
VERTEX
  8
0
  5
3A41
 10
840.382
 20
420.055
 30
0.000000
  70
    32
  0
VERTEX
  8
0
  5
3A42
 10
840.392
 20
420.071
 30
0.000000
  70
    32
  0
VERTEX
  8
0
  5
3A43
 10
840.403
 20
420.087
 30
0.000000
  70
    32
  0
VERTEX
  8
0
  5
3A44
 10
840.414
 20
420.103
 30
0.000000
  70
    32
  0
VERTEX
  8
0
  5
3A45
 10
840.424
 20
420.119
 30
0.000000
  70
    32
  0
VERTEX
  8
0
  5
3A46
 10
840.435
 20
420.135
 30
0.000000
  70
    32
  0
VERTEX
  8
0
  5
3A47
 10
840.445
 20
420.151
 30
0.000000
  70
    32
  0
VERTEX
  8
0
  5
3A48
 10
840.456
 20
420.168
 30
0.000000
  70
    32
  0
VERTEX
  8
0
  5
3A49
 10
840.467
 20
420.184
 30
0.000000
  70
    32
  0
VERTEX
  8
0
  5
3A4A
 10
840.477
 20
420.201
 30
0.000000
  70
    32
  0
VERTEX
  8
0
  5
3A4B
 10
840.488
 20
420.217
 30
0.000000
  70
    32
  0
VERTEX
  8
0
  5
3A4C
 10
840.499
 20
420.234
 30
0.000000
  70
    32
  0
VERTEX
  8
0
  5
3A4D
 10
840.509
 20
420.250
 30
0.000000
  70
    32
  0
VERTEX
  8
0
  5
3A4E
 10
840.520
 20
420.267
 30
0.000000
  70
    32
  0
VERTEX
  8
0
  5
3A4F
 10
840.530
 20
420.284
 30
0.000000
  70
    32
  0
VERTEX
  8
0
  5
3A50
 10
840.541
 20
420.300
 30
0.000000
  70
    32
  0
VERTEX
  8
0
  5
3A51
 10
840.552
 20
420.317
 30
0.000000
  70
    32
  0
VERTEX
  8
0
  5
3A52
 10
840.562
 20
420.334
 30
0.000000
  70
    32
  0
VERTEX
  8
0
  5
3A53
 10
840.573
 20
420.351
 30
0.000000
  70
    32
  0
VERTEX
  8
0
  5
3A54
 10
840.583
 20
420.368
 30
0.000000
  70
    32
  0
VERTEX
  8
0
  5
3A55
 10
840.594
 20
420.385
 30
0.000000
  70
    32
  0
VERTEX
  8
0
  5
3A56
 10
840.605
 20
420.401
 30
0.000000
  70
    32
  0
VERTEX
  8
0
  5
3A57
 10
840.615
 20
420.418
 30
0.000000
  70
    32
  0
SEQEND
  8
0
  5
3A58
  0
LINE
  5
325B
  8
0
 10
838.11523419730736
 20
424.76836649840061
 30
0.0
 11
838.11523419730736
 21
403.16836649840059
 31
0.0
  0
LINE
  5
325C
  8
2
 10
837.61523419730747
 20
423.7833664984006
 30
0.0
 11
837.61523419730747
 21
404.1533664984006
 31
0.0
  0
LINE
  5
325E
  8
0
 10
840.61523419730736
 20
406.21836649840048
 30
0.0
 11
850.21523419730761
 21
406.21836649840048
 31
0.0
  0
LINE
  5
3260
  8
0
 10
839.11523419730747
 20
402.16836649840059
 30
0.0
 11
850.61523419730736
 21
402.16836649840059
 31
0.0
  0
LINE
  5
3263
  8
0
 10
839.11523419730747
 20
425.76836649840061
 30
0.0
 11
850.61523419730736
 21
425.76836649840061
 31
0.0
  0
LINE
  5
3264
  8
0
 10
840.61523419730736
 20
421.71836649840048
 30
0.0
 11
850.21523419730761
 21
421.71836649840048
 31
0.0
  0
ARC
  5
326F
  8
0
 10
861.51523419730745
 20
428.76836649840061
 30
0.0
 40
1.0
 50
0.0
 51
90.0
  0
LINE
  5
3270
  8
0
 10
860.11523419730736
 20
429.76836649840061
 30
0.0
 11
861.51523419730745
 21
429.76836649840061
 31
0.0
  0
LINE
  5
3271
  8
0
 10
860.11523419730736
 20
431.64336649840061
 30
0.0
 11
860.11523419730736
 21
428.76182849840052
 31
0.0
  0
ARC
  5
3272
  8
0
 10
1050.8152341973071
 20
413.56836649840051
 30
0.0
 40
2.25
 50
180.0
 51
0.0
  0
ARC
  5
3273
  8
0
 10
1050.8152341973071
 20
414.36836649840052
 30
0.0
 40
2.25
 50
0.0
 51
180.0
  0
LINE
  5
3275
  8
0
 10
927.41523419730765
 20
416.2183664984006
 30
0.0
 11
926.61523419730747
 21
416.2183664984006
 31
0.0
  0
ARC
  5
3276
  8
0
 10
926.61523419730747
 20
413.9683664984006
 30
0.0
 40
2.25
 50
90.0
 51
270.0
  0
LINE
  5
3277
  8
0
 10
927.41523419730765
 20
411.7183664984006
 30
0.0
 11
926.61523419730747
 21
411.7183664984006
 31
0.0
  0
ARC
  5
3278
  8
0
 10
927.41523419730765
 20
413.9683664984006
 30
0.0
 40
2.25
 50
270.0
 51
90.0
  0
LINE
  5
3279
  8
1
 10
927.01523419730745
 20
419.96836649840048
 30
0.0
 11
927.01523419730745
 21
407.96836649840048
 31
0.0
  0
ARC
  5
327A
  8
0
 10
1038.115234197307
 20
413.56836649840051
 30
0.0
 40
2.25
 50
180.0
 51
0.0
  0
ARC
  5
327B
  8
0
 10
1038.115234197307
 20
414.36836649840052
 30
0.0
 40
2.25
 50
0.0
 51
180.0
  0
LINE
  5
327C
  8
1
 10
1038.115234197307
 20
419.96836649840048
 30
0.0
 11
1038.115234197307
 21
407.96836649840048
 31
0.0
  0
LINE
  5
327D
  8
0
 10
1035.865234197307
 20
414.36836649840052
 30
0.0
 11
1035.865234197307
 21
413.56836649840051
 31
0.0
  0
LINE
  5
327E
  8
0
 10
1040.365234197307
 20
414.36836649840052
 30
0.0
 11
1040.365234197307
 21
413.56836649840051
 31
0.0
  0
LINE
  5
327F
  8
1
 10
1050.8152341973071
 20
419.96836649840048
 30
0.0
 11
1050.8152341973071
 21
407.96836649840048
 31
0.0
  0
LINE
  5
3280
  8
0
 10
1048.5652341973071
 20
414.36836649840052
 30
0.0
 11
1048.5652341973071
 21
413.56836649840051
 31
0.0
  0
LINE
  5
3281
  8
0
 10
1066.7152341973081
 20
399.17490549840062
 30
0.0
 11
1066.7152341973081
 21
396.2933664984007
 31
0.0
  0
LINE
  5
3283
  8
0
 10
1059.165234197307
 20
428.76182849840052
 30
0.0
 11
1059.165234197307
 21
399.17490549840062
 31
0.0
  0
LINE
  5
3284
  8
0
 10
1069.915234197307
 20
426.66836649840059
 30
0.0
 11
1069.915234197307
 21
401.26836649840061
 31
0.0
  0
LINE
  5
3285
  8
0
 10
1066.7152341973081
 20
423.66836649840059
 30
0.0
 11
1065.165234197307
 21
423.66836649840059
 31
0.0
  0
LINE
  5
3286
  8
0
 10
1053.0652341973071
 20
414.36836649840052
 30
0.0
 11
1053.0652341973071
 21
413.56836649840051
 31
0.0
  0
LINE
  5
3287
  8
0
 10
1066.7152341973081
 20
404.26836649840061
 30
0.0
 11
1065.165234197307
 21
404.26836649840061
 31
0.0
  0
LINE
  5
3288
  8
0
 10
1066.7152341973081
 20
398.26836649840072
 30
0.0
 11
1066.915234197307
 21
398.26836649840072
 31
0.0
  0
ARC
  5
3289
  8
0
 10
1066.915234197307
 20
401.26836649840061
 30
0.0
 40
3.0
 50
270.0
 51
0.0
  0
LINE
  5
328A
  8
0
 10
1065.165234197307
 20
423.66836649840059
 30
0.0
 11
1065.165234197307
 21
404.26836649840061
 31
0.0
  0
LINE
  5
328B
  8
0
 10
1066.7152341973081
 20
423.66836649840059
 30
0.0
 11
1066.7152341973081
 21
404.26836649840061
 31
0.0
  0
LINE
  5
328C
  8
0
 10
1066.7152341973081
 20
429.66836649840059
 30
0.0
 11
1066.915234197307
 21
429.66836649840059
 31
0.0
  0
LINE
  5
328D
  8
0
 10
1066.7152341973081
 20
428.76182849840052
 30
0.0
 11
1066.7152341973081
 21
431.64336649840061
 31
0.0
  0
ARC
  5
328E
  8
0
 10
1066.915234197307
 20
426.66836649840059
 30
0.0
 40
3.0
 50
0.0
 51
90.0
  0
LINE
  5
33F5
  8
0
 10
399.06523419730752
 20
410.5318253129588
 30
0.0
 11
399.06523419730752
 21
417.40490768384223
 31
0.0
  0
LINE
  5
33F6
  8
2
 10
399.06523419730752
 20
417.40490768384223
 30
0.0
 11
399.06523419730752
 21
417.9683664984006
 31
0.0
  0
LINE
  5
33F7
  8
0
 10
382.70622434980118
 20
408.1217449115847
 30
0.0
 11
381.2129871973076
 21
408.68170849840061
 31
0.0
  0
LINE
  5
33F8
  8
2
 10
383.91523419730748
 20
420.26836649840061
 30
0.0
 11
382.70622479355342
 21
419.81498780421441
 31
0.0
  0
TEXT
  5
34AE
  8
0
 62
     3
 10
0.0
 20
0.0
 30
0.0
 40
10.0
  1
RS35D-18M
  7
STANDARD1
  0
ENDSEC
  0
EOF
