  0
SECTION
  2
HEADER
  9
$ACADVER
  1
AC1009
  9
$INSBASE
 10
0.0
 20
0.0
 30
0.0
  9
$EXTMIN
 10
-0.0005
 20
-2.960436562073669
 30
0.0
  9
$EXTMAX
 10
810.80022549819932
 20
322.70127521171918
 30
0.0
  9
$LIMMIN
 10
0.0
 20
0.0
  9
$LIMMAX
 10
187.5
 20
135.0
  9
$ORTHOMODE
 70
     0
  9
$REGENMODE
 70
     1
  9
$FILLMODE
 70
     1
  9
$QTEXTMODE
 70
     0
  9
$MIRRTEXT
 70
     0
  9
$DRAGMODE
 70
     2
  9
$LTSCALE
 40
10.0
  9
$OSMODE
 70
    55
  9
$ATTMODE
 70
     1
  9
$TEXTSIZE
 40
2.5
  9
$TRACEWID
 40
0.05
  9
$TEXTSTYLE
  7
STANDARD
  9
$CLAYER
  8
0
  9
$CELTYPE
  6
BYLAYER
  9
$CECOLOR
 62
   256
  9
$DIMSCALE
 40
0.5
  9
$DIMASZ
 40
3.0
  9
$DIMEXO
 40
2.0
  9
$DIMDLI
 40
10.0
  9
$DIMRND
 40
0.0
  9
$DIMDLE
 40
0.0
  9
$DIMEXE
 40
2.0
  9
$DIMTP
 40
0.0
  9
$DIMTM
 40
0.0
  9
$DIMTXT
 40
3.0
  9
$DIMCEN
 40
0.09
  9
$DIMTSZ
 40
0.0
  9
$DIMTOL
 70
     0
  9
$DIMLIM
 70
     0
  9
$DIMTIH
 70
     0
  9
$DIMTOH
 70
     0
  9
$DIMSE1
 70
     0
  9
$DIMSE2
 70
     0
  9
$DIMTAD
 70
     1
  9
$DIMZIN
 70
     0
  9
$DIMBLK
  1

  9
$DIMASO
 70
     0
  9
$DIMSHO
 70
     0
  9
$DIMPOST
  1

  9
$DIMAPOST
  1

  9
$DIMALT
 70
     0
  9
$DIMALTD
 70
     2
  9
$DIMALTF
 40
25.399999999999999
  9
$DIMLFAC
 40
1.0
  9
$DIMTOFL
 70
     1
  9
$DIMTVP
 40
1.6000000000000001
  9
$DIMTIX
 70
     1
  9
$DIMSOXD
 70
     0
  9
$DIMSAH
 70
     0
  9
$DIMBLK1
  1

  9
$DIMBLK2
  1

  9
$DIMSTYLE
  2
STANDARD
  9
$DIMCLRD
 70
     0
  9
$DIMCLRE
 70
     0
  9
$DIMCLRT
 70
     0
  9
$DIMTFAC
 40
1.0
  9
$DIMGAP
 40
0.09
  9
$LUNITS
 70
     2
  9
$LUPREC
 70
     4
  9
$SKETCHINC
 40
0.1
  9
$FILLETRAD
 40
0.0
  9
$AUNITS
 70
     0
  9
$AUPREC
 70
     0
  9
$MENU
  1
E:\r13\win\SUPPORT\ACAD
  9
$ELEVATION
 40
0.0
  9
$PELEVATION
 40
0.0
  9
$THICKNESS
 40
0.0
  9
$LIMCHECK
 70
     0
  9
$BLIPMODE
 70
     0
  9
$CHAMFERA
 40
1.6000000000000001
  9
$CHAMFERB
 40
1.6000000000000001
  9
$SKPOLY
 70
     0
  9
$TDCREATE
 40
2449840.5944097228
  9
$TDUPDATE
 40
2456598.6039900351
  9
$TDINDWG
 40
0.1140094329
  9
$TDUSRTIMER
 40
0.1140094329
  9
$USRTIMER
 70
     1
  9
$ANGBASE
 50
0.0
  9
$ANGDIR
 70
     0
  9
$PDMODE
 70
     0
  9
$PDSIZE
 40
0.0
  9
$PLINEWID
 40
0.0
  9
$COORDS
 70
     1
  9
$SPLFRAME
 70
     0
  9
$SPLINETYPE
 70
     6
  9
$SPLINESEGS
 70
     8
  9
$ATTDIA
 70
     0
  9
$ATTREQ
 70
     1
  9
$HANDLING
 70
     1
  9
$HANDSEED
  5
2646
  9
$SURFTAB1
 70
     6
  9
$SURFTAB2
 70
     6
  9
$SURFTYPE
 70
     6
  9
$SURFU
 70
     6
  9
$SURFV
 70
     6
  9
$UCSNAME
  2

  9
$UCSORG
 10
0.0
 20
0.0
 30
0.0
  9
$UCSXDIR
 10
1.0
 20
0.0
 30
0.0
  9
$UCSYDIR
 10
0.0
 20
1.0
 30
0.0
  9
$PUCSNAME
  2

  9
$PUCSORG
 10
0.0
 20
0.0
 30
0.0
  9
$PUCSXDIR
 10
1.0
 20
0.0
 30
0.0
  9
$PUCSYDIR
 10
0.0
 20
1.0
 30
0.0
  9
$USERI1
 70
     0
  9
$USERI2
 70
     1
  9
$USERI3
 70
     1
  9
$USERI4
 70
     0
  9
$USERI5
 70
     0
  9
$USERR1
 40
0.0
  9
$USERR2
 40
0.0
  9
$USERR3
 40
0.0
  9
$USERR4
 40
0.0
  9
$USERR5
 40
0.0
  9
$WORLDVIEW
 70
     1
  9
$SHADEDGE
 70
     3
  9
$SHADEDIF
 70
    70
  9
$TILEMODE
 70
     1
  9
$MAXACTVP
 70
    16
  9
$PLIMCHECK
 70
     0
  9
$PEXTMIN
 10
1.0000000000000000E+020
 20
1.0000000000000000E+020
 30
1.0000000000000000E+020
  9
$PEXTMAX
 10
-1.0000000000000000E+020
 20
-1.0000000000000000E+020
 30
-1.0000000000000000E+020
  9
$PLIMMIN
 10
0.0
 20
0.0
  9
$PLIMMAX
 10
12.0
 20
9.0
  9
$UNITMODE
 70
     0
  9
$VISRETAIN
 70
     0
  9
$PLINEGEN
 70
     0
  9
$PSLTSCALE
 70
     0
  0
ENDSEC
  0
SECTION
  2
TABLES
  0
TABLE
  2
VPORT
 70
     1
  0
VPORT
  2
*ACTIVE
 70
     0
 10
0.0
 20
0.0
 11
1.0
 21
1.0
 12
405.39986463689212
 22
232.9751694123313
 13
0.0
 23
0.0
 14
5.0
 24
5.0
 15
5.0
 25
5.0
 16
0.0
 26
0.0
 36
1.0
 17
0.0
 27
0.0
 37
0.0
 40
476.44542938472358
 41
1.7807262569832401
 42
50.0
 43
0.0
 44
0.0
 50
0.0
 51
0.0
 71
     0
 72
   100
 73
     1
 74
     0
 75
     0
 76
     0
 77
     0
 78
     0
  0
ENDTAB
  0
TABLE
  2
LTYPE
 70
     4
  0
LTYPE
  2
CONTINUOUS
 70
     0
  3
Solid Line
 72
    65
 73
     0
 40
0.0
  0
LTYPE
  2
CENTER
 70
     0
  3
____ _ ____ _ ____ _ ____ _ ____ _ ____ _ ____
 72
    65
 73
     4
 40
2.0
 49
1.25
 49
-0.25
 49
0.25
 49
-0.25
  0
LTYPE
  2
HIDDEN
 70
     0
  3
_ _ _ _ _ _ _ _ _ _ _ _ _ _ _ _ _ _ _ _ _ _ _
 72
    65
 73
     2
 40
0.375
 49
0.25
 49
-0.125
  0
LTYPE
  2
PHANTOM2
 70
     0
  3
___ _ _ ___ _ _ ___ _ _ ___ _ _
 72
    65
 73
     6
 40
1.25
 49
0.625
 49
-0.125
 49
0.125
 49
-0.125
 49
0.125
 49
-0.125
  0
ENDTAB
  0
TABLE
  2
LAYER
 70
     5
  0
LAYER
  2
0
 70
     0
 62
     7
  6
CONTINUOUS
  0
LAYER
  2
1
 70
     0
 62
     1
  6
CENTER
  0
LAYER
  2
2
 70
     0
 62
     2
  6
HIDDEN
  0
LAYER
  2
3
 70
     0
 62
     3
  6
CONTINUOUS
  0
LAYER
  2
ITTEN
 70
     0
 62
     1
  6
CENTER
  0
ENDTAB
  0
TABLE
  2
STYLE
 70
     2
  0
STYLE
  2
STANDARD
 70
     0
 40
0.0
 41
1.0
 50
0.0
 71
     0
 42
2.5
  3
TXT
  4
BIGFONT
  0
STYLE
  2
STANDARD1
 70
     0
 40
0.0
 41
1.0
 50
0.0
 71
     0
 42
3.0
  3
txt
  4

  0
ENDTAB
  0
TABLE
  2
VIEW
 70
     1
  0
VIEW
  2
ALL
 70
     0
 40
135.0
 10
110.49579799999999
 20
67.5
 41
0.0
 11
0.0
 21
0.0
 31
1.0
 12
0.0
 22
0.0
 32
0.0
 42
0.0
 43
0.0
 44
0.0
 50
0.0
 71
     0
  0
ENDTAB
  0
TABLE
  2
UCS
 70
     0
  0
ENDTAB
  0
TABLE
  2
APPID
 70
     4
  0
APPID
  2
ACAD
 70
     0
  0
APPID
  2
DCO15
 70
     0
  0
APPID
  2
ACAD_MLEADERVER
 70
     0
  0
APPID
  2
ACAD_NAV_VCDISPLAY
 70
     0
  0
ENDTAB
  0
TABLE
  2
DIMSTYLE
 70
     1
  0
DIMSTYLE
  2
STANDARD
 70
     0
  3

  4

  5

  6

  7

 40
1.0
 41
0.18
 42
0.0625
 43
0.38
 44
0.18
 45
0.0
 46
0.0
 47
0.0
 48
0.0
140
0.18
141
0.09
142
0.0
143
25.399999999999999
144
1.0
145
0.0
146
1.0
147
0.09
 71
     0
 72
     0
 73
     1
 74
     1
 75
     0
 76
     0
 77
     0
 78
     0
170
     0
171
     2
172
     0
173
     0
174
     0
175
     0
176
     0
177
     0
178
     0
  0
ENDTAB
  0
ENDSEC
  0
SECTION
  2
BLOCKS
  0
BLOCK
  8
0
  2
$MODEL_SPACE
 70
     0
 10
0.0
 20
0.0
 30
0.0
  3
$MODEL_SPACE
  1

  0
ENDBLK
  5
15D
  8
0
  0
BLOCK
 67
     1
  8
0
  2
$PAPER_SPACE
 70
     0
 10
0.0
 20
0.0
 30
0.0
  3
$PAPER_SPACE
  1

  0
ENDBLK
  5
15B
 67
     1
  8
0
  0
BLOCK
  8
0
  2
STDGX5
 70
     0
 10
0.0
 20
0.0
 30
0.0
  3
STDGX5
  1

  0
ENDBLK
  5
41
  8
0
  0
BLOCK
  8
0
  2
BATU
 70
     0
 10
0.0
 20
0.0
 30
0.0
  3
BATU
  1

  0
LINE
  5
24FC
  8
ITTEN
 10
0.5
 20
0.0
 30
0.0
 11
-0.5
 21
0.0
 31
0.0
  0
LINE
  5
24FD
  8
ITTEN
 10
0.0
 20
0.5
 30
0.0
 11
0.0
 21
-0.5
 31
0.0
  0
ENDBLK
  5
24FF
  8
0
  0
ENDSEC
  0
SECTION
  2
ENTITIES
  0
INSERT
  5
CA
  8
0
  2
STDGX5
 10
0.0
 20
0.0
 30
0.0
  0
INSERT
  5
69A
  8
0
  2
STDGX5
 10
194.3272563481562
 20
13.52129245667936
 30
0.0
  0
LINE
  5
1213
  8
1
 10
38.700225498199423
 20
309.20127521171918
 30
0.0
 11
58.200225498199302
 21
309.20127521171918
 31
0.0
  0
LINE
  5
1214
  8
0
 10
45.580225498199297
 20
314.3012752117192
 30
0.0
 11
45.580225498199297
 21
318.29475421171918
 31
0.0
  0
LINE
  5
1215
  8
0
 10
46.080225498199297
 20
314.3012752117192
 30
0.0
 11
46.080225498199297
 21
318.29475421171918
 31
0.0
  0
ARC
  5
1216
  8
0
 10
48.890225498199243
 20
318.87127521171919
 30
0.0
 40
4.0300000000000002
 50
237.58959300000021
 51
307.24330299999878
  0
LINE
  5
1217
  8
0
 10
51.650225498199227
 20
302.89866321171922
 30
0.0
 11
51.650225498199227
 21
315.50388721171919
 31
0.0
  0
LINE
  5
1218
  8
0
 10
53.200225498199302
 20
302.89866321171922
 30
0.0
 11
53.200225498199302
 21
315.50388721171919
 31
0.0
  0
LINE
  5
1219
  8
0
 10
45.250225498199249
 20
299.34814021171923
 30
0.0
 11
45.250225498199249
 21
319.05441021171919
 31
0.0
  0
LINE
  5
121A
  8
0
 10
43.700225498199302
 20
299.34814021171923
 30
0.0
 11
43.700225498199302
 21
319.05441021171919
 31
0.0
  0
ARC
  5
121B
  8
0
 10
48.080225498199297
 20
313.8012752117192
 30
0.0
 40
0.5
 50
0.0
 51
90.0
  0
LINE
  5
121C
  8
0
 10
48.080225498199297
 20
314.3012752117192
 30
0.0
 11
46.080225498199297
 21
314.3012752117192
 31
0.0
  0
LINE
  5
121D
  8
0
 10
48.080225498199297
 20
313.8012752117192
 30
0.0
 11
46.080225498199297
 21
313.8012752117192
 31
0.0
  0
ARC
  5
121E
  8
0
 10
46.080225498199297
 20
314.3012752117192
 30
0.0
 40
0.5
 50
180.0
 51
270.0
  0
LINE
  5
121F
  8
0
 10
52.4835474981993
 20
300.06309221171921
 30
0.0
 11
52.480057498199237
 21
299.56310421171918
 31
0.0
  0
LINE
  5
1220
  8
0
 10
51.739865498199258
 20
296.88163521171919
 30
0.0
 11
51.930225498199214
 21
297.0719942117193
 31
0.0
  0
LINE
  5
1221
  8
0
 10
51.930225498199214
 20
297.0719942117193
 30
0.0
 11
51.930225498199214
 21
297.60264421171922
 31
0.0
  0
LINE
  5
1222
  8
0
 10
50.643850498199299
 20
297.97765021171921
 30
0.0
 11
50.953061498199297
 21
298.28686221171932
 31
0.0
  0
ARC
  5
1223
  8
0
 10
48.080225498199297
 20
304.60127521171921
 30
0.0
 40
0.5
 50
270.0
 51
0.0
  0
LINE
  5
1224
  8
0
 10
47.296112498199243
 20
301.43106521171921
 30
0.0
 11
46.730225498199268
 21
302.10546321171921
 31
0.0
  0
LINE
  5
1225
  8
0
 10
46.730225498199268
 20
302.9335242117192
 30
0.0
 11
46.730225498199268
 21
302.10546321171921
 31
0.0
  0
ARC
  5
1226
  8
0
 10
46.080225498199297
 20
300.10779621171929
 30
0.0
 40
0.5
 50
180.0
 51
269.60000000000082
  0
LINE
  5
1227
  8
0
 10
46.363572498199339
 20
298.5446102117192
 30
0.0
 11
45.554859498199328
 21
298.8878882117192
 31
0.0
  0
ARC
  5
1228
  8
0
 10
45.750225498199264
 20
299.34814021171923
 30
0.0
 40
0.5
 50
180.0
 51
246.9999999999994
  0
LINE
  5
1229
  8
0
 10
45.580225498199297
 20
304.10127521171921
 30
0.0
 11
45.580225498199297
 21
300.10779621171929
 31
0.0
  0
LINE
  5
122A
  8
0
 10
46.080225498199297
 20
304.10127521171921
 30
0.0
 11
46.080225498199297
 21
300.10779621171929
 31
0.0
  0
ARC
  5
122B
  8
0
 10
45.562573498199292
 20
296.65757521171918
 30
0.0
 40
0.5
 50
42.728174000002909
 51
66.999999999999474
  0
LINE
  5
122C
  8
0
 10
45.757938498199223
 20
297.1178272117192
 30
0.0
 11
44.949226498199323
 21
297.4611052117192
 31
0.0
  0
ARC
  5
122D
  8
0
 10
46.080225498199297
 20
304.10127521171921
 30
0.0
 40
0.5
 50
90.0
 51
180.0
  0
ARC
  5
122E
  8
0
 10
45.562573498199292
 20
296.65757521171918
 30
0.0
 40
2.0499999999999989
 50
42.728174000002909
 51
66.999999999999474
  0
ARC
  5
122F
  8
0
 10
48.890225498199243
 20
299.63127521171918
 30
0.0
 40
2.379999999999999
 50
10.66786489748575
 51
168.53214131319979
  0
ARC
  5
1230
  8
0
 10
48.890225498199243
 20
299.53127521171922
 30
0.0
 40
4.0300000000000002
 50
52.756697000001232
 51
122.41040699999969
  0
ARC
  5
1231
  8
0
 10
48.890225498199243
 20
299.53127521171922
 30
0.0
 40
2.4799999999999991
 50
52.756697000001232
 51
130.00000000000361
  0
ARC
  5
1232
  8
0
 10
48.890225498199243
 20
299.73127521171921
 30
0.0
 40
2.4799999999999991
 50
222.72817400000289
 51
315.0
  0
LINE
  5
1233
  8
0
 10
48.080225498199297
 20
304.10127521171921
 30
0.0
 11
46.080225498199297
 21
304.10127521171921
 31
0.0
  0
LINE
  5
1234
  8
0
 10
48.080225498199297
 20
304.60127521171921
 30
0.0
 11
46.080225498199297
 21
304.60127521171921
 31
0.0
  0
ARC
  5
1235
  8
0
 10
45.750225498199264
 20
299.34814021171923
 30
0.0
 40
2.0499999999999989
 50
180.0
 51
246.9999999999994
  0
ARC
  5
1236
  8
0
 10
51.450225498199302
 20
302.89866321171922
 30
0.0
 40
0.2
 50
232.75669700000131
 51
0.0
  0
ARC
  5
1237
  8
0
 10
51.450225498199302
 20
302.89866321171922
 30
0.0
 40
1.75
 50
232.75669700000131
 51
0.0
  0
LINE
  5
1238
  8
0
 10
50.953061498199297
 20
298.28686221171932
 30
0.0
 11
51.930225498199214
 21
297.60264421171922
 31
0.0
  0
LINE
  5
1239
  8
0
 10
52.4835474981993
 20
300.06309221171921
 30
0.0
 11
46.080225498199297
 21
300.10779621171929
 31
0.0
  0
LINE
  5
123A
  8
0
 10
52.480057498199237
 20
299.56310421171918
 30
0.0
 11
46.076734498199357
 21
299.6078092117192
 31
0.0
  0
ARC
  5
123B
  8
0
 10
48.890225498199243
 20
299.73127521171921
 30
0.0
 40
4.0300000000000002
 50
222.72817400000289
 51
315.0
  0
LINE
  5
123C
  8
0
 10
48.580225498199297
 20
304.60127521171921
 30
0.0
 11
48.580225498199297
 21
313.8012752117192
 31
0.0
  0
LINE
  5
123D
  8
0
 10
48.080225498199297
 20
304.60127521171921
 30
0.0
 11
48.080225498199297
 21
313.8012752117192
 31
0.0
  0
LINE
  5
123E
  8
0
 10
51.739865498199258
 20
321.52091521171923
 30
0.0
 11
51.930225498199214
 21
321.33055621171923
 31
0.0
  0
LINE
  5
123F
  8
0
 10
51.930225498199214
 20
321.33055621171923
 30
0.0
 11
51.930225498199214
 21
320.79990621171919
 31
0.0
  0
LINE
  5
1240
  8
0
 10
52.4835474981993
 20
318.3394582117192
 30
0.0
 11
52.480057498199237
 21
318.83944621171918
 31
0.0
  0
LINE
  5
1241
  8
0
 10
50.643850498199299
 20
320.4249002117192
 30
0.0
 11
50.953061498199297
 21
320.1156882117192
 31
0.0
  0
ARC
  5
1245
  8
0
 10
46.080225498199297
 20
318.29475421171918
 30
0.0
 40
0.5
 50
90.399999999999238
 51
180.0
  0
ARC
  5
1246
  8
0
 10
45.562573498199292
 20
321.74497521171918
 30
0.0
 40
0.5
 50
293.00000000000051
 51
317.27182599999708
  0
LINE
  5
1247
  8
0
 10
46.363572498199339
 20
319.85794021171921
 30
0.0
 11
45.554859498199328
 21
319.51466221171921
 31
0.0
  0
LINE
  5
1248
  8
0
 10
45.757938498199223
 20
321.28472321171921
 30
0.0
 11
44.949226498199323
 21
320.94144521171921
 31
0.0
  0
ARC
  5
1249
  8
0
 10
45.750225498199264
 20
319.05441021171919
 30
0.0
 40
0.5
 50
113.0000000000005
 51
180.0
  0
LINE
  5
124A
  8
0
 10
45.580225498199297
 20
318.29475421171918
 30
0.0
 11
45.580225498199297
 21
318.29475421171918
 31
0.0
  0
ARC
  5
124B
  8
0
 10
45.562573498199292
 20
321.74497521171918
 30
0.0
 40
2.0499999999999989
 50
293.00000000000051
 51
317.27182599999708
  0
LINE
  5
124C
  8
0
 10
47.296112498199243
 20
316.97148521171931
 30
0.0
 11
46.730225498199268
 21
316.29708721171932
 31
0.0
  0
LINE
  5
124D
  8
0
 10
46.730225498199268
 20
315.46902621171921
 30
0.0
 11
46.730225498199268
 21
316.29708721171932
 31
0.0
  0
ARC
  5
124E
  8
0
 10
48.890225498199243
 20
318.67127521171921
 30
0.0
 40
2.4799999999999991
 50
45.0
 51
137.27182599999699
  0
ARC
  5
1250
  8
0
 10
48.890225498199243
 20
318.77127521171923
 30
0.0
 40
2.379999999999999
 50
1.437819999999207
 51
179.36217999999991
  0
ARC
  5
1251
  8
0
 10
48.890225498199243
 20
318.87127521171919
 30
0.0
 40
2.4799999999999991
 50
229.99999999999639
 51
307.24330299999878
  0
ARC
  5
1252
  8
0
 10
48.890225498199243
 20
318.77127521171923
 30
0.0
 40
2.379999999999999
 50
191.46787000000131
 51
349.33213000000057
  0
ARC
  5
1253
  8
0
 10
45.750225498199264
 20
319.05441021171919
 30
0.0
 40
2.0499999999999989
 50
113.0000000000005
 51
180.0
  0
LINE
  5
1254
  8
0
 10
50.953061498199297
 20
320.1156882117192
 30
0.0
 11
51.930225498199214
 21
320.79990621171919
 31
0.0
  0
ARC
  5
1256
  8
0
 10
51.450225498199302
 20
315.50388721171919
 30
0.0
 40
0.2
 50
0.0
 51
127.2433029999987
  0
ARC
  5
1257
  8
0
 10
51.450225498199302
 20
315.50388721171919
 30
0.0
 40
1.75
 50
0.0
 51
127.2433029999987
  0
ARC
  5
1258
  8
0
 10
48.890225498199243
 20
318.67127521171921
 30
0.0
 40
4.0300000000000002
 50
45.0
 51
137.27182599999699
  0
LINE
  5
1259
  8
0
 10
52.480057498199237
 20
318.83944621171918
 30
0.0
 11
46.076734498199357
 21
318.79474121171933
 31
0.0
  0
LINE
  5
125A
  8
0
 10
52.4835474981993
 20
318.3394582117192
 30
0.0
 11
46.080225498199297
 21
318.29475421171918
 31
0.0
  0
ARC
  5
125D
  8
0
 10
48.890225498199243
 20
299.63127521171918
 30
0.0
 40
2.379999999999999
 50
180.6378129509433
 51
358.56217548990469
  0
INSERT
  5
1343
  8
0
  2
STDGX5
 10
563.10080863610574
 20
-59.557035590067017
 30
0.0
  0
INSERT
  5
1345
  8
0
  2
STDGX5
 10
757.42806498426194
 20
-46.035743133387648
 30
0.0
  0
LINE
  5
22BF
  8
1
 10
88.200225498199288
 20
309.20127521171918
 30
0.0
 11
810.80022549819932
 21
309.20127521171918
 31
0.0
  0
LINE
  5
22C0
  8
0
 10
98.200225498199316
 20
301.14866321171928
 30
0.0
 11
495.2002254981993
 21
301.14866321171928
 31
0.0
  0
LINE
  5
22C1
  8
2
 10
98.200225498199316
 20
303.56127521171919
 30
0.0
 11
495.2002254981993
 21
303.56127521171919
 31
0.0
  0
LINE
  5
22C2
  8
2
 10
98.200225498199316
 20
314.84127521171922
 30
0.0
 11
495.2002254981993
 21
314.84127521171922
 31
0.0
  0
LINE
  5
22C3
  8
0
 10
98.200225498199316
 20
317.25388721171919
 30
0.0
 11
495.2002254981993
 21
317.25388721171919
 31
0.0
  0
LINE
  5
230B
  8
0
 10
98.200225498199316
 20
301.14866321171928
 30
0.0
 11
98.200225498199316
 21
317.25388721171919
 31
0.0
  0
CIRCLE
  5
230C
  8
0
 10
118.2002254981993
 20
309.20127521171918
 30
0.0
 40
2.25
  0
LINE
  5
230D
  8
1
 10
118.2002254981993
 20
304.70127521171929
 30
0.0
 11
118.2002254981993
 21
313.70127521171918
 31
0.0
  0
LINE
  5
230E
  8
0
 10
137.3002254981993
 20
311.30127521171931
 30
0.0
 11
139.10022549819931
 21
311.30127521171931
 31
0.0
  0
LINE
  5
230F
  8
0
 10
137.3002254981993
 20
307.10127521171921
 30
0.0
 11
139.10022549819931
 21
307.10127521171921
 31
0.0
  0
ARC
  5
2310
  8
0
 10
137.3002254981993
 20
309.20127521171918
 30
0.0
 40
2.1000000000000001
 50
90.0
 51
270.0
  0
ARC
  5
2311
  8
0
 10
139.10022549819931
 20
309.20127521171918
 30
0.0
 40
2.1000000000000001
 50
270.0
 51
90.0
  0
LINE
  5
2312
  8
1
 10
138.2002254981993
 20
304.70127521171929
 30
0.0
 11
138.2002254981993
 21
313.70127521171918
 31
0.0
  0
LINE
  5
2313
  8
0
 10
217.3002254981993
 20
311.30127521171931
 30
0.0
 11
219.10022549819931
 21
311.30127521171931
 31
0.0
  0
LINE
  5
2314
  8
0
 10
217.3002254981993
 20
307.10127521171921
 30
0.0
 11
219.10022549819931
 21
307.10127521171921
 31
0.0
  0
ARC
  5
2315
  8
0
 10
219.10022549819931
 20
309.20127521171918
 30
0.0
 40
2.1000000000000001
 50
270.0
 51
90.0
  0
ARC
  5
2316
  8
0
 10
217.3002254981993
 20
309.20127521171918
 30
0.0
 40
2.1000000000000001
 50
90.0
 51
270.0
  0
LINE
  5
2317
  8
1
 10
218.2002254981993
 20
304.70127521171929
 30
0.0
 11
218.2002254981993
 21
313.70127521171918
 31
0.0
  0
LINE
  5
2319
  8
3
 10
534.20022549819919
 20
316.10127521171921
 30
0.0
 11
540.50022549819926
 21
316.10127521171921
 31
0.0
  0
CIRCLE
  5
231A
  8
0
 10
537.35022549819928
 20
309.20127521171918
 30
0.0
 40
2.0
  0
LINE
  5
231B
  8
2
 10
495.2002254981993
 20
313.80127521171931
 30
0.0
 11
581.95022549819919
 21
313.80127521171931
 31
0.0
  0
LINE
  5
231C
  8
0
 10
495.2002254981993
 20
314.30127521171931
 30
0.0
 11
581.95022549819919
 21
314.30127521171931
 31
0.0
  0
LINE
  5
231E
  8
0
 10
395.2002254981993
 20
322.70127521171918
 30
0.0
 11
795.2002254981993
 21
322.70127521171918
 31
0.0
  0
LINE
  5
231F
  8
0
 10
395.2002254981993
 20
320.1156882117192
 30
0.0
 11
795.2002254981993
 21
320.1156882117192
 31
0.0
  0
LINE
  5
2320
  8
0
 10
395.2002254981993
 20
321.33055621171923
 30
0.0
 11
795.2002254981993
 21
321.33055621171923
 31
0.0
  0
LINE
  5
2321
  8
0
 10
395.2002254981993
 20
295.70127521171918
 30
0.0
 11
795.2002254981993
 21
295.70127521171918
 31
0.0
  0
LINE
  5
2322
  8
0
 10
395.2002254981993
 20
298.2868622117191
 30
0.0
 11
795.2002254981993
 21
298.2868622117191
 31
0.0
  0
LINE
  5
2323
  8
0
 10
395.2002254981993
 20
297.0719942117193
 30
0.0
 11
795.2002254981993
 21
297.0719942117193
 31
0.0
  0
LINE
  5
2324
  8
2
 10
380.60022549819939
 20
314.20127521171918
 30
0.0
 11
466.60022549819928
 21
314.20127521171918
 31
0.0
1001
ACAD
1000
ASC_BOUNDS
1002
{
1070
    16
1002
}
  0
LINE
  5
2325
  8
2
 10
380.60022549819939
 20
304.20127521171918
 30
0.0
 11
466.60022549819928
 21
304.20127521171918
 31
0.0
1001
ACAD
1000
ASC_BOUNDS
1002
{
1070
    16
1002
}
  0
ARC
  5
2326
  8
0
 10
398.45022549819942
 20
299.60127521171921
 30
0.0
 40
2.25
 50
136.54948199999961
 51
215.74534700000061
  0
LINE
  5
2327
  8
0
 10
395.2002254981993
 20
295.70127521171918
 30
0.0
 11
395.2002254981993
 21
301.14866321171928
 31
0.0
  0
POINT
  5
2328
  8
0
 10
395.2002254981993
 20
295.70127521171918
 30
0.0
  0
LINE
  5
2329
  8
0
 10
395.2002254981993
 20
317.25388721171919
 30
0.0
 11
395.2002254981993
 21
322.70127521171918
 31
0.0
  0
ARC
  5
232A
  8
0
 10
398.45022549819942
 20
318.80127521171931
 30
0.0
 40
2.25
 50
144.25465299999939
 51
223.45051800000039
  0
LINE
  5
232B
  8
2
 10
380.60022549819939
 20
314.20127521171918
 30
0.0
 11
375.36020249819938
 21
312.62892521171921
 31
0.0
  0
ARC
  5
232C
  8
2
 10
385.35022549819928
 20
311.20127521171918
 30
0.0
 40
0.65
 50
90.0
 51
270.0
  0
ARC
  5
232D
  8
2
 10
375.93501349819928
 20
310.71330721171921
 30
0.0
 40
2.0
 50
106.7026869999989
 51
180.0
  0
LINE
  5
232E
  8
2
 10
385.35022549819928
 20
310.55127521171931
 30
0.0
 11
389.21971149819939
 21
310.55127521171931
 31
0.0
  0
LINE
  5
232F
  8
2
 10
385.35022549819928
 20
311.85127521171921
 30
0.0
 11
399.7002254981993
 21
311.85127521171921
 31
0.0
  0
LINE
  5
2330
  8
2
 10
380.60022549819939
 20
304.20127521171918
 30
0.0
 11
375.36020249819938
 21
305.77362521171932
 31
0.0
  0
ARC
  5
2331
  8
2
 10
385.35022549819928
 20
307.20127521171918
 30
0.0
 40
0.65
 50
90.0
 51
270.0
  0
ARC
  5
2332
  8
2
 10
375.93501349819928
 20
307.68924321171932
 30
0.0
 40
2.0
 50
180.0
 51
253.29731300000111
  0
LINE
  5
2333
  8
2
 10
385.35022549819928
 20
307.85127521171921
 30
0.0
 11
389.21971149819939
 21
307.85127521171921
 31
0.0
  0
LINE
  5
2334
  8
2
 10
385.35022549819928
 20
306.5512752117192
 30
0.0
 11
399.7002254981993
 21
306.5512752117192
 31
0.0
  0
LINE
  5
2335
  8
2
 10
389.21971149819939
 20
307.85127521171921
 30
0.0
 11
389.21971149819939
 21
310.55127521171931
 31
0.0
  0
LINE
  5
2336
  8
2
 10
373.93501349819928
 20
307.68924321171932
 30
0.0
 11
373.93501349819928
 21
310.71330721171921
 31
0.0
  0
LINE
  5
2338
  8
2
 10
399.7002254981993
 20
311.85127521171921
 30
0.0
 11
399.7002254981993
 21
306.5512752117192
 31
0.0
  0
LINE
  5
233B
  8
3
 10
462.25022549819931
 20
318.3394582117192
 30
0.0
 11
472.75022549819931
 21
318.3394582117192
 31
0.0
  0
LINE
  5
233C
  8
3
 10
462.25022549819931
 20
318.83944621171929
 30
0.0
 11
472.75022549819931
 21
318.83944621171929
 31
0.0
  0
ARC
  5
233D
  8
0
 10
413.9502254981993
 20
299.60127521171921
 30
0.0
 40
2.25
 50
324.25465299999939
 51
43.450518000000351
  0
ARC
  5
233E
  8
2
 10
436.10022549819928
 20
309.20127521171918
 30
0.0
 40
2.1000000000000001
 50
270.0
 51
90.0
  0
LINE
  5
233F
  8
3
 10
434.65022549819918
 20
318.3394582117192
 30
0.0
 11
434.65022549819918
 21
318.83944621171929
 31
0.0
  0
LINE
  5
2340
  8
3
 10
432.60022549819928
 20
317.25388721171919
 30
0.0
 11
432.60022549819928
 21
318.3394582117192
 31
0.0
  0
LINE
  5
2341
  8
3
 10
426.2002254981993
 20
317.25388721171919
 30
0.0
 11
426.2002254981993
 21
318.3394582117192
 31
0.0
  0
LINE
  5
2342
  8
3
 10
424.15022549819929
 20
318.3394582117192
 30
0.0
 11
424.15022549819929
 21
318.83944621171929
 31
0.0
  0
ARC
  5
2343
  8
3
 10
429.40363549819932
 20
319.53945821171919
 30
0.0
 40
2.0
 50
216.86989800000009
 51
323.13010199999991
  0
ARC
  5
2344
  8
3
 10
429.40022549819918
 20
318.77127521171928
 30
0.0
 40
2.379999999999999
 50
145.6060690000009
 51
178.35864400000111
  0
ARC
  5
2345
  8
3
 10
429.40022549819918
 20
318.77127521171928
 30
0.0
 40
2.379999999999999
 50
190.4533999999997
 51
219.60995600000001
  0
ARC
  5
2346
  8
3
 10
429.40022549819918
 20
318.77127521171928
 30
0.0
 40
2.379999999999999
 50
320.39004399999999
 51
349.5466000000003
  0
ARC
  5
2347
  8
3
 10
429.40022549819918
 20
318.77127521171928
 30
0.0
 40
2.379999999999999
 50
1.641355999998809
 51
34.393930999999021
  0
LINE
  5
2348
  8
3
 10
424.15022549819929
 20
318.83944621171929
 30
0.0
 11
434.65022549819918
 21
318.83944621171929
 31
0.0
  0
LINE
  5
2349
  8
3
 10
424.15022549819929
 20
318.3394582117192
 30
0.0
 11
434.65022549819918
 21
318.3394582117192
 31
0.0
  0
LINE
  5
234A
  8
2
 10
434.30022549819932
 20
311.30127521171931
 30
0.0
 11
436.10022549819928
 21
311.30127521171931
 31
0.0
  0
LINE
  5
234B
  8
2
 10
434.30022549819932
 20
307.10127521171921
 30
0.0
 11
436.10022549819928
 21
307.10127521171921
 31
0.0
  0
ARC
  5
2350
  8
0
 10
413.9502254981993
 20
318.80127521171931
 30
0.0
 40
2.25
 50
316.54948199999961
 51
35.745347000000571
  0
CIRCLE
  5
2357
  8
2
 10
415.2002254981993
 20
309.20127521171918
 30
0.0
 40
2.25
  0
ARC
  5
2358
  8
2
 10
434.30022549819932
 20
309.20127521171918
 30
0.0
 40
2.1000000000000001
 50
90.0
 51
270.0
  0
ARC
  5
2359
  8
3
 10
467.50363549819929
 20
319.53945821171919
 30
0.0
 40
2.0
 50
216.86989800000009
 51
323.13010199999991
  0
ARC
  5
235A
  8
3
 10
467.5002254981992
 20
318.77127521171928
 30
0.0
 40
2.379999999999999
 50
145.6060690000009
 51
178.35864400000111
  0
ARC
  5
235B
  8
3
 10
467.5002254981992
 20
318.77127521171928
 30
0.0
 40
2.379999999999999
 50
190.4533999999997
 51
219.60995600000001
  0
ARC
  5
235C
  8
3
 10
467.5002254981992
 20
318.77127521171928
 30
0.0
 40
2.379999999999999
 50
320.39004399999999
 51
349.5466000000003
  0
ARC
  5
235D
  8
3
 10
467.5002254981992
 20
318.77127521171928
 30
0.0
 40
2.379999999999999
 50
1.641355999998809
 51
34.393930999999021
  0
LINE
  5
235E
  8
3
 10
464.30022549819921
 20
317.25388721171919
 30
0.0
 11
464.30022549819921
 21
318.3394582117192
 31
0.0
  0
LINE
  5
235F
  8
3
 10
462.25022549819931
 20
318.3394582117192
 30
0.0
 11
462.25022549819931
 21
318.83944621171929
 31
0.0
  0
LINE
  5
2360
  8
3
 10
460.05022549819921
 20
318.3394582117192
 30
0.0
 11
460.05022549819921
 21
318.83944621171929
 31
0.0
  0
LINE
  5
2361
  8
3
 10
458.00022549819931
 20
317.25388721171919
 30
0.0
 11
458.00022549819931
 21
318.3394582117192
 31
0.0
  0
LINE
  5
2362
  8
3
 10
451.60022549819928
 20
317.25388721171919
 30
0.0
 11
451.60022549819928
 21
318.3394582117192
 31
0.0
  0
LINE
  5
2363
  8
3
 10
449.55022549819921
 20
318.3394582117192
 30
0.0
 11
449.55022549819921
 21
318.83944621171929
 31
0.0
  0
LINE
  5
2364
  8
3
 10
449.55022549819921
 20
318.83944621171929
 30
0.0
 11
460.05022549819921
 21
318.83944621171929
 31
0.0
  0
LINE
  5
2365
  8
3
 10
449.55022549819921
 20
318.3394582117192
 30
0.0
 11
460.05022549819921
 21
318.3394582117192
 31
0.0
  0
ARC
  5
2366
  8
3
 10
454.80363549819941
 20
319.53945821171919
 30
0.0
 40
2.0
 50
216.86989800000009
 51
323.13010199999991
  0
ARC
  5
2367
  8
3
 10
454.80022549819932
 20
318.77127521171928
 30
0.0
 40
2.379999999999999
 50
145.6060690000009
 51
178.35864400000111
  0
ARC
  5
2368
  8
3
 10
454.80022549819932
 20
318.77127521171928
 30
0.0
 40
2.379999999999999
 50
190.4533999999997
 51
219.60995600000001
  0
ARC
  5
2369
  8
3
 10
454.80022549819932
 20
318.77127521171928
 30
0.0
 40
2.379999999999999
 50
320.39004399999999
 51
349.5466000000003
  0
ARC
  5
236A
  8
3
 10
454.80022549819932
 20
318.77127521171928
 30
0.0
 40
2.379999999999999
 50
1.641355999998809
 51
34.393930999999021
  0
LINE
  5
236B
  8
3
 10
447.35022549819928
 20
318.3394582117192
 30
0.0
 11
447.35022549819928
 21
318.83944621171929
 31
0.0
  0
LINE
  5
236C
  8
3
 10
445.30022549819921
 20
317.25388721171919
 30
0.0
 11
445.30022549819921
 21
318.3394582117192
 31
0.0
  0
LINE
  5
236D
  8
3
 10
445.30022549819921
 20
317.25388721171919
 30
0.0
 11
445.30022549819921
 21
318.3394582117192
 31
0.0
  0
LINE
  5
236E
  8
3
 10
438.90022549819929
 20
317.25388721171919
 30
0.0
 11
438.90022549819929
 21
318.3394582117192
 31
0.0
  0
LINE
  5
236F
  8
3
 10
436.85022549819928
 20
318.3394582117192
 30
0.0
 11
436.85022549819928
 21
318.83944621171929
 31
0.0
  0
LINE
  5
2370
  8
3
 10
436.85022549819928
 20
318.83944621171929
 30
0.0
 11
447.35022549819928
 21
318.83944621171929
 31
0.0
  0
LINE
  5
2371
  8
3
 10
436.85022549819928
 20
318.3394582117192
 30
0.0
 11
447.35022549819928
 21
318.3394582117192
 31
0.0
  0
ARC
  5
2372
  8
3
 10
442.10022549819928
 20
318.77127521171928
 30
0.0
 40
2.379999999999999
 50
1.641355999998809
 51
34.393930999999021
  0
ARC
  5
2373
  8
3
 10
442.10022549819928
 20
318.77127521171928
 30
0.0
 40
2.379999999999999
 50
320.39004399999999
 51
349.5466000000003
  0
ARC
  5
2374
  8
3
 10
442.10022549819928
 20
318.77127521171928
 30
0.0
 40
2.379999999999999
 50
190.4533999999997
 51
219.60995600000001
  0
ARC
  5
2375
  8
3
 10
442.10022549819928
 20
318.77127521171928
 30
0.0
 40
2.379999999999999
 50
145.6060690000009
 51
178.35864400000111
  0
ARC
  5
2376
  8
3
 10
442.10363549819931
 20
319.53945821171919
 30
0.0
 40
2.0
 50
216.86989800000009
 51
323.13010199999991
  0
CIRCLE
  5
2377
  8
0
 10
458.65022549819929
 20
312.40127521171928
 30
0.0
 40
1.1999999999999991
  0
CIRCLE
  5
2378
  8
0
 10
453.90022549819918
 20
309.20127521171918
 30
0.0
 40
1.149999999999999
  0
CIRCLE
  5
2379
  8
0
 10
458.65022549819929
 20
306.10127521171921
 30
0.0
 40
1.1999999999999991
  0
CIRCLE
  5
237A
  8
0
 10
463.40022549819918
 20
309.20127521171918
 30
0.0
 40
1.149999999999999
  0
LINE
  5
237C
  8
2
 10
466.60022549819928
 20
304.20127521171918
 30
0.0
 11
466.60022549819928
 21
314.20127521171918
 31
0.0
  0
ARC
  5
237D
  8
3
 10
505.60022549819939
 20
318.77127521171928
 30
0.0
 40
2.379999999999999
 50
190.4533999999997
 51
349.5466000000003
  0
ARC
  5
237E
  8
3
 10
505.6036354981992
 20
319.53945821171919
 30
0.0
 40
2.0
 50
216.86989800000009
 51
323.13010199999991
  0
LINE
  5
237F
  8
3
 10
500.35022549819939
 20
318.3394582117192
 30
0.0
 11
510.85022549819951
 21
318.3394582117192
 31
0.0
  0
LINE
  5
2380
  8
3
 10
500.35022549819939
 20
318.83944621171929
 30
0.0
 11
510.85022549819951
 21
318.83944621171929
 31
0.0
  0
ARC
  5
2381
  8
3
 10
492.90022549819929
 20
318.77127521171928
 30
0.0
 40
2.379999999999999
 50
320.39004399999999
 51
349.5466000000003
  0
CIRCLE
  5
238C
  8
0
 10
499.25022549819943
 20
309.20127521171918
 30
0.0
 40
2.0
  0
LINE
  5
238D
  8
3
 10
498.1502254981994
 20
318.3394582117192
 30
0.0
 11
498.1502254981994
 21
318.83944621171929
 31
0.0
  0
LINE
  5
238E
  8
3
 10
496.10022549819939
 20
316.10127521171921
 30
0.0
 11
502.4002254981994
 21
316.10127521171921
 31
0.0
  0
LINE
  5
238F
  8
3
 10
502.4002254981994
 20
316.10127521171921
 30
0.0
 11
502.4002254981994
 21
318.3394582117192
 31
0.0
  0
ARC
  5
2390
  8
3
 10
505.60022549819939
 20
318.77127521171928
 30
0.0
 40
2.379999999999999
 50
145.6060690000009
 51
178.35864400000111
  0
LINE
  5
2391
  8
3
 10
500.35022549819939
 20
318.3394582117192
 30
0.0
 11
500.35022549819939
 21
318.83944621171929
 31
0.0
  0
LINE
  5
2392
  8
3
 10
496.10022549819939
 20
316.10127521171921
 30
0.0
 11
496.10022549819939
 21
318.3394582117192
 31
0.0
  0
LINE
  5
2393
  8
3
 10
489.7002254981993
 20
317.25388721171919
 30
0.0
 11
489.7002254981993
 21
318.3394582117192
 31
0.0
  0
LINE
  5
2394
  8
3
 10
485.4502254981993
 20
318.3394582117192
 30
0.0
 11
485.4502254981993
 21
318.83944621171929
 31
0.0
  0
LINE
  5
2395
  8
3
 10
487.65022549819929
 20
318.3394582117192
 30
0.0
 11
487.65022549819929
 21
318.83944621171929
 31
0.0
  0
ARC
  5
2396
  8
3
 10
492.90363549819932
 20
319.53945821171919
 30
0.0
 40
2.0
 50
216.86989800000009
 51
323.13010199999991
  0
ARC
  5
2397
  8
3
 10
492.90022549819929
 20
318.77127521171928
 30
0.0
 40
2.379999999999999
 50
145.6060690000009
 51
178.35864400000111
  0
LINE
  5
2398
  8
3
 10
483.40022549819918
 20
317.25388721171919
 30
0.0
 11
483.40022549819918
 21
318.3394582117192
 31
0.0
  0
LINE
  5
2399
  8
3
 10
483.40022549819918
 20
317.25388721171919
 30
0.0
 11
483.40022549819918
 21
318.3394582117192
 31
0.0
  0
ARC
  5
239A
  8
3
 10
480.2002254981993
 20
318.77127521171928
 30
0.0
 40
2.379999999999999
 50
1.641355999998809
 51
34.393930999999021
  0
ARC
  5
239B
  8
3
 10
480.2002254981993
 20
318.77127521171928
 30
0.0
 40
2.379999999999999
 50
320.39004399999999
 51
349.5466000000003
  0
ARC
  5
239C
  8
3
 10
480.2002254981993
 20
318.77127521171928
 30
0.0
 40
2.379999999999999
 50
190.4533999999997
 51
219.60995600000001
  0
LINE
  5
239D
  8
3
 10
477.00022549819931
 20
317.25388721171919
 30
0.0
 11
477.00022549819931
 21
318.3394582117192
 31
0.0
  0
LINE
  5
239E
  8
3
 10
474.9502254981993
 20
318.3394582117192
 30
0.0
 11
474.9502254981993
 21
318.83944621171929
 31
0.0
  0
LINE
  5
239F
  8
3
 10
472.75022549819931
 20
318.3394582117192
 30
0.0
 11
472.75022549819931
 21
318.83944621171929
 31
0.0
  0
LINE
  5
23A0
  8
3
 10
470.7002254981993
 20
317.25388721171919
 30
0.0
 11
470.7002254981993
 21
318.3394582117192
 31
0.0
  0
LINE
  5
23A1
  8
3
 10
470.7002254981993
 20
317.25388721171919
 30
0.0
 11
470.7002254981993
 21
318.3394582117192
 31
0.0
  0
ARC
  5
23A2
  8
3
 10
480.2002254981993
 20
318.77127521171928
 30
0.0
 40
2.379999999999999
 50
145.6060690000009
 51
178.35864400000111
  0
ARC
  5
23A3
  8
3
 10
480.20363549819939
 20
319.53945821171919
 30
0.0
 40
2.0
 50
216.86989800000009
 51
323.13010199999991
  0
LINE
  5
23A4
  8
3
 10
474.9502254981993
 20
318.3394582117192
 30
0.0
 11
485.4502254981993
 21
318.3394582117192
 31
0.0
  0
LINE
  5
23A5
  8
3
 10
474.9502254981993
 20
318.83944621171929
 30
0.0
 11
485.4502254981993
 21
318.83944621171929
 31
0.0
  0
ARC
  5
23A6
  8
3
 10
492.90022549819929
 20
318.77127521171928
 30
0.0
 40
2.379999999999999
 50
190.4533999999997
 51
219.60995600000001
  0
LINE
  5
23A7
  8
3
 10
487.65022549819929
 20
318.3394582117192
 30
0.0
 11
498.1502254981994
 21
318.3394582117192
 31
0.0
  0
LINE
  5
23A8
  8
3
 10
487.65022549819929
 20
318.83944621171929
 30
0.0
 11
498.1502254981994
 21
318.83944621171929
 31
0.0
  0
ARC
  5
23A9
  8
3
 10
492.90022549819929
 20
318.77127521171928
 30
0.0
 40
2.379999999999999
 50
1.641355999998809
 51
34.393930999999021
  0
LINE
  5
23AA
  8
0
 10
495.2002254981993
 20
301.14866321171928
 30
0.0
 11
495.2002254981993
 21
317.25388721171919
 31
0.0
  0
CIRCLE
  5
23AB
  8
0
 10
478.20022549819942
 20
309.20127521171918
 30
0.0
 40
2.25
  0
LINE
  5
23AC
  8
1
 10
478.20022549819942
 20
304.70127521171929
 30
0.0
 11
478.20022549819942
 21
313.70127521171918
 31
0.0
  0
LINE
  5
23AD
  8
3
 10
525.75022549819926
 20
318.83944621171929
 30
0.0
 11
536.25022549819926
 21
318.83944621171929
 31
0.0
  0
LINE
  5
23AE
  8
3
 10
525.75022549819926
 20
318.3394582117192
 30
0.0
 11
536.25022549819926
 21
318.3394582117192
 31
0.0
  0
LINE
  5
23AF
  8
3
 10
525.75022549819926
 20
318.3394582117192
 30
0.0
 11
525.75022549819926
 21
318.83944621171929
 31
0.0
  0
ARC
  5
23B0
  8
3
 10
531.0036354981994
 20
319.53945821171919
 30
0.0
 40
2.0
 50
216.86989800000009
 51
323.13010199999991
  0
ARC
  5
23B1
  8
3
 10
531.00022549819926
 20
318.77127521171928
 30
0.0
 40
2.379999999999999
 50
145.6060690000009
 51
178.35864400000111
  0
ARC
  5
23B2
  8
3
 10
531.00022549819926
 20
318.77127521171928
 30
0.0
 40
2.379999999999999
 50
1.641355999998809
 51
34.393930999999021
  0
LINE
  5
23B3
  8
3
 10
527.80022549819932
 20
316.10127521171921
 30
0.0
 11
527.80022549819932
 21
318.3394582117192
 31
0.0
  0
LINE
  5
23B4
  8
3
 10
534.20022549819919
 20
316.10127521171921
 30
0.0
 11
534.20022549819919
 21
318.3394582117192
 31
0.0
  0
ARC
  5
23B5
  8
3
 10
531.00022549819926
 20
318.77127521171928
 30
0.0
 40
2.379999999999999
 50
190.4533999999997
 51
349.5466000000003
  0
LINE
  5
23B6
  8
3
 10
536.25022549819926
 20
318.3394582117192
 30
0.0
 11
536.25022549819926
 21
318.83944621171929
 31
0.0
  0
CIRCLE
  5
23B7
  8
0
 10
524.65022549819946
 20
309.20127521171918
 30
0.0
 40
2.0
  0
CIRCLE
  5
23B8
  8
0
 10
511.95022549819942
 20
309.20127521171918
 30
0.0
 40
2.0
  0
LINE
  5
23B9
  8
3
 10
521.50022549819926
 20
316.10127521171921
 30
0.0
 11
527.80022549819932
 21
316.10127521171921
 31
0.0
  0
LINE
  5
23BA
  8
3
 10
513.05022549819932
 20
318.83944621171929
 30
0.0
 11
523.55022549819932
 21
318.83944621171929
 31
0.0
  0
LINE
  5
23BB
  8
3
 10
513.05022549819932
 20
318.3394582117192
 30
0.0
 11
523.55022549819932
 21
318.3394582117192
 31
0.0
  0
LINE
  5
23BC
  8
3
 10
515.10022549819951
 20
316.10127521171921
 30
0.0
 11
515.10022549819951
 21
318.3394582117192
 31
0.0
  0
LINE
  5
23BD
  8
3
 10
513.05022549819932
 20
318.3394582117192
 30
0.0
 11
513.05022549819932
 21
318.83944621171929
 31
0.0
  0
LINE
  5
23BE
  8
3
 10
510.85022549819951
 20
318.3394582117192
 30
0.0
 11
510.85022549819951
 21
318.83944621171929
 31
0.0
  0
ARC
  5
23BF
  8
3
 10
518.30022549819921
 20
318.77127521171928
 30
0.0
 40
2.379999999999999
 50
190.4533999999997
 51
349.5466000000003
  0
LINE
  5
23C0
  8
3
 10
521.50022549819926
 20
316.10127521171921
 30
0.0
 11
521.50022549819926
 21
318.3394582117192
 31
0.0
  0
LINE
  5
23C1
  8
3
 10
523.55022549819932
 20
318.3394582117192
 30
0.0
 11
523.55022549819932
 21
318.83944621171929
 31
0.0
  0
ARC
  5
23C2
  8
3
 10
518.30022549819921
 20
318.77127521171928
 30
0.0
 40
2.379999999999999
 50
1.641355999998809
 51
34.393930999999021
  0
ARC
  5
23C3
  8
3
 10
518.30022549819921
 20
318.77127521171928
 30
0.0
 40
2.379999999999999
 50
145.6060690000009
 51
178.35864400000111
  0
ARC
  5
23C4
  8
3
 10
518.30363549819936
 20
319.53945821171919
 30
0.0
 40
2.0
 50
216.86989800000009
 51
323.13010199999991
  0
LINE
  5
23C5
  8
3
 10
508.80022549819932
 20
316.10127521171921
 30
0.0
 11
508.80022549819932
 21
318.3394582117192
 31
0.0
  0
ARC
  5
23C6
  8
3
 10
505.60022549819939
 20
318.77127521171928
 30
0.0
 40
2.379999999999999
 50
1.641355999998809
 51
34.393930999999021
  0
LINE
  5
23C7
  8
3
 10
508.80022549819932
 20
316.10127521171921
 30
0.0
 11
515.10022549819951
 21
316.10127521171921
 31
0.0
  0
LINE
  5
23C8
  8
2
 10
514.30022549819921
 20
311.30127521171931
 30
0.0
 11
516.10022549819951
 21
311.30127521171931
 31
0.0
  0
LINE
  5
23C9
  8
2
 10
514.30022549819921
 20
307.10127521171921
 30
0.0
 11
516.10022549819951
 21
307.10127521171921
 31
0.0
  0
ARC
  5
23CA
  8
2
 10
516.10022549819951
 20
309.20127521171918
 30
0.0
 40
2.1000000000000001
 50
270.0
 51
90.0
  0
ARC
  5
23CB
  8
2
 10
514.30022549819921
 20
309.20127521171918
 30
0.0
 40
2.1000000000000001
 50
90.0
 51
270.0
  0
LINE
  5
23CC
  8
1
 10
515.20022549819919
 20
304.10127521171921
 30
0.0
 11
515.20022549819942
 21
314.30127521171931
 31
0.0
  0
LINE
  5
23CD
  8
0
 10
585.00022549819926
 20
300.06309221171921
 30
0.0
 11
585.00022549819926
 21
318.3394582117192
 31
0.0
  0
ARC
  5
23CE
  8
3
 10
569.10022549819928
 20
318.77127521171928
 30
0.0
 40
2.379999999999999
 50
190.4533999999997
 51
349.5466000000003
  0
ARC
  5
23CF
  8
3
 10
569.10022549819928
 20
318.77127521171928
 30
0.0
 40
2.379999999999999
 50
1.641355999998809
 51
34.393930999999021
  0
LINE
  5
23D0
  8
3
 10
563.85022549819928
 20
318.83944621171929
 30
0.0
 11
574.35022549819939
 21
318.83944621171929
 31
0.0
  0
LINE
  5
23D1
  8
3
 10
563.85022549819928
 20
318.3394582117192
 30
0.0
 11
574.35022549819939
 21
318.3394582117192
 31
0.0
  0
CIRCLE
  5
23D2
  8
0
 10
562.75022549819926
 20
309.20127521171918
 30
0.0
 40
2.0
  0
LINE
  5
23D3
  8
3
 10
559.60022549819939
 20
316.10127521171921
 30
0.0
 11
565.90022549819935
 21
316.10127521171921
 31
0.0
  0
ARC
  5
23D4
  8
3
 10
569.10022549819928
 20
318.77127521171928
 30
0.0
 40
2.379999999999999
 50
145.6060690000009
 51
178.35864400000111
  0
ARC
  5
23D5
  8
3
 10
569.10363549819931
 20
319.53945821171919
 30
0.0
 40
2.0
 50
216.86989800000009
 51
323.13010199999991
  0
LINE
  5
23D6
  8
3
 10
565.90022549819935
 20
316.10127521171921
 30
0.0
 11
565.90022549819935
 21
318.3394582117192
 31
0.0
  0
LINE
  5
23D7
  8
3
 10
563.85022549819928
 20
318.3394582117192
 30
0.0
 11
563.85022549819928
 21
318.83944621171929
 31
0.0
  0
ARC
  5
23D8
  8
3
 10
556.40022549819935
 20
318.77127521171928
 30
0.0
 40
2.379999999999999
 50
1.641355999998809
 51
34.393930999999021
  0
LINE
  5
23D9
  8
3
 10
561.65022549819935
 20
318.3394582117192
 30
0.0
 11
561.65022549819935
 21
318.83944621171929
 31
0.0
  0
LINE
  5
23DA
  8
3
 10
559.60022549819939
 20
316.10127521171921
 30
0.0
 11
559.60022549819939
 21
318.3394582117192
 31
0.0
  0
ARC
  5
23DB
  8
3
 10
556.40022549819935
 20
318.77127521171928
 30
0.0
 40
2.379999999999999
 50
145.6060690000009
 51
178.35864400000111
  0
LINE
  5
23DC
  8
3
 10
551.15022549819935
 20
318.3394582117192
 30
0.0
 11
551.15022549819935
 21
318.83944621171929
 31
0.0
  0
ARC
  5
23DD
  8
3
 10
543.70363549819933
 20
319.53945821171919
 30
0.0
 40
2.0
 50
216.86989800000009
 51
323.13010199999991
  0
ARC
  5
23DE
  8
3
 10
543.7002254981993
 20
318.77127521171928
 30
0.0
 40
2.379999999999999
 50
145.6060690000009
 51
178.35864400000111
  0
ARC
  5
23DF
  8
3
 10
543.7002254981993
 20
318.77127521171928
 30
0.0
 40
2.379999999999999
 50
1.641355999998809
 51
34.393930999999021
  0
LINE
  5
23E0
  8
3
 10
548.95022549819919
 20
318.3394582117192
 30
0.0
 11
548.95022549819919
 21
318.83944621171929
 31
0.0
  0
LINE
  5
23E1
  8
3
 10
546.90022549819935
 20
316.10127521171921
 30
0.0
 11
546.90022549819935
 21
318.3394582117192
 31
0.0
  0
ARC
  5
23E2
  8
3
 10
543.7002254981993
 20
318.77127521171928
 30
0.0
 40
2.379999999999999
 50
190.4533999999997
 51
349.5466000000003
  0
LINE
  5
23E3
  8
3
 10
546.90022549819935
 20
316.10127521171921
 30
0.0
 11
553.2002254981993
 21
316.10127521171921
 31
0.0
  0
LINE
  5
23E4
  8
3
 10
553.2002254981993
 20
316.10127521171921
 30
0.0
 11
553.2002254981993
 21
318.3394582117192
 31
0.0
  0
LINE
  5
23E5
  8
3
 10
538.4502254981993
 20
318.3394582117192
 30
0.0
 11
538.4502254981993
 21
318.83944621171929
 31
0.0
  0
LINE
  5
23E6
  8
3
 10
540.50022549819926
 20
316.10127521171921
 30
0.0
 11
540.50022549819926
 21
318.3394582117192
 31
0.0
  0
LINE
  5
23E7
  8
3
 10
538.4502254981993
 20
318.3394582117192
 30
0.0
 11
548.95022549819919
 21
318.3394582117192
 31
0.0
  0
LINE
  5
23E8
  8
3
 10
538.4502254981993
 20
318.83944621171929
 30
0.0
 11
548.95022549819919
 21
318.83944621171929
 31
0.0
  0
CIRCLE
  5
23E9
  8
0
 10
550.05022549819932
 20
309.20127521171918
 30
0.0
 40
2.0
  0
LINE
  5
23EA
  8
3
 10
551.15022549819935
 20
318.83944621171929
 30
0.0
 11
561.65022549819935
 21
318.83944621171929
 31
0.0
  0
LINE
  5
23EB
  8
3
 10
551.15022549819935
 20
318.3394582117192
 30
0.0
 11
561.65022549819935
 21
318.3394582117192
 31
0.0
  0
ARC
  5
23EC
  8
3
 10
556.40022549819935
 20
318.77127521171928
 30
0.0
 40
2.379999999999999
 50
190.4533999999997
 51
349.5466000000003
  0
ARC
  5
23ED
  8
3
 10
556.40363549819915
 20
319.53945821171919
 30
0.0
 40
2.0
 50
216.86989800000009
 51
323.13010199999991
  0
POINT
  5
23EE
  8
0
 10
581.95022549819919
 20
314.30127521171931
 30
0.0
  0
LINE
  5
23EF
  8
0
 10
581.95022549819919
 20
314.30127521171931
 30
0.0
 11
585.00022549819926
 21
314.70127521171918
 31
0.0
  0
LINE
  5
23F0
  8
0
 10
581.95022549819919
 20
304.10127521171921
 30
0.0
 11
585.00022549819926
 21
303.70127521171918
 31
0.0
  0
LINE
  5
23F1
  8
0
 10
581.95022549819919
 20
304.10127521171921
 30
0.0
 11
581.95022549819919
 21
314.30127521171931
 31
0.0
  0
CIRCLE
  5
23F2
  8
0
 10
575.4502254981993
 20
309.20127521171918
 30
0.0
 40
2.0
  0
LINE
  5
23F3
  8
3
 10
587.05022549819921
 20
318.3394582117192
 30
0.0
 11
587.05022549819921
 21
318.83944621171929
 31
0.0
  0
ARC
  5
23F4
  8
3
 10
581.80022549819932
 20
318.77127521171928
 30
0.0
 40
2.379999999999999
 50
1.641355999998809
 51
34.393930999999021
  0
LINE
  5
23F5
  8
3
 10
578.60022549819928
 20
316.10127521171921
 30
0.0
 11
578.60022549819928
 21
318.3394582117192
 31
0.0
  0
LINE
  5
23F6
  8
3
 10
572.30022549819921
 20
316.10127521171921
 30
0.0
 11
578.60022549819928
 21
316.10127521171921
 31
0.0
  0
LINE
  5
23F7
  8
3
 10
572.30022549819921
 20
316.10127521171921
 30
0.0
 11
572.30022549819921
 21
318.3394582117192
 31
0.0
  0
LINE
  5
23F8
  8
3
 10
574.35022549819939
 20
318.3394582117192
 30
0.0
 11
574.35022549819939
 21
318.83944621171929
 31
0.0
  0
LINE
  5
23F9
  8
3
 10
576.55022549819932
 20
318.3394582117192
 30
0.0
 11
576.55022549819932
 21
318.83944621171929
 31
0.0
  0
ARC
  5
23FA
  8
3
 10
581.80022549819932
 20
318.77127521171928
 30
0.0
 40
2.379999999999999
 50
145.6060690000009
 51
178.35864400000111
  0
ARC
  5
23FB
  8
3
 10
581.80363549819936
 20
319.53945821171919
 30
0.0
 40
2.0
 50
216.86989800000009
 51
323.13010199999991
  0
ARC
  5
23FC
  8
3
 10
581.80022549819932
 20
318.77127521171928
 30
0.0
 40
2.379999999999999
 50
190.4533999999997
 51
349.5466000000003
  0
LINE
  5
23FD
  8
3
 10
576.55022549819932
 20
318.3394582117192
 30
0.0
 11
587.05022549819921
 21
318.3394582117192
 31
0.0
  0
LINE
  5
23FE
  8
3
 10
576.55022549819932
 20
318.83944621171929
 30
0.0
 11
587.05022549819921
 21
318.83944621171929
 31
0.0
  0
LINE
  5
23FF
  8
0
 10
744.50022549819926
 20
311.70127521171918
 30
0.0
 11
738.50022549819926
 21
311.70127521171918
 31
0.0
  0
LINE
  5
2400
  8
0
 10
744.50022549819926
 20
314.90127521171928
 30
0.0
 11
738.50022549819926
 21
314.90127521171928
 31
0.0
  0
LINE
  5
2401
  8
0
 10
744.50022549819926
 20
303.5012752117193
 30
0.0
 11
738.50022549819926
 21
303.5012752117193
 31
0.0
  0
LINE
  5
2402
  8
0
 10
744.50022549819926
 20
306.70127521171929
 30
0.0
 11
738.50022549819926
 21
306.70127521171929
 31
0.0
  0
LINE
  5
2403
  8
0
 10
738.50022549819926
 20
311.70127521171918
 30
0.0
 11
738.50022549819926
 21
314.90127521171928
 31
0.0
  0
LINE
  5
2404
  8
0
 10
738.50022549819926
 20
303.5012752117193
 30
0.0
 11
738.50022549819926
 21
306.70127521171929
 31
0.0
  0
ARC
  5
2405
  8
0
 10
793.60022549819928
 20
302.20127521171918
 30
0.0
 40
2.0
 50
180.0
 51
270.0
  0
ARC
  5
2406
  8
0
 10
795.2002254981993
 20
302.20127521171918
 30
0.0
 40
2.0
 50
270.0
 51
0.0
  0
LINE
  5
2407
  8
0
 10
795.2002254981993
 20
295.70127521171918
 30
0.0
 11
795.2002254981993
 21
300.70127521171918
 31
0.0
  0
LINE
  5
2408
  8
0
 10
793.60022549819928
 20
300.20127521171918
 30
0.0
 11
795.2002254981993
 21
300.20127521171918
 31
0.0
  0
CIRCLE
  5
2409
  8
0
 10
775.20022549819942
 20
309.20127521171918
 30
0.0
 40
2.25
  0
LINE
  5
240A
  8
0
 10
740.50022549819937
 20
312.20127521171918
 30
0.0
 11
740.50022549819937
 21
314.40127521171928
 31
0.0
  0
LINE
  5
240B
  8
0
 10
740.50022549819937
 20
304.0012752117193
 30
0.0
 11
740.50022549819937
 21
306.20127521171918
 31
0.0
  0
LINE
  5
240C
  8
0
 10
754.30022549819932
 20
311.30127521171931
 30
0.0
 11
756.10022549819928
 21
311.30127521171931
 31
0.0
  0
LINE
  5
240D
  8
0
 10
754.30022549819932
 20
307.10127521171921
 30
0.0
 11
756.10022549819928
 21
307.10127521171921
 31
0.0
  0
ARC
  5
240E
  8
0
 10
756.10022549819928
 20
309.20127521171918
 30
0.0
 40
2.1000000000000001
 50
270.0
 51
90.0
  0
ARC
  5
240F
  8
0
 10
754.30022549819932
 20
309.20127521171918
 30
0.0
 40
2.1000000000000001
 50
90.0
 51
270.0
  0
LINE
  5
2411
  8
0
 10
793.60022549819928
 20
318.20127521171918
 30
0.0
 11
795.2002254981993
 21
318.20127521171918
 31
0.0
  0
LINE
  5
2412
  8
0
 10
795.2002254981993
 20
318.30127521171931
 30
0.0
 11
793.60022549819928
 21
318.30127521171931
 31
0.0
  0
LINE
  5
2413
  8
0
 10
795.2002254981993
 20
316.30127521171931
 30
0.0
 11
793.60022549819928
 21
316.30127521171931
 31
0.0
  0
LINE
  5
2414
  8
0
 10
792.20022549819942
 20
317.70127521171918
 30
0.0
 11
795.2002254981993
 21
317.70127521171918
 31
0.0
  0
LINE
  5
2415
  8
0
 10
800.26320549819945
 20
316.29989821171921
 30
0.0
 11
792.20022549819942
 21
315.70127521171918
 31
0.0
  0
ARC
  5
2416
  8
0
 10
793.60022549819928
 20
316.20127521171918
 30
0.0
 40
2.0
 50
90.0
 51
180.0
  0
ARC
  5
2417
  8
0
 10
792.20022549819942
 20
316.70127521171918
 30
0.0
 40
1.0
 50
90.0
 51
270.0
  0
ARC
  5
2418
  8
0
 10
800.30022549819932
 20
315.80127021171921
 30
0.0
 40
0.5
 50
0.0
 51
94.246040999999437
  0
ARC
  5
2419
  8
0
 10
795.2002254981993
 20
316.20127521171918
 30
0.0
 40
2.0
 50
0.0
 51
90.0
  0
LINE
  5
241A
  8
0
 10
795.2002254981993
 20
322.70127521171918
 30
0.0
 11
795.2002254981993
 21
317.70127521171918
 31
0.0
  0
LINE
  5
241B
  8
0
 10
795.2002254981993
 20
302.10127521171921
 30
0.0
 11
793.60022549819928
 21
302.10127521171921
 31
0.0
  0
LINE
  5
241C
  8
0
 10
792.20022549819942
 20
300.70127521171918
 30
0.0
 11
795.2002254981993
 21
300.70127521171918
 31
0.0
  0
LINE
  5
241D
  8
0
 10
800.26320549819945
 20
302.10265221171932
 30
0.0
 11
792.20022549819942
 21
302.70127521171929
 31
0.0
  0
ARC
  5
241E
  8
0
 10
792.20022549819942
 20
301.70127521171918
 30
0.0
 40
1.0
 50
90.0
 51
270.0
  0
ARC
  5
241F
  8
0
 10
800.30022549819932
 20
302.6012802117192
 30
0.0
 40
0.5
 50
265.75395900000058
 51
0.0
  0
LINE
  5
2420
  8
0
 10
791.60022549819917
 20
302.20127521171918
 30
0.0
 11
791.60022549819917
 21
316.20127521171918
 31
0.0
  0
LINE
  5
2421
  8
0
 10
797.20022549819942
 20
302.20127521171918
 30
0.0
 11
797.20022549819942
 21
316.20127521171918
 31
0.0
  0
LINE
  5
2422
  8
0
 10
793.60022549819928
 20
302.10127521171921
 30
0.0
 11
793.60022549819928
 21
316.30127521171931
 31
0.0
  0
LINE
  5
2423
  8
0
 10
800.80022549819944
 20
302.6012802117192
 30
0.0
 11
800.80022549819944
 21
315.80127021171921
 31
0.0
  0
LINE
  5
2424
  8
0
 10
795.2002254981993
 20
302.10127521171921
 30
0.0
 11
795.2002254981993
 21
316.30127521171931
 31
0.0
  0
LINE
  5
2454
  8
1
 10
415.2002254981993
 20
314.45127521171918
 30
0.0
 11
415.2002254981993
 21
303.95127521171918
 31
0.0
  0
LINE
  5
2456
  8
1
 10
435.2002254981993
 20
314.45127521171918
 30
0.0
 11
435.2002254981993
 21
303.95127521171918
 31
0.0
  0
LINE
  5
2457
  8
3
 10
436.85022549819928
 20
300.06309221171921
 30
0.0
 11
447.35022549819928
 21
300.06309221171921
 31
0.0
  0
LINE
  5
2458
  8
3
 10
436.85022549819928
 20
299.56310421171912
 30
0.0
 11
447.35022549819928
 21
299.56310421171912
 31
0.0
  0
LINE
  5
2459
  8
3
 10
424.15022549819929
 20
300.06309221171932
 30
0.0
 11
434.65022549819918
 21
300.06309221171932
 31
0.0
  0
LINE
  5
245A
  8
3
 10
424.15022549819929
 20
299.56310421171918
 30
0.0
 11
434.65022549819918
 21
299.56310421171918
 31
0.0
  0
ARC
  5
245B
  8
3
 10
429.40022549819918
 20
299.63127521171918
 30
0.0
 40
2.379999999999999
 50
140.3900439999999
 51
169.54660000000021
  0
ARC
  5
245C
  8
3
 10
429.40022549819918
 20
299.63127521171918
 30
0.0
 40
2.379999999999999
 50
181.64135599999881
 51
214.39393099999899
  0
LINE
  5
245D
  8
3
 10
424.15022549819929
 20
300.06309221171932
 30
0.0
 11
424.15022549819929
 21
299.56310421171918
 31
0.0
  0
LINE
  5
245E
  8
3
 10
426.2002254981993
 20
301.14866321171928
 30
0.0
 11
426.2002254981993
 21
300.06309221171932
 31
0.0
  0
ARC
  5
245F
  8
3
 10
429.40022549819918
 20
299.63127521171918
 30
0.0
 40
2.379999999999999
 50
325.6060690000009
 51
358.35864400000122
  0
ARC
  5
2460
  8
3
 10
429.40022549819918
 20
299.63127521171918
 30
0.0
 40
2.379999999999999
 50
10.45339999999967
 51
39.609955999999912
  0
ARC
  5
2461
  8
3
 10
429.40363549819932
 20
298.86309221171928
 30
0.0
 40
2.0
 50
36.869898000000113
 51
143.13010199999979
  0
LINE
  5
2462
  8
3
 10
436.85022549819928
 20
300.06309221171921
 30
0.0
 11
436.85022549819928
 21
299.56310421171912
 31
0.0
  0
LINE
  5
2463
  8
3
 10
432.60022549819928
 20
301.14866321171928
 30
0.0
 11
432.60022549819928
 21
300.06309221171932
 31
0.0
  0
LINE
  5
2464
  8
3
 10
434.65022549819918
 20
300.06309221171932
 30
0.0
 11
434.65022549819918
 21
299.56310421171918
 31
0.0
  0
LINE
  5
2465
  8
3
 10
521.50022549819926
 20
302.3012752117192
 30
0.0
 11
527.80022549819932
 21
302.3012752117192
 31
0.0
  0
LINE
  5
2466
  8
3
 10
525.75022549819926
 20
300.06309221171921
 30
0.0
 11
536.25022549819926
 21
300.06309221171921
 31
0.0
  0
LINE
  5
2467
  8
3
 10
525.75022549819926
 20
299.56310421171912
 30
0.0
 11
536.25022549819926
 21
299.56310421171912
 31
0.0
  0
LINE
  5
2468
  8
3
 10
474.9502254981993
 20
299.56310421171912
 30
0.0
 11
485.4502254981993
 21
299.56310421171912
 31
0.0
  0
LINE
  5
2469
  8
3
 10
474.9502254981993
 20
300.06309221171921
 30
0.0
 11
485.4502254981993
 21
300.06309221171921
 31
0.0
  0
LINE
  5
246A
  8
3
 10
449.55022549819921
 20
300.06309221171921
 30
0.0
 11
460.05022549819921
 21
300.06309221171921
 31
0.0
  0
LINE
  5
246B
  8
3
 10
449.55022549819921
 20
299.56310421171912
 30
0.0
 11
460.05022549819921
 21
299.56310421171912
 31
0.0
  0
ARC
  5
246C
  8
3
 10
442.10363549819931
 20
298.86309221171922
 30
0.0
 40
2.0
 50
36.869898000000113
 51
143.13010199999979
  0
ARC
  5
246D
  8
3
 10
442.10022549819928
 20
299.63127521171913
 30
0.0
 40
2.379999999999999
 50
181.64135599999881
 51
214.39393099999899
  0
ARC
  5
246E
  8
3
 10
442.10022549819928
 20
299.63127521171913
 30
0.0
 40
2.379999999999999
 50
140.3900439999999
 51
169.54660000000021
  0
LINE
  5
246F
  8
3
 10
438.90022549819929
 20
301.14866321171922
 30
0.0
 11
438.90022549819929
 21
300.06309221171921
 31
0.0
  0
ARC
  5
2470
  8
3
 10
442.10022549819928
 20
299.63127521171913
 30
0.0
 40
2.379999999999999
 50
10.45339999999967
 51
39.609955999999912
  0
ARC
  5
2471
  8
3
 10
442.10022549819928
 20
299.63127521171913
 30
0.0
 40
2.379999999999999
 50
325.6060690000009
 51
358.35864400000122
  0
LINE
  5
2472
  8
3
 10
445.30022549819921
 20
301.14866321171922
 30
0.0
 11
445.30022549819921
 21
300.06309221171921
 31
0.0
  0
LINE
  5
2473
  8
3
 10
445.30022549819921
 20
301.14866321171922
 30
0.0
 11
445.30022549819921
 21
300.06309221171921
 31
0.0
  0
LINE
  5
2474
  8
3
 10
447.35022549819928
 20
300.06309221171921
 30
0.0
 11
447.35022549819928
 21
299.56310421171912
 31
0.0
  0
ARC
  5
2475
  8
3
 10
454.80363549819941
 20
298.86309221171922
 30
0.0
 40
2.0
 50
36.869898000000113
 51
143.13010199999979
  0
ARC
  5
2476
  8
3
 10
454.80022549819932
 20
299.63127521171913
 30
0.0
 40
2.379999999999999
 50
140.3900439999999
 51
169.54660000000021
  0
ARC
  5
2477
  8
3
 10
454.80022549819932
 20
299.63127521171913
 30
0.0
 40
2.379999999999999
 50
181.64135599999881
 51
214.39393099999899
  0
LINE
  5
2478
  8
3
 10
449.55022549819921
 20
300.06309221171921
 30
0.0
 11
449.55022549819921
 21
299.56310421171912
 31
0.0
  0
LINE
  5
2479
  8
3
 10
451.60022549819928
 20
301.14866321171922
 30
0.0
 11
451.60022549819928
 21
300.06309221171921
 31
0.0
  0
ARC
  5
247A
  8
3
 10
454.80022549819932
 20
299.63127521171913
 30
0.0
 40
2.379999999999999
 50
325.6060690000009
 51
358.35864400000122
  0
ARC
  5
247B
  8
3
 10
454.80022549819932
 20
299.63127521171913
 30
0.0
 40
2.379999999999999
 50
10.45339999999967
 51
39.609955999999912
  0
LINE
  5
247C
  8
3
 10
458.00022549819931
 20
301.14866321171922
 30
0.0
 11
458.00022549819931
 21
300.06309221171921
 31
0.0
  0
LINE
  5
247D
  8
3
 10
462.25022549819931
 20
299.56310421171912
 30
0.0
 11
472.75022549819931
 21
299.56310421171912
 31
0.0
  0
LINE
  5
247E
  8
3
 10
462.25022549819931
 20
300.06309221171921
 30
0.0
 11
472.75022549819931
 21
300.06309221171921
 31
0.0
  0
ARC
  5
247F
  8
3
 10
467.5002254981992
 20
299.63127521171913
 30
0.0
 40
2.379999999999999
 50
140.3900439999999
 51
169.54660000000021
  0
ARC
  5
2480
  8
3
 10
467.5002254981992
 20
299.63127521171913
 30
0.0
 40
2.379999999999999
 50
181.64135599999881
 51
214.39393099999899
  0
LINE
  5
2481
  8
3
 10
460.05022549819921
 20
300.06309221171921
 30
0.0
 11
460.05022549819921
 21
299.56310421171912
 31
0.0
  0
LINE
  5
2482
  8
3
 10
462.25022549819931
 20
300.06309221171921
 30
0.0
 11
462.25022549819931
 21
299.56310421171912
 31
0.0
  0
LINE
  5
2483
  8
3
 10
464.30022549819921
 20
301.14866321171922
 30
0.0
 11
464.30022549819921
 21
300.06309221171921
 31
0.0
  0
LINE
  5
2484
  8
3
 10
470.7002254981993
 20
301.14866321171922
 30
0.0
 11
470.7002254981993
 21
300.06309221171921
 31
0.0
  0
LINE
  5
2485
  8
3
 10
470.7002254981993
 20
301.14866321171922
 30
0.0
 11
470.7002254981993
 21
300.06309221171921
 31
0.0
  0
ARC
  5
2486
  8
3
 10
467.5002254981992
 20
299.63127521171913
 30
0.0
 40
2.379999999999999
 50
325.6060690000009
 51
358.35864400000122
  0
ARC
  5
2487
  8
3
 10
467.5002254981992
 20
299.63127521171913
 30
0.0
 40
2.379999999999999
 50
10.45339999999967
 51
39.609955999999912
  0
ARC
  5
2488
  8
3
 10
467.50363549819929
 20
298.86309221171922
 30
0.0
 40
2.0
 50
36.869898000000113
 51
143.13010199999979
  0
LINE
  5
2489
  8
3
 10
472.75022549819931
 20
300.06309221171921
 30
0.0
 11
472.75022549819931
 21
299.56310421171912
 31
0.0
  0
LINE
  5
248A
  8
3
 10
474.9502254981993
 20
300.06309221171921
 30
0.0
 11
474.9502254981993
 21
299.56310421171912
 31
0.0
  0
ARC
  5
248B
  8
3
 10
480.20363549819939
 20
298.86309221171922
 30
0.0
 40
2.0
 50
36.869898000000113
 51
143.13010199999979
  0
ARC
  5
248C
  8
3
 10
480.2002254981993
 20
299.63127521171913
 30
0.0
 40
2.379999999999999
 50
181.64135599999881
 51
214.39393099999899
  0
LINE
  5
248D
  8
3
 10
477.00022549819931
 20
301.14866321171922
 30
0.0
 11
477.00022549819931
 21
300.06309221171921
 31
0.0
  0
ARC
  5
248E
  8
3
 10
480.2002254981993
 20
299.63127521171913
 30
0.0
 40
2.379999999999999
 50
140.3900439999999
 51
169.54660000000021
  0
LINE
  5
248F
  8
3
 10
500.35022549819939
 20
299.56310421171912
 30
0.0
 11
510.85022549819951
 21
299.56310421171912
 31
0.0
  0
LINE
  5
2490
  8
3
 10
500.35022549819939
 20
300.06309221171921
 30
0.0
 11
510.85022549819951
 21
300.06309221171921
 31
0.0
  0
ARC
  5
2491
  8
3
 10
505.60022549819939
 20
299.63127521171913
 30
0.0
 40
2.379999999999999
 50
10.45339999999967
 51
169.54660000000021
  0
LINE
  5
2492
  8
3
 10
487.65022549819929
 20
299.56310421171912
 30
0.0
 11
498.1502254981994
 21
299.56310421171912
 31
0.0
  0
LINE
  5
2493
  8
3
 10
487.65022549819929
 20
300.06309221171921
 30
0.0
 11
498.1502254981994
 21
300.06309221171921
 31
0.0
  0
ARC
  5
2494
  8
3
 10
492.90363549819932
 20
298.86309221171922
 30
0.0
 40
2.0
 50
36.869898000000113
 51
143.13010199999979
  0
ARC
  5
2495
  8
3
 10
480.2002254981993
 20
299.63127521171913
 30
0.0
 40
2.379999999999999
 50
10.45339999999967
 51
39.609955999999912
  0
ARC
  5
2496
  8
3
 10
480.2002254981993
 20
299.63127521171913
 30
0.0
 40
2.379999999999999
 50
325.6060690000009
 51
358.35864400000122
  0
LINE
  5
2497
  8
3
 10
483.40022549819918
 20
301.14866321171922
 30
0.0
 11
483.40022549819918
 21
300.06309221171921
 31
0.0
  0
LINE
  5
2498
  8
3
 10
483.40022549819918
 20
301.14866321171922
 30
0.0
 11
483.40022549819918
 21
300.06309221171921
 31
0.0
  0
LINE
  5
2499
  8
3
 10
485.4502254981993
 20
300.06309221171921
 30
0.0
 11
485.4502254981993
 21
299.56310421171912
 31
0.0
  0
LINE
  5
249A
  8
3
 10
487.65022549819929
 20
300.06309221171921
 30
0.0
 11
487.65022549819929
 21
299.56310421171912
 31
0.0
  0
ARC
  5
249B
  8
3
 10
492.90022549819929
 20
299.63127521171913
 30
0.0
 40
2.379999999999999
 50
140.3900439999999
 51
169.54660000000021
  0
ARC
  5
249C
  8
3
 10
492.90022549819929
 20
299.63127521171913
 30
0.0
 40
2.379999999999999
 50
181.64135599999881
 51
214.39393099999899
  0
LINE
  5
249D
  8
3
 10
489.7002254981993
 20
301.14866321171922
 30
0.0
 11
489.7002254981993
 21
300.06309221171921
 31
0.0
  0
LINE
  5
249E
  8
3
 10
496.10022549819939
 20
302.3012752117192
 30
0.0
 11
502.4002254981994
 21
302.3012752117192
 31
0.0
  0
ARC
  5
249F
  8
3
 10
492.90022549819929
 20
299.63127521171913
 30
0.0
 40
2.379999999999999
 50
325.6060690000009
 51
358.35864400000122
  0
LINE
  5
24A0
  8
3
 10
496.10022549819939
 20
302.3012752117192
 30
0.0
 11
496.10022549819939
 21
300.06309221171921
 31
0.0
  0
LINE
  5
24A1
  8
3
 10
498.1502254981994
 20
300.06309221171921
 30
0.0
 11
498.1502254981994
 21
299.56310421171912
 31
0.0
  0
ARC
  5
24A2
  8
3
 10
492.90022549819929
 20
299.63127521171913
 30
0.0
 40
2.379999999999999
 50
10.45339999999967
 51
39.609955999999912
  0
LINE
  5
24A3
  8
3
 10
500.35022549819939
 20
300.06309221171921
 30
0.0
 11
500.35022549819939
 21
299.56310421171912
 31
0.0
  0
ARC
  5
24A4
  8
3
 10
505.60022549819939
 20
299.63127521171913
 30
0.0
 40
2.379999999999999
 50
181.64135599999881
 51
214.39393099999899
  0
LINE
  5
24A5
  8
3
 10
502.4002254981994
 20
302.3012752117192
 30
0.0
 11
502.4002254981994
 21
300.06309221171921
 31
0.0
  0
LINE
  5
24A6
  8
3
 10
508.80022549819932
 20
302.3012752117192
 30
0.0
 11
515.10022549819951
 21
302.3012752117192
 31
0.0
  0
LINE
  5
24A7
  8
3
 10
513.05022549819932
 20
300.06309221171921
 30
0.0
 11
523.55022549819932
 21
300.06309221171921
 31
0.0
  0
LINE
  5
24A8
  8
3
 10
513.05022549819932
 20
299.56310421171912
 30
0.0
 11
523.55022549819932
 21
299.56310421171912
 31
0.0
  0
ARC
  5
24A9
  8
3
 10
505.60022549819939
 20
299.63127521171913
 30
0.0
 40
2.379999999999999
 50
325.6060690000009
 51
358.35864400000122
  0
LINE
  5
24AA
  8
3
 10
508.80022549819932
 20
302.3012752117192
 30
0.0
 11
508.80022549819932
 21
300.06309221171921
 31
0.0
  0
ARC
  5
24AB
  8
3
 10
505.6036354981992
 20
298.86309221171922
 30
0.0
 40
2.0
 50
36.869898000000113
 51
143.13010199999979
  0
LINE
  5
24AC
  8
3
 10
510.85022549819951
 20
300.06309221171921
 30
0.0
 11
510.85022549819951
 21
299.56310421171912
 31
0.0
  0
LINE
  5
24AD
  8
3
 10
513.05022549819932
 20
300.06309221171921
 30
0.0
 11
513.05022549819932
 21
299.56310421171912
 31
0.0
  0
ARC
  5
24AE
  8
3
 10
518.30022549819921
 20
299.63127521171913
 30
0.0
 40
2.379999999999999
 50
325.6060690000009
 51
358.35864400000122
  0
ARC
  5
24AF
  8
3
 10
518.30022549819921
 20
299.63127521171913
 30
0.0
 40
2.379999999999999
 50
10.45339999999967
 51
169.54660000000021
  0
ARC
  5
24B0
  8
3
 10
518.30363549819936
 20
298.86309221171922
 30
0.0
 40
2.0
 50
36.869898000000113
 51
143.13010199999979
  0
ARC
  5
24B1
  8
3
 10
518.30022549819921
 20
299.63127521171913
 30
0.0
 40
2.379999999999999
 50
181.64135599999881
 51
214.39393099999899
  0
LINE
  5
24B2
  8
3
 10
515.10022549819951
 20
302.3012752117192
 30
0.0
 11
515.10022549819951
 21
300.06309221171921
 31
0.0
  0
LINE
  5
24B3
  8
3
 10
523.55022549819932
 20
300.06309221171921
 30
0.0
 11
523.55022549819932
 21
299.56310421171912
 31
0.0
  0
LINE
  5
24B4
  8
3
 10
521.50022549819926
 20
302.3012752117192
 30
0.0
 11
521.50022549819926
 21
300.06309221171921
 31
0.0
  0
LINE
  5
24B5
  8
3
 10
525.75022549819926
 20
300.06309221171921
 30
0.0
 11
525.75022549819926
 21
299.56310421171912
 31
0.0
  0
ARC
  5
24B6
  8
3
 10
569.10363549819931
 20
298.86309221171911
 30
0.0
 40
2.0
 50
36.869898000000113
 51
143.13010199999979
  0
LINE
  5
24B7
  8
3
 10
563.85022549819928
 20
300.06309221171921
 30
0.0
 11
574.35022549819939
 21
300.06309221171921
 31
0.0
  0
LINE
  5
24B8
  8
3
 10
563.85022549819928
 20
299.56310421171901
 30
0.0
 11
574.35022549819939
 21
299.56310421171901
 31
0.0
  0
ARC
  5
24B9
  8
3
 10
569.10022549819928
 20
299.63127521171901
 30
0.0
 40
2.379999999999999
 50
10.45339999999967
 51
169.54660000000021
  0
LINE
  5
24BA
  8
3
 10
538.4502254981993
 20
299.56310421171912
 30
0.0
 11
548.95022549819919
 21
299.56310421171901
 31
0.0
  0
LINE
  5
24BB
  8
3
 10
538.4502254981993
 20
300.06309221171921
 30
0.0
 11
548.95022549819919
 21
300.06309221171921
 31
0.0
  0
LINE
  5
24BC
  8
3
 10
546.90022549819935
 20
302.30127521171909
 30
0.0
 11
553.2002254981993
 21
302.30127521171909
 31
0.0
  0
LINE
  5
24BD
  8
3
 10
534.20022549819919
 20
302.3012752117192
 30
0.0
 11
540.50022549819926
 21
302.3012752117192
 31
0.0
  0
ARC
  5
24BE
  8
3
 10
531.00022549819926
 20
299.63127521171913
 30
0.0
 40
2.379999999999999
 50
10.45339999999967
 51
169.54660000000021
  0
ARC
  5
24BF
  8
3
 10
531.0036354981994
 20
298.86309221171922
 30
0.0
 40
2.0
 50
36.869898000000113
 51
143.13010199999979
  0
LINE
  5
24C0
  8
3
 10
527.80022549819932
 20
302.3012752117192
 30
0.0
 11
527.80022549819932
 21
300.06309221171921
 31
0.0
  0
ARC
  5
24C1
  8
3
 10
531.00022549819926
 20
299.63127521171913
 30
0.0
 40
2.379999999999999
 50
181.64135599999881
 51
214.39393099999899
  0
LINE
  5
24C2
  8
3
 10
536.25022549819926
 20
300.06309221171921
 30
0.0
 11
536.25022549819926
 21
299.56310421171912
 31
0.0
  0
LINE
  5
24C3
  8
3
 10
534.20022549819919
 20
302.3012752117192
 30
0.0
 11
534.20022549819919
 21
300.06309221171921
 31
0.0
  0
ARC
  5
24C4
  8
3
 10
531.00022549819926
 20
299.63127521171913
 30
0.0
 40
2.379999999999999
 50
325.6060690000009
 51
358.35864400000122
  0
ARC
  5
24C5
  8
3
 10
543.7002254981993
 20
299.63127521171901
 30
0.0
 40
2.379999999999999
 50
10.45339999999967
 51
169.54660000000021
  0
ARC
  5
24C6
  8
3
 10
543.70363549819933
 20
298.86309221171911
 30
0.0
 40
2.0
 50
36.869898000000113
 51
143.13010199999979
  0
LINE
  5
24C7
  8
3
 10
540.50022549819926
 20
302.3012752117192
 30
0.0
 11
540.50022549819926
 21
300.06309221171921
 31
0.0
  0
LINE
  5
24C8
  8
3
 10
538.4502254981993
 20
300.06309221171921
 30
0.0
 11
538.4502254981993
 21
299.56310421171912
 31
0.0
  0
ARC
  5
24C9
  8
3
 10
543.7002254981993
 20
299.63127521171901
 30
0.0
 40
2.379999999999999
 50
181.64135599999881
 51
214.39393099999899
  0
LINE
  5
24CA
  8
3
 10
546.90022549819935
 20
302.30127521171909
 30
0.0
 11
546.90022549819935
 21
300.06309221171921
 31
0.0
  0
ARC
  5
24CB
  8
3
 10
543.7002254981993
 20
299.63127521171901
 30
0.0
 40
2.379999999999999
 50
325.6060690000009
 51
358.35864400000122
  0
LINE
  5
24CC
  8
3
 10
551.15022549819935
 20
300.06309221171921
 30
0.0
 11
561.65022549819935
 21
300.06309221171921
 31
0.0
  0
LINE
  5
24CD
  8
3
 10
551.15022549819935
 20
299.56310421171901
 30
0.0
 11
561.65022549819935
 21
299.56310421171901
 31
0.0
  0
ARC
  5
24CE
  8
3
 10
556.40022549819935
 20
299.63127521171901
 30
0.0
 40
2.379999999999999
 50
325.6060690000009
 51
358.35864400000122
  0
LINE
  5
24CF
  8
3
 10
553.2002254981993
 20
302.30127521171909
 30
0.0
 11
553.2002254981993
 21
300.06309221171921
 31
0.0
  0
LINE
  5
24D0
  8
3
 10
548.95022549819919
 20
300.06309221171921
 30
0.0
 11
548.95022549819919
 21
299.56310421171901
 31
0.0
  0
LINE
  5
24D1
  8
3
 10
551.15022549819935
 20
300.06309221171921
 30
0.0
 11
551.15022549819935
 21
299.56310421171901
 31
0.0
  0
ARC
  5
24D2
  8
3
 10
556.40363549819915
 20
298.86309221171911
 30
0.0
 40
2.0
 50
36.869898000000113
 51
143.13010199999979
  0
ARC
  5
24D3
  8
3
 10
556.40022549819935
 20
299.63127521171901
 30
0.0
 40
2.379999999999999
 50
10.45339999999967
 51
169.54660000000021
  0
ARC
  5
24D4
  8
3
 10
556.40022549819935
 20
299.63127521171901
 30
0.0
 40
2.379999999999999
 50
181.64135599999881
 51
214.39393099999899
  0
LINE
  5
24D5
  8
3
 10
559.60022549819939
 20
302.30127521171909
 30
0.0
 11
565.90022549819935
 21
302.30127521171909
 31
0.0
  0
LINE
  5
24D6
  8
3
 10
559.60022549819939
 20
302.30127521171909
 30
0.0
 11
559.60022549819939
 21
300.06309221171921
 31
0.0
  0
LINE
  5
24D7
  8
3
 10
561.65022549819935
 20
300.06309221171921
 30
0.0
 11
561.65022549819935
 21
299.56310421171901
 31
0.0
  0
LINE
  5
24D8
  8
3
 10
563.85022549819928
 20
300.06309221171921
 30
0.0
 11
563.85022549819928
 21
299.56310421171901
 31
0.0
  0
LINE
  5
24D9
  8
3
 10
565.90022549819935
 20
302.30127521171909
 30
0.0
 11
565.90022549819935
 21
300.06309221171921
 31
0.0
  0
ARC
  5
24DA
  8
3
 10
569.10022549819928
 20
299.63127521171901
 30
0.0
 40
2.379999999999999
 50
181.64135599999881
 51
214.39393099999899
  0
LINE
  5
24DB
  8
3
 10
576.55022549819932
 20
299.56310421171901
 30
0.0
 11
587.05022549819921
 21
299.56310421171901
 31
0.0
  0
LINE
  5
24DC
  8
3
 10
576.55022549819932
 20
300.06309221171921
 30
0.0
 11
587.05022549819921
 21
300.06309221171921
 31
0.0
  0
ARC
  5
24DD
  8
3
 10
581.80022549819932
 20
299.63127521171901
 30
0.0
 40
2.379999999999999
 50
10.45339999999967
 51
169.54660000000021
  0
ARC
  5
24DE
  8
3
 10
581.80363549819936
 20
298.86309221171911
 30
0.0
 40
2.0
 50
36.869898000000113
 51
143.13010199999979
  0
LINE
  5
24DF
  8
3
 10
572.30022549819921
 20
302.30127521171909
 30
0.0
 11
578.60022549819928
 21
302.30127521171909
 31
0.0
  0
LINE
  5
24E0
  8
3
 10
574.35022549819939
 20
300.06309221171921
 30
0.0
 11
574.35022549819939
 21
299.56310421171901
 31
0.0
  0
LINE
  5
24E1
  8
3
 10
572.30022549819921
 20
302.30127521171909
 30
0.0
 11
572.30022549819921
 21
300.06309221171921
 31
0.0
  0
ARC
  5
24E2
  8
3
 10
569.10022549819928
 20
299.63127521171901
 30
0.0
 40
2.379999999999999
 50
325.6060690000009
 51
358.35864400000122
  0
ARC
  5
24E3
  8
3
 10
581.80022549819932
 20
299.63127521171901
 30
0.0
 40
2.379999999999999
 50
181.64135599999881
 51
214.39393099999899
  0
LINE
  5
24E4
  8
3
 10
576.55022549819932
 20
300.06309221171921
 30
0.0
 11
576.55022549819932
 21
299.56310421171901
 31
0.0
  0
LINE
  5
24E5
  8
3
 10
578.60022549819928
 20
302.30127521171909
 30
0.0
 11
578.60022549819928
 21
300.06309221171921
 31
0.0
  0
ARC
  5
24E6
  8
3
 10
581.80022549819932
 20
299.63127521171901
 30
0.0
 40
2.379999999999999
 50
325.6060690000009
 51
358.35864400000122
  0
LINE
  5
24E7
  8
3
 10
587.05022549819921
 20
300.06309221171921
 30
0.0
 11
587.05022549819921
 21
299.56310421171901
 31
0.0
  0
LINE
  5
24E8
  8
0
 10
495.2002254981993
 20
304.10127521171921
 30
0.0
 11
581.95022549819919
 21
304.10127521171921
 31
0.0
  0
LINE
  5
24E9
  8
2
 10
495.2002254981993
 20
304.60127521171921
 30
0.0
 11
581.95022549819919
 21
304.60127521171921
 31
0.0
  0
LINE
  5
24EC
  8
1
 10
775.20022549819942
 20
314.45127521171918
 30
0.0
 11
775.20022549819942
 21
303.95127521171918
 31
0.0
  0
LINE
  5
24EE
  8
1
 10
755.20022549819919
 20
314.30127521171931
 30
0.0
 11
755.20022549819919
 21
303.80127521171931
 31
0.0
  0
INSERT
  5
2500
  8
0
  2
BATU
 10
0.0
 20
0.0
 30
0.0
 41
0.001
 42
0.001
 43
0.001
  0
TEXT
  5
25AB
  8
0
 62
     3
 10
0.0
 20
0.0
 30
0.0
 40
10.0
  1
RS27S-400A
  7
STANDARD1
  0
ENDSEC
  0
EOF
