  0
SECTION
  2
HEADER
  9
$ACADVER
  1
AC1009
  9
$INSBASE
 10
0.0
 20
0.0
 30
0.0
  9
$EXTMIN
 10
0.0
 20
-2.960436562073669
 30
0.0
  9
$EXTMAX
 10
301.02752350851171
 20
247.5511736828764
 30
0.0
  9
$LIMMIN
 10
0.0
 20
0.0
  9
$LIMMAX
 10
375.0
 20
270.0
  9
$ORTHOMODE
 70
     1
  9
$REGENMODE
 70
     1
  9
$FILLMODE
 70
     1
  9
$QTEXTMODE
 70
     0
  9
$MIRRTEXT
 70
     0
  9
$DRAGMODE
 70
     2
  9
$LTSCALE
 40
5.0
  9
$OSMODE
 70
    55
  9
$ATTMODE
 70
     1
  9
$TEXTSIZE
 40
4.000000000000048
  9
$TRACEWID
 40
0.05
  9
$TEXTSTYLE
  7
STANDARD
  9
$CLAYER
  8
0
  9
$CELTYPE
  6
BYLAYER
  9
$CECOLOR
 62
   256
  9
$DIMSCALE
 40
1.0
  9
$DIMASZ
 40
3.0
  9
$DIMEXO
 40
2.0
  9
$DIMDLI
 40
0.38
  9
$DIMRND
 40
0.0
  9
$DIMDLE
 40
0.0
  9
$DIMEXE
 40
2.0
  9
$DIMTP
 40
0.0
  9
$DIMTM
 40
0.0
  9
$DIMTXT
 40
3.2000000000000002
  9
$DIMCEN
 40
0.0
  9
$DIMTSZ
 40
0.0
  9
$DIMTOL
 70
     0
  9
$DIMLIM
 70
     0
  9
$DIMTIH
 70
     0
  9
$DIMTOH
 70
     0
  9
$DIMSE1
 70
     0
  9
$DIMSE2
 70
     0
  9
$DIMTAD
 70
     1
  9
$DIMZIN
 70
     0
  9
$DIMBLK
  1

  9
$DIMASO
 70
     0
  9
$DIMSHO
 70
     0
  9
$DIMPOST
  1

  9
$DIMAPOST
  1

  9
$DIMALT
 70
     0
  9
$DIMALTD
 70
     2
  9
$DIMALTF
 40
25.399999999999999
  9
$DIMLFAC
 40
1.0
  9
$DIMTOFL
 70
     0
  9
$DIMTVP
 40
1.6000000000000001
  9
$DIMTIX
 70
     1
  9
$DIMSOXD
 70
     0
  9
$DIMSAH
 70
     0
  9
$DIMBLK1
  1

  9
$DIMBLK2
  1

  9
$DIMSTYLE
  2
STANDARD
  9
$DIMCLRD
 70
     4
  9
$DIMCLRE
 70
     4
  9
$DIMCLRT
 70
     4
  9
$DIMTFAC
 40
1.0
  9
$DIMGAP
 40
0.09
  9
$LUNITS
 70
     2
  9
$LUPREC
 70
     1
  9
$SKETCHINC
 40
0.1
  9
$FILLETRAD
 40
0.0
  9
$AUNITS
 70
     0
  9
$AUPREC
 70
     0
  9
$MENU
  1
E:\r13\win\SUPPORT\ACAD
  9
$ELEVATION
 40
0.0
  9
$PELEVATION
 40
0.0
  9
$THICKNESS
 40
0.0
  9
$LIMCHECK
 70
     0
  9
$BLIPMODE
 70
     0
  9
$CHAMFERA
 40
1.1999999999999991
  9
$CHAMFERB
 40
1.1999999999999991
  9
$SKPOLY
 70
     0
  9
$TDCREATE
 40
2450759.6924934029
  9
$TDUPDATE
 40
2456598.6029298031
  9
$TDINDWG
 40
0.0006515162
  9
$TDUSRTIMER
 40
0.0006515162
  9
$USRTIMER
 70
     1
  9
$ANGBASE
 50
0.0
  9
$ANGDIR
 70
     0
  9
$PDMODE
 70
     0
  9
$PDSIZE
 40
0.0
  9
$PLINEWID
 40
0.0
  9
$COORDS
 70
     1
  9
$SPLFRAME
 70
     0
  9
$SPLINETYPE
 70
     6
  9
$SPLINESEGS
 70
     8
  9
$ATTDIA
 70
     0
  9
$ATTREQ
 70
     1
  9
$HANDLING
 70
     1
  9
$HANDSEED
  5
307
  9
$SURFTAB1
 70
     6
  9
$SURFTAB2
 70
     6
  9
$SURFTYPE
 70
     6
  9
$SURFU
 70
     6
  9
$SURFV
 70
     6
  9
$UCSNAME
  2

  9
$UCSORG
 10
0.0
 20
0.0
 30
0.0
  9
$UCSXDIR
 10
1.0
 20
0.0
 30
0.0
  9
$UCSYDIR
 10
0.0
 20
1.0
 30
0.0
  9
$PUCSNAME
  2

  9
$PUCSORG
 10
0.0
 20
0.0
 30
0.0
  9
$PUCSXDIR
 10
1.0
 20
0.0
 30
0.0
  9
$PUCSYDIR
 10
0.0
 20
1.0
 30
0.0
  9
$USERI1
 70
     0
  9
$USERI2
 70
     1
  9
$USERI3
 70
     0
  9
$USERI4
 70
     0
  9
$USERI5
 70
     0
  9
$USERR1
 40
0.0
  9
$USERR2
 40
0.0
  9
$USERR3
 40
0.0
  9
$USERR4
 40
0.0
  9
$USERR5
 40
0.0
  9
$WORLDVIEW
 70
     1
  9
$SHADEDGE
 70
     3
  9
$SHADEDIF
 70
    70
  9
$TILEMODE
 70
     1
  9
$MAXACTVP
 70
    16
  9
$PLIMCHECK
 70
     0
  9
$PEXTMIN
 10
1.0000000000000000E+020
 20
1.0000000000000000E+020
 30
1.0000000000000000E+020
  9
$PEXTMAX
 10
-1.0000000000000000E+020
 20
-1.0000000000000000E+020
 30
-1.0000000000000000E+020
  9
$PLIMMIN
 10
0.0
 20
0.0
  9
$PLIMMAX
 10
12.0
 20
9.0
  9
$UNITMODE
 70
     0
  9
$VISRETAIN
 70
     0
  9
$PLINEGEN
 70
     0
  9
$PSLTSCALE
 70
     0
  0
ENDSEC
  0
SECTION
  2
TABLES
  0
TABLE
  2
VPORT
 70
     1
  0
VPORT
  2
*ACTIVE
 70
     0
 10
0.0
 20
0.0
 11
1.0
 21
1.0
 12
187.49427839065231
 22
194.785247995265
 13
0.0
 23
0.0
 14
10.0
 24
10.0
 15
10.0
 25
10.0
 16
0.0
 26
0.0
 36
1.0
 17
0.0
 27
0.0
 37
0.0
 40
399.3463374158577
 41
1.7807262569832401
 42
50.0
 43
0.0
 44
0.0
 50
0.0
 51
0.0
 71
     0
 72
   500
 73
     1
 74
     0
 75
     0
 76
     0
 77
     0
 78
     2
  0
ENDTAB
  0
TABLE
  2
LTYPE
 70
     3
  0
LTYPE
  2
CONTINUOUS
 70
     0
  3
Solid Line
 72
    65
 73
     0
 40
0.0
  0
LTYPE
  2
CENTER
 70
     0
  3
____ _ ____ _ ____ _ ____ _ ____ _ ____ _ ____
 72
    65
 73
     4
 40
2.0
 49
1.25
 49
-0.25
 49
0.25
 49
-0.25
  0
LTYPE
  2
PHANTOM2
 70
     0
  3
___ _ _ ___ _ _ ___ _ _ ___ _ _
 72
    65
 73
     6
 40
1.25
 49
0.625
 49
-0.125
 49
0.125
 49
-0.125
 49
0.125
 49
-0.125
  0
ENDTAB
  0
TABLE
  2
LAYER
 70
     2
  0
LAYER
  2
0
 70
     0
 62
     7
  6
CONTINUOUS
  0
LAYER
  2
1
 70
     0
 62
     1
  6
CENTER
  0
ENDTAB
  0
TABLE
  2
STYLE
 70
     2
  0
STYLE
  2
STANDARD
 70
     0
 40
0.0
 41
1.0
 50
0.0
 71
     0
 42
4.000000000000048
  3
SIMPLEX
  4
BIGFONT
  0
STYLE
  2
STANDARD1
 70
     0
 40
0.0
 41
1.0
 50
0.0
 71
     0
 42
3.0
  3
txt
  4

  0
ENDTAB
  0
TABLE
  2
VIEW
 70
     1
  0
VIEW
  2
ALL
 70
     0
 40
270.0
 10
220.78595317725751
 20
135.0
 41
441.57190635451502
 11
0.0
 21
0.0
 31
1.0
 12
0.0
 22
0.0
 32
0.0
 42
50.0
 43
0.0
 44
0.0
 50
0.0
 71
     0
  0
ENDTAB
  0
TABLE
  2
UCS
 70
     0
  0
ENDTAB
  0
TABLE
  2
APPID
 70
     3
  0
APPID
  2
ACAD
 70
     0
  0
APPID
  2
ACAD_MLEADERVER
 70
     0
  0
APPID
  2
ACAD_NAV_VCDISPLAY
 70
     0
  0
ENDTAB
  0
TABLE
  2
DIMSTYLE
 70
     1
  0
DIMSTYLE
  2
STANDARD
 70
     0
  3

  4

  5

  6

  7

 40
1.0
 41
0.18
 42
0.0625
 43
0.38
 44
0.18
 45
0.0
 46
0.0
 47
0.0
 48
0.0
140
0.18
141
0.09
142
0.0
143
25.399999999999999
144
1.0
145
0.0
146
1.0
147
0.09
 71
     0
 72
     0
 73
     1
 74
     1
 75
     0
 76
     0
 77
     0
 78
     0
170
     0
171
     2
172
     0
173
     0
174
     0
175
     0
176
     0
177
     0
178
     0
  0
ENDTAB
  0
ENDSEC
  0
SECTION
  2
BLOCKS
  0
BLOCK
  8
0
  2
$MODEL_SPACE
 70
     0
 10
0.0
 20
0.0
 30
0.0
  3
$MODEL_SPACE
  1

  0
ENDBLK
  5
159
  8
0
  0
BLOCK
 67
     1
  8
0
  2
$PAPER_SPACE
 70
     0
 10
0.0
 20
0.0
 30
0.0
  3
$PAPER_SPACE
  1

  0
ENDBLK
  5
157
 67
     1
  8
0
  0
BLOCK
  8
0
  2
STDGX5
 70
     0
 10
0.0
 20
0.0
 30
0.0
  3
STDGX5
  1

  0
ENDBLK
  5
30
  8
0
  0
ENDSEC
  0
SECTION
  2
ENTITIES
  0
LINE
  5
3F
  8
0
 10
246.02752350851159
 20
173.5511736828764
 30
0.0
 11
296.02752350851159
 21
173.5511736828764
 31
0.0
  0
LINE
  5
40
  8
0
 10
296.02752350851159
 20
173.5511736828764
 30
0.0
 11
296.02752350851159
 21
93.665671682876408
 31
0.0
  0
LINE
  5
41
  8
0
 10
246.02752350851159
 20
93.665671682876408
 30
0.0
 11
296.02752350851159
 21
93.665671682876408
 31
0.0
  0
LINE
  5
42
  8
0
 10
246.02752350851159
 20
173.5511736828764
 30
0.0
 11
246.02752350851159
 21
93.665671682876408
 31
0.0
  0
LINE
  5
43
  8
0
 10
138.1161534098116
 20
192.5511736828764
 30
0.0
 11
218.0016554098116
 21
192.5511736828764
 31
0.0
  0
LINE
  5
44
  8
0
 10
218.0016554098116
 20
192.5511736828764
 30
0.0
 11
218.0016554098116
 21
242.5511736828764
 31
0.0
  0
LINE
  5
45
  8
0
 10
138.1161534098116
 20
242.5511736828764
 30
0.0
 11
218.0016554098116
 21
242.5511736828764
 31
0.0
  0
LINE
  5
46
  8
0
 10
138.1161534098116
 20
192.5511736828764
 30
0.0
 11
138.1161534098116
 21
242.5511736828764
 31
0.0
  0
CIRCLE
  5
47
  8
0
 10
158.1161534098116
 20
153.65650968287639
 30
0.0
 40
3.399999999999999
  0
CIRCLE
  5
48
  8
0
 10
180.54256040981161
 20
136.0829166828764
 30
0.0
 40
3.399999999999999
  0
CIRCLE
  5
49
  8
0
 10
198.1161534098116
 20
113.6565096828764
 30
0.0
 40
3.399999999999999
  0
ARC
  5
4A
  8
0
 10
142.1188955518096
 20
169.55102685742841
 30
0.0
 40
4.0000022929140009
 50
86.981010163670675
 51
181.0925123806295
  0
LINE
  5
4B
  8
0
 10
138.1196204098116
 20
169.4747596828764
 30
0.0
 11
138.11784840981159
 21
159.15676668287639
 31
0.0
  0
ARC
  5
4C
  8
0
 10
139.6178477474852
 20
159.15650904267591
 30
0.0
 40
1.4999993597996959
 50
179.99015886500521
 51
270.00002529901838
  0
LINE
  5
4D
  8
0
 10
139.61784840981159
 20
157.65650968287639
 30
0.0
 11
141.6161534098116
 21
157.65650968287639
 31
0.0
  0
ARC
  5
4E
  8
0
 10
141.61615415688669
 20
158.65650893580121
 30
0.0
 40
0.9999992529251022
 50
269.99995719571342
 51
0.0000428042865895
  0
LINE
  5
4F
  8
0
 10
142.6161534098116
 20
158.65650968287639
 30
0.0
 11
142.6161534098116
 21
162.5319206828764
 31
0.0
  0
ARC
  5
50
  8
0
 10
143.74074084197909
 20
162.5319225095345
 30
0.0
 40
1.1245874321689711
 50
53.431434701189893
 51
180.00009306506209
  0
ARC
  5
51
  8
0
 10
129.5162737539481
 20
143.35663172422949
 30
0.0
 40
24.999830690394049
 50
36.641867861833433
 51
53.431516537496627
  0
ARC
  5
52
  8
0
 10
146.36615498609069
 20
155.88956664352159
 30
0.0
 40
3.9999984237209878
 50
359.9999862397645
 51
36.641931045945597
  0
LINE
  5
53
  8
0
 10
150.3661534098116
 20
155.88956568287639
 30
0.0
 11
150.3661534098116
 21
151.42345268287639
 31
0.0
  0
ARC
  5
54
  8
0
 10
146.36615649609681
 20
151.42345222223111
 30
0.0
 40
3.9999969137148499
 50
323.35806179208151
 51
0.0000065982627177
  0
ARC
  5
55
  8
0
 10
129.5162737539481
 20
163.95638764152329
 30
0.0
 40
24.999830690394049
 50
306.56848346250342
 51
323.35813213816658
  0
ARC
  5
56
  8
0
 10
143.74074084197909
 20
144.78109685621831
 30
0.0
 40
1.1245874321689739
 50
179.9999069349378
 51
306.5685652988102
  0
LINE
  5
57
  8
0
 10
142.6161534098116
 20
144.7810986828764
 30
0.0
 11
142.6161534098116
 21
148.65650968287639
 31
0.0
  0
ARC
  5
58
  8
0
 10
141.61615415688669
 20
148.65651042995151
 30
0.0
 40
0.9999992529251022
 50
359.99995719571342
 51
90.000042804286593
  0
LINE
  5
59
  8
0
 10
141.6161534098116
 20
149.65650968287639
 30
0.0
 11
139.61595940981169
 21
149.65650968287639
 31
0.0
  0
ARC
  5
5A
  8
0
 10
139.61596037417289
 20
148.15650869632969
 30
0.0
 40
1.5000009865469759
 50
90.00003683586371
 51
179.99014564623559
  0
LINE
  5
5B
  8
0
 10
138.11595940981169
 20
148.15676668287639
 30
0.0
 11
138.11411245499841
 21
137.39966673598491
 31
0.0
  0
ARC
  5
5C
  8
0
 10
142.11341044306459
 20
137.4745635467853
 30
0.0
 40
3.9999992412021879
 50
178.9074443571179
 51
264.7876910558216
  0
ARC
  5
5D
  8
0
 10
138.1161637755724
 20
93.656529583944135
 30
0.0
 40
39.999978955263828
 50
44.999989329247029
 51
84.787689062789553
  0
ARC
  5
5E
  8
0
 10
138.1161743108795
 20
93.656519048637335
 30
0.0
 40
39.999978955263629
 50
5.2123109372102521
 51
45.000010670752907
  0
ARC
  5
5F
  8
0
 10
181.9342082737206
 20
97.653765716129342
 30
0.0
 40
3.99999924120223
 50
185.21230894417741
 51
271.09255564288122
  0
LINE
  5
60
  8
0
 10
181.85931221708159
 20
93.654467713939667
 30
0.0
 11
192.6164114098116
 21
93.656315682876411
 31
0.0
  0
ARC
  5
61
  8
0
 10
192.61615292326491
 20
95.156316147151387
 30
0.0
 40
1.5000004865467189
 50
270.0098734556363
 51
359.99998226600849
  0
LINE
  5
62
  8
0
 10
194.1161534098116
 20
95.156315682876411
 30
0.0
 11
194.1161534098116
 21
97.156509682876404
 31
0.0
  0
ARC
  5
63
  8
0
 10
193.11615415688681
 20
97.156510429951581
 30
0.0
 40
0.9999992529251022
 50
359.99995719571342
 51
90.000042804286593
  0
LINE
  5
64
  8
0
 10
193.1161534098116
 20
98.156509682876404
 30
0.0
 11
189.2407424098117
 21
98.156509682876404
 31
0.0
  0
ARC
  5
65
  8
0
 10
189.24074033150839
 20
99.281096615043865
 30
0.0
 40
1.12458693216938
 50
143.431447522122
 51
270.00010588599531
  0
ARC
  5
66
  8
0
 10
208.41603475656979
 20
85.056629527013087
 30
0.0
 40
24.999833113648119
 50
126.6418734084514
 51
143.43152208411459
  0
ARC
  5
67
  8
0
 10
195.88309644916629
 20
101.90651125915539
 30
0.0
 40
3.9999984237210611
 50
89.999986239764127
 51
126.6419310459453
  0
LINE
  5
68
  8
0
 10
195.88309740981171
 20
105.9065096828764
 30
0.0
 11
200.34921040981169
 21
105.9065096828764
 31
0.0
  0
ARC
  5
69
  8
0
 10
200.349211370457
 20
101.90651125915549
 30
0.0
 40
3.9999984237209829
 50
53.358068954054268
 51
90.000013760235447
  0
ARC
  5
6A
  8
0
 10
187.8162730630535
 20
85.056629527013285
 30
0.0
 40
24.999833113647981
 50
36.568477915885047
 51
53.358126591548242
  0
ARC
  5
6B
  8
0
 10
206.9915674881149
 20
99.281096615043865
 30
0.0
 40
1.124586932169374
 50
269.99989411400611
 51
36.5685524778794
  0
LINE
  5
6C
  8
0
 10
206.99156540981161
 20
98.156509682876404
 30
0.0
 11
203.11615340981169
 21
98.156509682876404
 31
0.0
  0
ARC
  5
6D
  8
0
 10
203.11615266273651
 20
97.156510429951581
 30
0.0
 40
0.9999992529251022
 50
89.999957195713407
 51
180.00004280428661
  0
LINE
  5
6E
  8
0
 10
202.11615340981169
 20
97.156509682876404
 30
0.0
 11
202.11615340981169
 21
95.158203682876405
 31
0.0
  0
ARC
  5
6F
  8
0
 10
203.6161532696112
 20
95.158203520463815
 30
0.0
 40
1.4999998597995241
 50
179.99999379629489
 51
270.00986023030742
  0
LINE
  5
70
  8
0
 10
203.6164114098116
 20
93.658203682876405
 30
0.0
 11
213.93440340981161
 21
93.659975682876407
 31
0.0
  0
ARC
  5
71
  8
0
 10
214.01067058436371
 20
97.659250824874377
 30
0.0
 40
4.0000022929139734
 50
268.90748761936959
 51
3.0189898363285219
  0
ARC
  5
72
  8
0
 10
138.1160890555108
 20
93.656480804170499
 30
0.0
 40
80.000065932874307
 50
3.0190469688489832
 51
44.999981527755239
  0
ARC
  5
73
  8
0
 10
138.1161242279131
 20
93.656444828575573
 30
0.0
 40
80.000066500816857
 50
45.000017559058257
 51
86.980952117964534
  0
ARC
  5
74
  8
0
 10
153.3140192193967
 20
159.92942787613421
 30
0.0
 40
0.999999959113569
 50
214.85351039155049
 51
307.43530368207638
  0
ARC
  5
75
  8
0
 10
158.11615370604051
 20
153.65650819471239
 30
0.0
 40
6.9000011141384832
 50
61.54750028188429
 51
127.43528939317341
  0
ARC
  5
76
  8
0
 10
161.87995124263759
 20
160.60228759671469
 30
0.0
 40
1.0000003667332309
 50
241.54752419585671
 51
315.00001026369762
  0
LINE
  5
77
  8
0
 10
162.58705840981159
 20
159.8951806828764
 30
0.0
 11
166.44435340981161
 21
163.75247668287639
 31
0.0
  0
ARC
  5
78
  8
0
 10
165.73724667024399
 20
164.45958345323609
 30
0.0
 40
0.9999999629152585
 50
314.99999875248119
 51
68.688652063472162
  0
ARC
  5
79
  8
0
 10
138.1162128642066
 20
93.656771741745686
 30
0.0
 40
76.99973453328748
 50
68.688641647198793
 51
86.980455345117477
  0
ARC
  5
7A
  8
0
 10
142.1196202007348
 20
169.55099030026031
 30
0.0
 40
0.9999997909232664
 50
86.980420012669967
 51
179.99997807770811
  0
LINE
  5
7B
  8
0
 10
141.1196204098116
 20
169.5509906828764
 30
0.0
 11
141.1196204098116
 21
167.65650968287639
 31
0.0
  0
ARC
  5
7C
  8
0
 10
142.1196196627364
 20
167.65650893580121
 30
0.0
 40
0.9999992529251022
 50
179.99995719571339
 51
270.00004280428658
  0
LINE
  5
7D
  8
0
 10
142.1196204098116
 20
166.65650968287639
 30
0.0
 11
143.74076940981161
 21
166.65650968287639
 31
0.0
  0
ARC
  5
7E
  8
0
 10
143.74076807699899
 20
162.5320072979095
 30
0.0
 40
4.1245023849671041
 50
53.431530696145472
 51
89.999981485150656
  0
ARC
  5
7F
  8
0
 10
129.51614976405199
 20
143.35650202855479
 30
0.0
 40
28.00000800231631
 50
34.853497962751639
 51
53.431534863742201
  0
ARC
  5
80
  8
0
 10
142.11962002387239
 20
137.4739973195218
 30
0.0
 40
0.9999996140608478
 50
179.99997918130759
 51
264.77957164060592
  0
LINE
  5
81
  8
0
 10
141.1196204098116
 20
137.47399768287639
 30
0.0
 11
141.1196204098116
 21
139.65650968287639
 31
0.0
  0
ARC
  5
82
  8
0
 10
142.1196196627364
 20
139.65651042995151
 30
0.0
 40
0.9999992529251022
 50
89.999957195713407
 51
180.00004280428661
  0
LINE
  5
83
  8
0
 10
142.1196204098116
 20
140.65650968287639
 30
0.0
 11
143.74076940981161
 21
140.65650968287639
 31
0.0
  0
ARC
  5
84
  8
0
 10
143.74076959025669
 20
144.78101156784331
 30
0.0
 40
4.1245018849669206
 50
269.99999749333602
 51
306.56844828234108
  0
ARC
  5
85
  8
0
 10
129.5161467070601
 20
163.95651683719791
 30
0.0
 40
28.000010225192721
 50
306.56846955072791
 51
325.14650645171838
  0
ARC
  5
86
  8
0
 10
153.3140192193967
 20
147.38359148961851
 30
0.0
 40
0.9999999591135619
 50
52.564696317922269
 51
145.14648960844721
  0
ARC
  5
87
  8
0
 10
158.11615447762611
 20
153.65651067104039
 30
0.0
 40
6.9000011861382182
 50
232.56470299560181
 51
298.45249210689099
  0
ARC
  5
88
  8
0
 10
161.8799519127983
 20
146.71073126903809
 30
0.0
 40
1.0000002464116919
 50
45.000037144453692
 51
118.4525232122936
  0
LINE
  5
89
  8
0
 10
162.58705840981159
 20
147.41783868287641
 30
0.0
 11
173.35083740981159
 21
136.65405868287641
 31
0.0
  0
ARC
  5
8A
  8
0
 10
172.64373053967671
 20
135.94695201227941
 30
0.0
 40
0.999999984697299
 50
0.9861474909673308
 51
44.999991915874332
  0
ARC
  5
8B
  8
0
 10
180.54254222086479
 20
136.08291201347191
 30
0.0
 40
6.8999817302688937
 50
180.9861144046728
 51
208.45254563637189
  0
ARC
  5
8C
  8
0
 10
173.59678316613389
 20
132.3191193500503
 30
0.0
 40
0.9999995393047971
 50
314.9999828423654
 51
28.452468910205479
  0
LINE
  5
8D
  8
0
 10
174.3038894098116
 20
131.61201268287641
 30
0.0
 11
168.3042634098116
 21
125.61238568287639
 31
0.0
  0
ARC
  5
8E
  8
0
 10
167.5971568278016
 20
126.3194922786508
 30
0.0
 40
0.999999728054769
 50
227.9311136968316
 51
314.99999944234321
  0
ARC
  5
8F
  8
0
 10
138.11612088968121
 20
93.65643465040408
 30
0.0
 40
43.000077699275323
 50
47.9312112497634
 51
84.779524093342147
  0
LINE
  5
90
  8
0
 10
165.8661534098116
 20
150.9565096828764
 30
0.0
 11
165.8661534098116
 21
156.35650968287641
 31
0.0
  0
ARC
  5
91
  8
0
 10
165.56615363393419
 20
156.35650990699901
 30
0.0
 40
0.2999997758774937
 50
359.99995719570961
 51
90.000042804284959
  0
LINE
  5
92
  8
0
 10
165.56615340981159
 20
156.65650968287639
 30
0.0
 11
165.29813440981161
 21
156.65650968287639
 31
0.0
  0
ARC
  5
93
  8
0
 10
165.2981338450798
 20
157.6565096302277
 30
0.0
 40
0.9999999473515291
 50
134.9999749873019
 51
270.0000323567524
  0
LINE
  5
94
  8
0
 10
164.5910274098116
 20
158.3636166828764
 30
0.0
 11
169.4887324098116
 21
163.2613216828764
 31
0.0
  0
ARC
  5
95
  8
0
 10
170.19583925094921
 20
162.5542148921638
 30
0.0
 40
1.0000000491277139
 50
65.032687638860139
 51
135.0000020429313
  0
ARC
  5
96
  8
0
 10
138.1157543088635
 20
93.655775129550094
 30
0.0
 40
77.00083459463724
 50
58.086632697030801
 51
65.032649732836205
  0
ARC
  5
97
  8
0
 10
178.29256135141949
 20
158.16896120861909
 30
0.0
 40
0.9999990583922578
 50
359.99996987713348
 51
58.086621370913917
  0
LINE
  5
98
  8
0
 10
179.29256040981161
 20
158.16896068287639
 30
0.0
 11
179.29256040981161
 21
143.6557296828764
 31
0.0
  0
ARC
  5
99
  8
0
 10
178.29256014250959
 20
143.65572987127271
 30
0.0
 40
1.0000002673020161
 50
286.54750313784848
 51
359.9999892056893
  0
ARC
  5
9A
  8
0
 10
180.54255350673779
 20
136.08292707790531
 30
0.0
 40
6.8999878520755571
 50
106.5474705468114
 51
143.60097494970429
  0
ARC
  5
9B
  8
0
 10
174.18382312256139
 20
140.77082067144059
 30
0.0
 40
0.9999993911394055
 50
224.9999706601601
 51
323.6009635968984
  0
LINE
  5
9C
  8
0
 10
173.47671640981159
 20
140.06371468287639
 30
0.0
 11
164.5910274098116
 21
148.94940268287641
 31
0.0
  0
ARC
  5
9D
  8
0
 10
165.2981338450798
 20
149.65650973552499
 30
0.0
 40
0.999999947351532
 50
89.999967643247615
 51
225.00002501269691
  0
LINE
  5
9E
  8
0
 10
165.29813440981161
 20
150.65650968287639
 30
0.0
 11
165.56615340981159
 21
150.65650968287639
 31
0.0
  0
ARC
  5
9F
  8
0
 10
165.56615363393411
 20
150.9565094587538
 30
0.0
 40
0.2999997758775221
 50
269.99995719572053
 51
0.0000428042903892
  0
ARC
  5
A0
  8
0
 10
138.11659513384629
 20
93.657031453842777
 30
0.0
 40
76.999318454050155
 50
45.024488679682648
 51
53.99563148683859
  0
ARC
  5
A1
  8
0
 10
182.7925609035299
 20
155.1383653120285
 30
0.0
 40
1.000000493718306
 50
53.995611512924491
 51
179.99997875199179
  0
LINE
  5
A2
  8
0
 10
181.79256040981161
 20
155.13836568287641
 30
0.0
 11
181.79256040981161
 21
143.6557296828764
 31
0.0
  0
ARC
  5
A3
  8
0
 10
182.79256067711361
 20
143.6557298712728
 30
0.0
 40
1.0000002673020449
 50
180.00001079431399
 51
253.45249686215399
  0
ARC
  5
A4
  8
0
 10
180.54255258328951
 20
136.0829074336437
 30
0.0
 40
6.9000108778885476
 50
16.547553657620909
 51
73.452458666596797
  0
ARC
  5
A5
  8
0
 10
188.11537459820789
 20
138.3329169501784
 30
0.0
 40
1.000000267302019
 50
196.54750313784851
 51
269.99998920568919
  0
LINE
  5
A6
  8
0
 10
188.11537440981161
 20
137.3329166828764
 30
0.0
 11
199.59801040981159
 21
137.3329166828764
 31
0.0
  0
ARC
  5
A7
  8
0
 10
199.5980102937024
 20
138.33291667659461
 30
0.0
 40
0.9999999937182689
 50
270.00000665256829
 51
36.004373891633747
  0
ARC
  5
A8
  8
0
 10
138.11607192793011
 20
93.656434472671648
 30
0.0
 40
77.00011056817749
 50
36.004414772561937
 51
45.024527245216923
  0
LINE
  5
A9
  8
0
 10
181.93364240981171
 20
96.659975682876407
 30
0.0
 11
184.1161534098116
 21
96.659975682876407
 31
0.0
  0
ARC
  5
AA
  8
0
 10
184.11615415688669
 20
97.65997493580123
 30
0.0
 40
0.9999992529251022
 50
269.99995719571342
 51
0.0000428042865895
  0
LINE
  5
AB
  8
0
 10
185.1161534098116
 20
97.659975682876407
 30
0.0
 11
185.1161534098116
 21
99.281125682876407
 31
0.0
  0
ARC
  5
AC
  8
0
 10
189.24065579477849
 20
99.281124350063564
 30
0.0
 40
4.12450238496716
 50
143.43153069614311
 51
179.99998148514811
  0
ARC
  5
AD
  8
0
 10
208.41615800714169
 20
85.056505537117104
 30
0.0
 40
28.000005844998601
 50
124.8534934141309
 51
143.43153031512139
  0
ARC
  5
AE
  8
0
 10
191.84323571655381
 20
108.8543749704239
 30
0.0
 40
1.0000000655971231
 50
304.85347123252438
 51
37.43526452304949
  0
ARC
  5
AF
  8
0
 10
198.11615539797569
 20
113.6565097506907
 30
0.0
 40
6.9000011861382449
 50
151.54750789310859
 51
217.43529700439771
  0
ARC
  5
B0
  8
0
 10
191.1703754959733
 20
117.42030651570241
 30
0.0
 40
1.000000366733288
 50
331.54752419585759
 51
45.000010263698073
  0
LINE
  5
B1
  8
0
 10
191.87748240981159
 20
118.12741368287639
 30
0.0
 11
181.11370340981159
 21
128.89119368287641
 31
0.0
  0
ARC
  5
B2
  8
0
 10
180.40659673921471
 20
128.1840868127415
 30
0.0
 40
0.9999999846973391
 50
45.00000808412797
 51
89.013852509034322
  0
ARC
  5
B3
  8
0
 10
180.54255469448009
 20
136.08289799392949
 30
0.0
 40
6.8999811951325389
 50
241.5474712785423
 51
269.01390251024139
  0
ARC
  5
B4
  8
0
 10
176.77876290682491
 20
129.13713826903799
 30
0.0
 40
1.0000002464117941
 50
61.547476787705889
 51
134.99996285554511
  0
LINE
  5
B5
  8
0
 10
176.0716564098116
 20
129.84424568287639
 30
0.0
 11
170.07203040981159
 21
123.8446186828764
 31
0.0
  0
ARC
  5
B6
  8
0
 10
170.77913597932999
 20
123.1375120746103
 30
0.0
 40
0.9999990209482694
 50
134.99995791589009
 51
222.06884366140119
  0
ARC
  5
B7
  8
0
 10
138.11607687639699
 20
93.656476662746016
 30
0.0
 40
43.000079148497392
 50
5.2204750612209381
 51
42.06878790479967
  0
ARC
  5
B8
  8
0
 10
181.9336415464571
 20
97.659975844702927
 30
0.0
 40
1.000000161826873
 50
185.220457007269
 51
270.0000494665677
  0
ARC
  5
B9
  8
0
 10
195.41615318568901
 20
121.10650990699889
 30
0.0
 40
0.2999997758775221
 50
89.999957195709612
 51
180.0000428042849
  0
LINE
  5
BA
  8
0
 10
195.1161534098116
 20
121.10650968287641
 30
0.0
 11
195.1161534098116
 21
120.8384896828764
 31
0.0
  0
ARC
  5
BB
  8
0
 10
194.1161541695667
 20
120.838489411038
 30
0.0
 40
0.9999992402448839
 50
224.99995820574929
 51
0.0000155752009325
  0
LINE
  5
BC
  8
0
 10
193.40904740981159
 20
120.1313836828764
 30
0.0
 11
184.52335840981149
 21
129.01707168287641
 31
0.0
  0
ARC
  5
BD
  8
0
 10
185.2304643983758
 20
129.7241783956261
 30
0.0
 40
0.9999993911394058
 50
126.3990364030979
 51
225.0000293398364
  0
ARC
  5
BE
  8
0
 10
180.5425698128135
 20
136.08291077182949
 30
0.0
 40
6.899990044139769
 50
306.39902186503861
 51
343.45252626793149
  0
ARC
  5
BF
  8
0
 10
188.11537459820789
 20
133.8329164155744
 30
0.0
 40
1.000000267302027
 50
90.000010794310754
 51
163.4524968621499
  0
LINE
  5
C0
  8
0
 10
188.11537440981161
 20
134.8329166828764
 30
0.0
 11
202.6286044098116
 21
134.8329166828764
 31
0.0
  0
ARC
  5
C1
  8
0
 10
202.62860493555431
 20
133.8329176244842
 30
0.0
 40
0.9999990583923153
 50
31.91337862908798
 51
90.000030122868154
  0
ARC
  5
C2
  8
0
 10
138.11541885648529
 20
93.65611058192826
 30
0.0
 40
77.00083459463724
 50
24.96735026716069
 51
31.913367302969199
  0
ARC
  5
C3
  8
0
 10
207.01385861909901
 20
125.73619552401399
 30
0.0
 40
1.0000000491277361
 50
314.9999979570652
 51
24.967312361132421
  0
LINE
  5
C4
  8
0
 10
207.72096540981161
 20
125.02908868287641
 30
0.0
 11
202.82326040981161
 21
120.1313836828764
 31
0.0
  0
ARC
  5
C5
  8
0
 10
202.1161531500565
 20
120.83848961814449
 30
0.0
 40
0.9999997402448727
 50
179.99999629113799
 51
315.00005366058878
  0
LINE
  5
C6
  8
0
 10
201.11615340981169
 20
120.8384896828764
 30
0.0
 11
201.11615340981169
 21
121.10650968287641
 31
0.0
  0
ARC
  5
C7
  8
0
 10
200.81615363393419
 20
121.10650990699889
 30
0.0
 40
0.2999997758775506
 50
359.99995719572053
 51
90.000042804295845
  0
LINE
  5
C8
  8
0
 10
200.81615340981159
 20
121.4065096828764
 30
0.0
 11
195.41615340981161
 21
121.4065096828764
 31
0.0
  0
ARC
  5
C9
  8
0
 10
204.38907210306951
 20
108.8543749704239
 30
0.0
 40
1.0000000655971231
 50
142.56473547695049
 51
235.1465287674757
  0
ARC
  5
CA
  8
0
 10
198.1161524216476
 20
113.6565097506907
 30
0.0
 40
6.9000011861382449
 50
322.5647029956022
 51
28.452492106891381
  0
ARC
  5
CB
  8
0
 10
205.06193232365001
 20
117.42030651570241
 30
0.0
 40
1.0000003667332991
 50
134.9999897362996
 51
208.45247580414031
  0
LINE
  5
CC
  8
0
 10
204.3548254098117
 20
118.12741368287639
 30
0.0
 11
208.2121204098116
 21
121.9847096828764
 31
0.0
  0
ARC
  5
CD
  8
0
 10
208.91922685353271
 20
121.27760244330879
 30
0.0
 40
1.0000000855004381
 50
21.311314445900731
 51
134.99996775689169
  0
ARC
  5
CE
  8
0
 10
138.11641596868071
 20
93.656565031602867
 30
0.0
 40
76.999735196189619
 50
3.0195469430147202
 51
21.311360640933302
  0
ARC
  5
CF
  8
0
 10
214.0106350271956
 20
97.659975473799548
 30
0.0
 40
0.9999997909232089
 50
270.00002192229027
 51
3.0195799873294149
  0
LINE
  5
D0
  8
0
 10
214.0106354098117
 20
96.659975682876407
 30
0.0
 11
212.11615340981169
 21
96.659975682876407
 31
0.0
  0
ARC
  5
D1
  8
0
 10
212.11615266273651
 20
97.65997493580123
 30
0.0
 40
0.9999992529251022
 50
179.99995719571339
 51
270.00004280428658
  0
LINE
  5
D2
  8
0
 10
211.1161534098116
 20
97.659975682876407
 30
0.0
 11
211.1161534098116
 21
99.281125682876407
 31
0.0
  0
ARC
  5
D3
  8
0
 10
206.99165152484471
 20
99.281125863321492
 30
0.0
 40
4.1245018849668931
 50
359.99999749333563
 51
36.568448282340661
  0
ARC
  5
D4
  8
0
 10
187.81614981248171
 20
85.056505537116934
 30
0.0
 40
28.000005844998721
 50
36.568469684878792
 51
55.146506585869368
  0
LINE
  5
D5
  8
0
 10
54.48968724805718
 20
173.5511736828764
 30
0.0
 11
54.48968724805718
 21
93.665671682876408
 31
0.0
  0
LINE
  5
D6
  8
0
 10
54.48968724805718
 20
93.665671682876408
 30
0.0
 11
104.48968724805719
 21
93.665671682876408
 31
0.0
  0
LINE
  5
D7
  8
0
 10
104.48968724805719
 20
173.5511736828764
 30
0.0
 11
104.48968724805719
 21
93.665671682876408
 31
0.0
  0
LINE
  5
D8
  8
0
 10
54.48968724805718
 20
173.5511736828764
 30
0.0
 11
104.48968724805719
 21
173.5511736828764
 31
0.0
  0
LINE
  5
D9
  8
0
 10
54.48968724805718
 20
149.66220568287639
 30
0.0
 11
104.48968724805719
 21
149.66220568287639
 31
0.0
  0
LINE
  5
DA
  8
0
 10
54.48968724805718
 20
157.66220568287639
 30
0.0
 11
104.48968724805719
 21
157.66220568287639
 31
0.0
  0
LINE
  5
DB
  8
0
 10
138.1161534098116
 20
24.086453537337121
 30
0.0
 11
138.1161534098116
 21
74.086453537337121
 31
0.0
  0
LINE
  5
DC
  8
0
 10
138.1161534098116
 20
74.086453537337121
 30
0.0
 11
218.0016554098116
 21
74.086453537337121
 31
0.0
  0
LINE
  5
DD
  8
0
 10
218.0016554098116
 20
24.086453537337121
 30
0.0
 11
218.0016554098116
 21
74.086453537337121
 31
0.0
  0
LINE
  5
DE
  8
0
 10
138.1161534098116
 20
24.086453537337121
 30
0.0
 11
218.0016554098116
 21
24.086453537337121
 31
0.0
  0
LINE
  5
DF
  8
0
 10
194.1126874098116
 20
24.086453537337121
 30
0.0
 11
194.1126874098116
 21
74.086453537337121
 31
0.0
  0
LINE
  5
E0
  8
0
 10
202.11268740981171
 20
24.086453537337121
 30
0.0
 11
202.11268740981171
 21
74.086453537337121
 31
0.0
  0
LINE
  5
E1
  8
0
 10
178.11615317539739
 20
74.086453537337121
 30
0.0
 11
178.1161531753975
 21
24.086453537337121
 31
0.0
  0
LINE
  5
E2
  8
0
 10
104.48968724805719
 20
133.65650844848699
 30
0.0
 11
54.48968724805718
 21
133.65650844848699
 31
0.0
  0
LINE
  5
E3
  8
1
 10
198.2202303157444
 20
153.76058558880911
 30
0.0
 11
162.86489150387891
 21
118.4052467769436
 31
0.0
  0
LINE
  5
E4
  8
1
 10
133.11690391011319
 20
153.65682159916761
 30
0.0
 11
166.51615340951
 21
153.6564547665852
 31
0.0
  0
LINE
  5
E5
  8
1
 10
198.115295228006
 20
122.0565096092288
 30
0.0
 11
198.1210277536882
 21
88.657260401561288
 31
0.0
  0
LINE
  5
E6
  8
1
 10
158.1161534098116
 20
162.0565096828764
 30
0.0
 11
158.1161534098116
 21
145.25650968287641
 31
0.0
  0
LINE
  5
E7
  8
1
 10
206.51615340981161
 20
113.6565096828764
 30
0.0
 11
189.7161534098116
 21
113.6565096828764
 31
0.0
  0
ARC
  5
E8
  8
1
 10
138.1161743108795
 20
93.656519048637335
 30
0.0
 40
59.999978780281438
 50
36.97203050911456
 51
53.02798506902856
  0
LINE
  5
E9
  8
1
 10
180.54256040981161
 20
79.086453537337121
 30
0.0
 11
180.54256040981161
 21
19.086453537337121
 31
0.0
  0
LINE
  5
EA
  8
1
 10
180.54256040981161
 20
187.5511736828764
 30
0.0
 11
180.54256040981161
 21
247.5511736828764
 31
0.0
  0
LINE
  5
EB
  8
1
 10
241.02752350851171
 20
136.08291077182949
 30
0.0
 11
301.02752350851171
 21
136.08291077182949
 31
0.0
  0
LINE
  5
EC
  8
1
 10
109.48968724805719
 20
136.08291077182949
 30
0.0
 11
49.48968724805718
 21
136.08291077182949
 31
0.0
  0
INSERT
  5
ED
  8
0
  2
STDGX5
 10
0.0
 20
0.0
 30
0.0
  0
TEXT
  5
2A0
  8
0
 62
     3
 10
0.0
 20
0.0
 30
0.0
 40
10.0
  1
RPH48D90N
  7
STANDARD1
  0
ENDSEC
  0
EOF
