  0
SECTION
  2
HEADER
  9
$ACADVER
  1
AC1009
  9
$INSBASE
 10
0.0
 20
0.0
 30
0.0
  9
$EXTMIN
 10
0.0
 20
-2.960436562073669
 30
0.0
  9
$EXTMAX
 10
282.31598724591612
 20
236.16181337218779
 30
0.0
  9
$LIMMIN
 10
0.0
 20
0.0
  9
$LIMMAX
 10
375.0
 20
270.0
  9
$ORTHOMODE
 70
     1
  9
$REGENMODE
 70
     1
  9
$FILLMODE
 70
     1
  9
$QTEXTMODE
 70
     0
  9
$MIRRTEXT
 70
     0
  9
$DRAGMODE
 70
     2
  9
$LTSCALE
 40
5.0
  9
$OSMODE
 70
    55
  9
$ATTMODE
 70
     1
  9
$TEXTSIZE
 40
4.000000000000048
  9
$TRACEWID
 40
0.05
  9
$TEXTSTYLE
  7
STANDARD
  9
$CLAYER
  8
0
  9
$CELTYPE
  6
BYLAYER
  9
$CECOLOR
 62
   256
  9
$DIMSCALE
 40
1.0
  9
$DIMASZ
 40
3.0
  9
$DIMEXO
 40
2.0
  9
$DIMDLI
 40
0.38
  9
$DIMRND
 40
0.0
  9
$DIMDLE
 40
0.0
  9
$DIMEXE
 40
2.0
  9
$DIMTP
 40
0.0
  9
$DIMTM
 40
0.0
  9
$DIMTXT
 40
3.2000000000000002
  9
$DIMCEN
 40
0.0
  9
$DIMTSZ
 40
0.0
  9
$DIMTOL
 70
     0
  9
$DIMLIM
 70
     0
  9
$DIMTIH
 70
     0
  9
$DIMTOH
 70
     0
  9
$DIMSE1
 70
     0
  9
$DIMSE2
 70
     0
  9
$DIMTAD
 70
     1
  9
$DIMZIN
 70
     0
  9
$DIMBLK
  1

  9
$DIMASO
 70
     0
  9
$DIMSHO
 70
     0
  9
$DIMPOST
  1

  9
$DIMAPOST
  1

  9
$DIMALT
 70
     0
  9
$DIMALTD
 70
     2
  9
$DIMALTF
 40
25.399999999999999
  9
$DIMLFAC
 40
1.0
  9
$DIMTOFL
 70
     0
  9
$DIMTVP
 40
1.6000000000000001
  9
$DIMTIX
 70
     1
  9
$DIMSOXD
 70
     0
  9
$DIMSAH
 70
     0
  9
$DIMBLK1
  1

  9
$DIMBLK2
  1

  9
$DIMSTYLE
  2
STANDARD
  9
$DIMCLRD
 70
     4
  9
$DIMCLRE
 70
     4
  9
$DIMCLRT
 70
     4
  9
$DIMTFAC
 40
1.0
  9
$DIMGAP
 40
0.09
  9
$LUNITS
 70
     2
  9
$LUPREC
 70
     1
  9
$SKETCHINC
 40
0.1
  9
$FILLETRAD
 40
0.0
  9
$AUNITS
 70
     0
  9
$AUPREC
 70
     0
  9
$MENU
  1
E:\r13\win\SUPPORT\ACAD
  9
$ELEVATION
 40
0.0
  9
$PELEVATION
 40
0.0
  9
$THICKNESS
 40
0.0
  9
$LIMCHECK
 70
     0
  9
$BLIPMODE
 70
     0
  9
$CHAMFERA
 40
1.1999999999999991
  9
$CHAMFERB
 40
1.1999999999999991
  9
$SKPOLY
 70
     0
  9
$TDCREATE
 40
2450759.6910987268
  9
$TDUPDATE
 40
2456598.6027676738
  9
$TDINDWG
 40
0.0006439583
  9
$TDUSRTIMER
 40
0.0006439583
  9
$USRTIMER
 70
     1
  9
$ANGBASE
 50
0.0
  9
$ANGDIR
 70
     0
  9
$PDMODE
 70
     0
  9
$PDSIZE
 40
0.0
  9
$PLINEWID
 40
0.0
  9
$COORDS
 70
     1
  9
$SPLFRAME
 70
     0
  9
$SPLINETYPE
 70
     6
  9
$SPLINESEGS
 70
     8
  9
$ATTDIA
 70
     0
  9
$ATTREQ
 70
     1
  9
$HANDLING
 70
     1
  9
$HANDSEED
  5
26B
  9
$SURFTAB1
 70
     6
  9
$SURFTAB2
 70
     6
  9
$SURFTYPE
 70
     6
  9
$SURFU
 70
     6
  9
$SURFV
 70
     6
  9
$UCSNAME
  2

  9
$UCSORG
 10
0.0
 20
0.0
 30
0.0
  9
$UCSXDIR
 10
1.0
 20
0.0
 30
0.0
  9
$UCSYDIR
 10
0.0
 20
1.0
 30
0.0
  9
$PUCSNAME
  2

  9
$PUCSORG
 10
0.0
 20
0.0
 30
0.0
  9
$PUCSXDIR
 10
1.0
 20
0.0
 30
0.0
  9
$PUCSYDIR
 10
0.0
 20
1.0
 30
0.0
  9
$USERI1
 70
     0
  9
$USERI2
 70
     1
  9
$USERI3
 70
     0
  9
$USERI4
 70
     0
  9
$USERI5
 70
     0
  9
$USERR1
 40
0.0
  9
$USERR2
 40
0.0
  9
$USERR3
 40
0.0
  9
$USERR4
 40
0.0
  9
$USERR5
 40
0.0
  9
$WORLDVIEW
 70
     1
  9
$SHADEDGE
 70
     3
  9
$SHADEDIF
 70
    70
  9
$TILEMODE
 70
     1
  9
$MAXACTVP
 70
    16
  9
$PLIMCHECK
 70
     0
  9
$PEXTMIN
 10
1.0000000000000000E+020
 20
1.0000000000000000E+020
 30
1.0000000000000000E+020
  9
$PEXTMAX
 10
-1.0000000000000000E+020
 20
-1.0000000000000000E+020
 30
-1.0000000000000000E+020
  9
$PLIMMIN
 10
0.0
 20
0.0
  9
$PLIMMAX
 10
12.0
 20
9.0
  9
$UNITMODE
 70
     0
  9
$VISRETAIN
 70
     0
  9
$PLINEGEN
 70
     0
  9
$PSLTSCALE
 70
     0
  0
ENDSEC
  0
SECTION
  2
TABLES
  0
TABLE
  2
VPORT
 70
     1
  0
VPORT
  2
*ACTIVE
 70
     0
 10
0.0
 20
0.0
 11
1.0
 21
1.0
 12
187.49427839065231
 22
194.785247995265
 13
0.0
 23
0.0
 14
10.0
 24
10.0
 15
10.0
 25
10.0
 16
0.0
 26
0.0
 36
1.0
 17
0.0
 27
0.0
 37
0.0
 40
399.3463374158577
 41
1.7807262569832401
 42
50.0
 43
0.0
 44
0.0
 50
0.0
 51
0.0
 71
     0
 72
   500
 73
     1
 74
     0
 75
     0
 76
     0
 77
     0
 78
     2
  0
ENDTAB
  0
TABLE
  2
LTYPE
 70
     3
  0
LTYPE
  2
CONTINUOUS
 70
     0
  3
Solid Line
 72
    65
 73
     0
 40
0.0
  0
LTYPE
  2
CENTER
 70
     0
  3
____ _ ____ _ ____ _ ____ _ ____ _ ____ _ ____
 72
    65
 73
     4
 40
2.0
 49
1.25
 49
-0.25
 49
0.25
 49
-0.25
  0
LTYPE
  2
PHANTOM2
 70
     0
  3
___ _ _ ___ _ _ ___ _ _ ___ _ _
 72
    65
 73
     6
 40
1.25
 49
0.625
 49
-0.125
 49
0.125
 49
-0.125
 49
0.125
 49
-0.125
  0
ENDTAB
  0
TABLE
  2
LAYER
 70
     2
  0
LAYER
  2
0
 70
     0
 62
     7
  6
CONTINUOUS
  0
LAYER
  2
1
 70
     0
 62
     1
  6
CENTER
  0
ENDTAB
  0
TABLE
  2
STYLE
 70
     2
  0
STYLE
  2
STANDARD
 70
     0
 40
0.0
 41
1.0
 50
0.0
 71
     0
 42
4.000000000000048
  3
SIMPLEX
  4
BIGFONT
  0
STYLE
  2
STANDARD1
 70
     0
 40
0.0
 41
1.0
 50
0.0
 71
     0
 42
3.0
  3
txt
  4

  0
ENDTAB
  0
TABLE
  2
VIEW
 70
     1
  0
VIEW
  2
ALL
 70
     0
 40
270.0
 10
220.78595317725751
 20
135.0
 41
441.57190635451502
 11
0.0
 21
0.0
 31
1.0
 12
0.0
 22
0.0
 32
0.0
 42
50.0
 43
0.0
 44
0.0
 50
0.0
 71
     0
  0
ENDTAB
  0
TABLE
  2
UCS
 70
     0
  0
ENDTAB
  0
TABLE
  2
APPID
 70
     3
  0
APPID
  2
ACAD
 70
     0
  0
APPID
  2
ACAD_MLEADERVER
 70
     0
  0
APPID
  2
ACAD_NAV_VCDISPLAY
 70
     0
  0
ENDTAB
  0
TABLE
  2
DIMSTYLE
 70
     1
  0
DIMSTYLE
  2
STANDARD
 70
     0
  3

  4

  5

  6

  7

 40
1.0
 41
0.18
 42
0.0625
 43
0.38
 44
0.18
 45
0.0
 46
0.0
 47
0.0
 48
0.0
140
0.18
141
0.09
142
0.0
143
25.399999999999999
144
1.0
145
0.0
146
1.0
147
0.09
 71
     0
 72
     0
 73
     1
 74
     1
 75
     0
 76
     0
 77
     0
 78
     0
170
     0
171
     2
172
     0
173
     0
174
     0
175
     0
176
     0
177
     0
178
     0
  0
ENDTAB
  0
ENDSEC
  0
SECTION
  2
BLOCKS
  0
BLOCK
  8
0
  2
$MODEL_SPACE
 70
     0
 10
0.0
 20
0.0
 30
0.0
  3
$MODEL_SPACE
  1

  0
ENDBLK
  5
105
  8
0
  0
BLOCK
 67
     1
  8
0
  2
$PAPER_SPACE
 70
     0
 10
0.0
 20
0.0
 30
0.0
  3
$PAPER_SPACE
  1

  0
ENDBLK
  5
103
 67
     1
  8
0
  0
BLOCK
  8
0
  2
STDGX5
 70
     0
 10
0.0
 20
0.0
 30
0.0
  3
STDGX5
  1

  0
ENDBLK
  5
30
  8
0
  0
ENDSEC
  0
SECTION
  2
ENTITIES
  0
ARC
  5
3F
  8
0
 10
173.54835600000001
 20
129.94019961856529
 30
0.0
 40
7.75
 50
328.22835300000003
 51
76.771647000000002
  0
CIRCLE
  5
40
  8
0
 10
173.54835600000001
 20
129.94019961856529
 30
0.0
 40
3.399999999999999
  0
ARC
  5
41
  8
0
 10
173.54835600000001
 20
129.94019961856529
 30
0.0
 40
7.75
 50
159.62291099999999
 51
245.37708900000001
  0
ARC
  5
42
  8
0
 10
161.74407299999999
 20
162.7699186185653
 30
0.0
 40
29.0
 50
255.674755
 51
276.89565599999997
  0
ARC
  5
43
  8
0
 10
147.177673
 20
148.20351861856531
 30
0.0
 40
29.0
 50
341.04352499999999
 51
10.926314
  0
ARC
  5
44
  8
0
 10
188.415584
 20
98.379193618565353
 30
0.0
 40
29.0
 50
128.104344
 51
149.325245
  0
ARC
  5
45
  8
0
 10
118.115584
 20
106.9791936185654
 30
0.0
 40
44.0
 50
8.5688770000000005
 51
36.431122999999999
  0
ARC
  5
46
  8
0
 10
167.815584
 20
98.379193618565353
 30
0.0
 40
29.0
 50
34.073686000000002
 51
63.95647499999999
  0
ARC
  5
47
  8
0
 10
118.115584
 20
106.9791936185654
 30
0.0
 40
76.0
 50
6.282849999999998
 51
38.717149999999997
  0
ARC
  5
48
  8
0
 10
154.32129399999999
 20
133.7027146185653
 30
0.0
 40
1.0
 50
75.674755000000005
 51
216.43112300000001
  0
ARC
  5
49
  8
0
 10
165.34592000000001
 20
132.98692561856529
 30
0.0
 40
1.0
 50
339.62291099999999
 51
96.895656000000017
  0
ARC
  5
4A
  8
0
 10
175.55064200000001
 20
138.4580246185653
 30
0.0
 40
1.0
 50
161.04352499999999
 51
256.77164699999997
  0
ARC
  5
4B
  8
0
 10
176.633826
 20
153.8899106185653
 30
0.0
 40
1.0
 50
38.717149999999997
 51
190.92631399999999
  0
ARC
  5
4C
  8
0
 10
192.66511600000001
 20
115.1869526185653
 30
0.0
 40
1.0
 50
214.07368600000001
 51
6.282849999999998
  0
ARC
  5
4D
  8
0
 10
169.90271799999999
 20
121.98584061856531
 30
0.0
 40
1.0
 50
308.10434400000003
 51
65.377088999999998
  0
ARC
  5
4E
  8
0
 10
162.61327
 20
113.68411361856531
 30
0.0
 40
1.0
 50
188.5688769999999
 51
329.325245
  0
ARC
  5
4F
  8
0
 10
180.98719800000001
 20
125.3330166185653
 30
0.0
 40
1.0
 50
148.228353
 51
243.95647500000001
  0
LINE
  5
50
  8
0
 10
147.92611571064799
 20
30.248034523983719
 30
0.0
 11
147.92611571064799
 21
80.248034523983705
 31
0.0
  0
LINE
  5
51
  8
0
 10
147.92611571064799
 20
80.248034523983705
 30
0.0
 11
198.01010400000001
 21
80.248034523983705
 31
0.0
  0
LINE
  5
52
  8
0
 10
198.01010400000001
 20
30.248034523983719
 30
0.0
 11
198.01010400000001
 21
80.248034523983705
 31
0.0
  0
LINE
  5
53
  8
0
 10
174.11558400000001
 20
30.248034523983719
 30
0.0
 11
174.11558400000001
 21
80.248034523983705
 31
0.0
  0
LINE
  5
54
  8
0
 10
182.11558400000001
 20
30.248034523983719
 30
0.0
 11
182.11558400000001
 21
80.248034523983705
 31
0.0
  0
LINE
  5
55
  8
0
 10
147.92611571064799
 20
30.248034523983719
 30
0.0
 11
198.01010400000001
 21
30.248034523983719
 31
0.0
  0
LINE
  5
56
  8
0
 10
171.83848068930629
 20
160.6971509425957
 30
0.0
 11
164.432458768815
 21
153.29367138745971
 31
0.0
  0
ARC
  5
57
  8
0
 10
165.49293635253761
 20
152.23282963423429
 30
0.0
 40
1.499999310321374
 50
134.99015147683471
 51
225.0000179108481
  0
LINE
  5
58
  8
0
 10
164.43227629311679
 20
151.172170325449
 30
0.0
 11
165.845292
 21
149.75915361856531
 31
0.0
  0
ARC
  5
59
  8
0
 10
166.55239900000001
 20
150.4662595620411
 30
0.0
 40
0.9999995623738271
 50
224.99995719571299
 51
315.00004280428698
  0
LINE
  5
5A
  8
0
 10
167.25950599999999
 20
149.75915361856531
 30
0.0
 11
169.99983499999999
 21
152.49948361856531
 31
0.0
  0
ARC
  5
5B
  8
0
 10
170.79503953516729
 20
151.70428197831399
 30
0.0
 40
1.124586991481332
 50
8.4314459280171334
 51
135.00010429189109
  0
ARC
  5
5C
  8
0
 10
147.17784157396841
 20
148.20351969895961
 30
0.0
 40
24.999833086023742
 50
351.64187034703849
 51
8.4315190227017016
  0
ARC
  5
5D
  8
0
 10
167.9546330043033
 20
145.15097682522691
 30
0.0
 40
3.9999978453508551
 50
315.0000079917927
 51
351.64195279797377
  0
LINE
  5
5E
  8
0
 10
170.78305900000001
 20
142.32255161856531
 30
0.0
 11
167.6250399999999
 21
139.16453261856529
 31
0.0
  0
ARC
  5
5F
  8
0
 10
164.79661479333839
 20
141.99295861426199
 30
0.0
 40
3.9999978453508449
 50
278.35804720202538
 51
314.99999200820639
  0
ARC
  5
60
  8
0
 10
161.74407191960549
 20
162.7697500445968
 30
0.0
 40
24.999833086023632
 50
261.56848097729869
 51
278.35812965296191
  0
ARC
  5
61
  8
0
 10
158.24330964025131
 20
139.15255208339801
 30
0.0
 40
1.1245869914813511
 50
134.9998957081078
 51
261.56855407198162
  0
LINE
  5
62
  8
0
 10
157.44810799999999
 20
139.94775661856531
 30
0.0
 11
160.18843799999999
 21
142.68808561856531
 31
0.0
  0
ARC
  5
63
  8
0
 10
159.48133205652411
 20
143.39519261856529
 30
0.0
 40
0.9999995623738271
 50
314.99995719571302
 51
45.00004280428697
  0
LINE
  5
64
  8
0
 10
160.18843799999999
 20
144.10229961856541
 30
0.0
 11
158.77408754508929
 21
145.516650073476
 31
0.0
  0
ARC
  5
65
  8
0
 10
157.71342698428899
 20
144.45598951267559
 30
0.0
 40
1.500000550158356
 50
45.000029445160067
 51
134.9901382555318
  0
LINE
  5
66
  8
0
 10
156.65294853065109
 20
145.51683214937751
 30
0.0
 11
149.04522358022371
 21
137.91171890071149
 31
0.0
  0
ARC
  5
67
  8
0
 10
151.9261145772787
 20
135.13674899166131
 30
0.0
 40
3.9999988666307482
 50
133.9074362643259
 51
219.78768296302951
  0
ARC
  5
68
  8
0
 10
118.1157046900578
 20
106.97924252594279
 30
0.0
 40
39.999875986702563
 50
5.2122721766658833
 51
39.7877295148214
  0
ARC
  5
69
  8
0
 10
161.93363832659989
 20
110.9764501518182
 30
0.0
 40
3.999998751538322
 50
185.21231677572709
 51
271.09256347443062
  0
LINE
  5
6A
  8
0
 10
161.8587409783174
 20
106.97715266356749
 30
0.0
 11
172.61584199999999
 21
106.9789996185653
 31
0.0
  0
ARC
  5
6B
  8
0
 10
172.61558351345329
 20
108.4790000828403
 30
0.0
 40
1.5000004865467469
 50
270.00987345563527
 51
359.99998226600741
  0
LINE
  5
6C
  8
0
 10
174.11558400000001
 20
108.4789996185653
 30
0.0
 11
174.11558400000001
 21
110.4791936185653
 31
0.0
  0
ARC
  5
6D
  8
0
 10
173.11558474707519
 20
110.4791943656405
 30
0.0
 40
0.9999992529251022
 50
359.99995719571342
 51
90.000042804286593
  0
LINE
  5
6E
  8
0
 10
173.11558400000001
 20
111.4791936185653
 30
0.0
 11
169.240173
 21
111.4791936185653
 31
0.0
  0
ARC
  5
6F
  8
0
 10
169.24017092169669
 20
112.60378055073279
 30
0.0
 40
1.124586932169352
 50
143.43144752212291
 51
270.00010588599679
  0
ARC
  5
70
  8
0
 10
188.415465346758
 20
98.379313462701788
 30
0.0
 40
24.999833113648169
 50
126.64187340845091
 51
143.43152208411411
  0
ARC
  5
71
  8
0
 10
175.8825270393549
 20
115.22919519484439
 30
0.0
 40
3.9999984237210491
 50
89.999986239767381
 51
126.6419310459485
  0
LINE
  5
72
  8
0
 10
175.88252800000001
 20
119.2291936185654
 30
0.0
 11
180.34864099999999
 21
119.2291936185654
 31
0.0
  0
ARC
  5
73
  8
0
 10
180.34864146064501
 20
115.22919670485049
 30
0.0
 40
3.9999969137149209
 50
53.358061792078857
 51
90.000006598259844
  0
ARC
  5
74
  8
0
 10
167.81570265324191
 20
98.379313462701788
 30
0.0
 40
24.999833113648169
 50
36.568477915885857
 51
53.358126591549073
  0
ARC
  5
75
  8
0
 10
186.99099707830331
 20
112.60378055073279
 30
0.0
 40
1.12458693216934
 50
269.99989411400321
 51
36.568552477877063
  0
LINE
  5
76
  8
0
 10
186.990995
 20
111.4791936185653
 30
0.0
 11
183.11558400000001
 21
111.4791936185653
 31
0.0
  0
ARC
  5
77
  8
0
 10
183.11558325292481
 20
110.4791943656405
 30
0.0
 40
0.9999992529251022
 50
89.999957195713407
 51
180.00004280428661
  0
LINE
  5
78
  8
0
 10
182.11558400000001
 20
110.4791936185653
 30
0.0
 11
182.11558400000001
 21
108.4808876185653
 31
0.0
  0
ARC
  5
79
  8
0
 10
183.6155838597995
 20
108.4808874561528
 30
0.0
 40
1.499999859799553
 50
179.999993796296
 51
270.00986023030839
  0
LINE
  5
7A
  8
0
 10
183.61584199999999
 20
106.9808876185653
 30
0.0
 11
193.93383399999999
 21
106.98265961856529
 31
0.0
  0
ARC
  5
7B
  8
0
 10
194.01010117455201
 20
110.98193476056321
 30
0.0
 40
4.0000022929139289
 50
268.90748761937039
 51
3.0189898363293568
  0
ARC
  5
7C
  8
0
 10
118.11538273027411
 20
106.9791103277182
 30
0.0
 40
80.000205524060604
 50
3.0190807199653391
 51
41.980918247411402
  0
ARC
  5
7D
  8
0
 10
174.6114773436216
 20
157.8143553415826
 30
0.0
 40
4.0000026152571708
 50
41.980999884682262
 51
136.092502101641
  0
LINE
  5
7E
  8
0
 10
158.1155805834247
 20
80.248034523983705
 30
0.0
 11
158.1155805834247
 21
30.248034523983719
 31
0.0
  0
LINE
  5
7F
  8
0
 10
147.92611571064799
 20
231.16181337218779
 30
0.0
 11
198.01010400000001
 21
231.16181337218779
 31
0.0
  0
LINE
  5
80
  8
0
 10
198.01010400000001
 20
231.16181337218779
 30
0.0
 11
198.01010400000001
 21
181.16181337218779
 31
0.0
  0
LINE
  5
81
  8
0
 10
147.92611571064799
 20
181.16181337218779
 30
0.0
 11
198.01010400000001
 21
181.16181337218779
 31
0.0
  0
LINE
  5
82
  8
0
 10
147.92611571064799
 20
231.16181337218779
 30
0.0
 11
147.92611571064799
 21
181.16181337218779
 31
0.0
  0
LINE
  5
83
  8
0
 10
174.6870880842485
 20
181.16181337218779
 30
0.0
 11
174.6870880842485
 21
231.16181337218779
 31
0.0
  0
LINE
  5
84
  8
0
 10
163.9929370422162
 20
181.16181337218779
 30
0.0
 11
163.9929370422162
 21
231.16181337218779
 31
0.0
  0
LINE
  5
85
  8
0
 10
160.481331618898
 20
181.16181337218779
 30
0.0
 11
160.481331618898
 21
231.16181337218779
 31
0.0
  0
LINE
  5
86
  8
0
 10
157.71360906019311
 20
181.16181337218779
 30
0.0
 11
157.71360906019311
 21
231.16181337218779
 31
0.0
  0
LINE
  5
87
  8
1
 10
150.45137281769649
 20
120.3731174627849
 30
0.0
 11
196.64533323819771
 21
139.5072798482372
 31
0.0
  0
ARC
  5
88
  8
1
 10
118.1157046900578
 20
106.97924252594279
 30
0.0
 40
59.999869848682927
 50
355.22137419213618
 51
49.779566002461578
  0
LINE
  5
89
  8
0
 10
227.31598724591601
 20
106.9819324676493
 30
0.0
 11
277.31598724591612
 21
106.9819324676493
 31
0.0
  0
LINE
  5
8A
  8
0
 10
227.31598724591609
 20
161.81435795683981
 30
0.0
 11
277.31598724591612
 21
161.81435795683981
 31
0.0
  0
LINE
  5
8B
  8
0
 10
227.31598724591609
 20
161.81435795683981
 30
0.0
 11
227.31598724591609
 21
106.9819324676493
 31
0.0
  0
LINE
  5
8C
  8
0
 10
277.31598724591612
 20
161.81435795683981
 30
0.0
 11
277.31598724591612
 21
106.9819324676493
 31
0.0
  0
LINE
  5
8D
  8
0
 10
112.7637835473619
 20
161.81435795683981
 30
0.0
 11
112.7637835473619
 21
106.9819324676493
 31
0.0
  0
LINE
  5
8E
  8
0
 10
62.763783547361939
 20
161.81435795683981
 30
0.0
 11
62.763783547361939
 21
106.9819324676493
 31
0.0
  0
LINE
  5
8F
  8
0
 10
62.763783547361939
 20
161.81435795683981
 30
0.0
 11
112.7637835473619
 21
161.81435795683981
 31
0.0
  0
LINE
  5
90
  8
0
 10
62.763783547361911
 20
106.9819324676493
 30
0.0
 11
112.7637835473619
 21
106.9819324676493
 31
0.0
  0
LINE
  5
91
  8
0
 10
112.7637835473619
 20
135.26535915738839
 30
0.0
 11
62.763783547361939
 21
135.26535915738839
 31
0.0
  0
LINE
  5
92
  8
0
 10
112.7637835473619
 20
145.95599006283391
 30
0.0
 11
62.763783547361939
 21
145.95599006283391
 31
0.0
  0
LINE
  5
93
  8
0
 10
112.7637835473619
 20
149.4662599996673
 30
0.0
 11
62.763783547361939
 21
149.4662599996673
 31
0.0
  0
LINE
  5
94
  8
0
 10
112.7637835473619
 20
152.23301210993569
 30
0.0
 11
62.763783547361939
 21
152.23301210993569
 31
0.0
  0
LINE
  5
95
  8
1
 10
222.31598724591601
 20
129.94019961856529
 30
0.0
 11
282.31598724591612
 21
129.94019961856529
 31
0.0
  0
LINE
  5
96
  8
1
 10
117.7637835473619
 20
129.94019961856529
 30
0.0
 11
57.763783547361939
 21
129.94019961856529
 31
0.0
  0
LINE
  5
97
  8
1
 10
173.54835600000001
 20
176.16181337218779
 30
0.0
 11
173.54835600000001
 21
236.16181337218779
 31
0.0
  0
LINE
  5
98
  8
1
 10
173.54835600000001
 20
85.248034523983705
 30
0.0
 11
173.54835600000001
 21
25.248034523983719
 31
0.0
  0
INSERT
  5
99
  8
0
  2
STDGX5
 10
0.0
 20
0.0
 30
0.0
  0
TEXT
  5
204
  8
0
 62
     3
 10
0.0
 20
0.0
 30
0.0
 40
10.0
  1
RPH48D45N
  7
STANDARD1
  0
ENDSEC
  0
EOF
