  0
SECTION
  2
HEADER
  9
$ACADVER
  1
AC1009
  9
$INSBASE
 10
0.0
 20
0.0
 30
0.0
  9
$EXTMIN
 10
0.0
 20
-2.960436562073669
 30
0.0
  9
$EXTMAX
 10
442.1749999999999
 20
211.90000000000001
 30
0.0
  9
$LIMMIN
 10
0.0
 20
0.0
  9
$LIMMAX
 10
187.5
 20
135.0
  9
$ORTHOMODE
 70
     1
  9
$REGENMODE
 70
     1
  9
$FILLMODE
 70
     1
  9
$QTEXTMODE
 70
     0
  9
$MIRRTEXT
 70
     0
  9
$DRAGMODE
 70
     2
  9
$LTSCALE
 40
10.0
  9
$OSMODE
 70
    37
  9
$ATTMODE
 70
     1
  9
$TEXTSIZE
 40
2.5
  9
$TRACEWID
 40
0.05
  9
$TEXTSTYLE
  7
STANDARD
  9
$CLAYER
  8
0
  9
$CELTYPE
  6
BYLAYER
  9
$CECOLOR
 62
   256
  9
$DIMSCALE
 40
0.5
  9
$DIMASZ
 40
3.0
  9
$DIMEXO
 40
2.0
  9
$DIMDLI
 40
10.0
  9
$DIMRND
 40
0.0
  9
$DIMDLE
 40
0.0
  9
$DIMEXE
 40
2.0
  9
$DIMTP
 40
0.0
  9
$DIMTM
 40
0.0
  9
$DIMTXT
 40
3.0
  9
$DIMCEN
 40
0.09
  9
$DIMTSZ
 40
0.0
  9
$DIMTOL
 70
     0
  9
$DIMLIM
 70
     0
  9
$DIMTIH
 70
     0
  9
$DIMTOH
 70
     0
  9
$DIMSE1
 70
     0
  9
$DIMSE2
 70
     0
  9
$DIMTAD
 70
     1
  9
$DIMZIN
 70
     0
  9
$DIMBLK
  1

  9
$DIMASO
 70
     0
  9
$DIMSHO
 70
     0
  9
$DIMPOST
  1

  9
$DIMAPOST
  1

  9
$DIMALT
 70
     0
  9
$DIMALTD
 70
     2
  9
$DIMALTF
 40
25.399999999999999
  9
$DIMLFAC
 40
1.0
  9
$DIMTOFL
 70
     1
  9
$DIMTVP
 40
1.6000000000000001
  9
$DIMTIX
 70
     1
  9
$DIMSOXD
 70
     0
  9
$DIMSAH
 70
     0
  9
$DIMBLK1
  1

  9
$DIMBLK2
  1

  9
$DIMSTYLE
  2
STANDARD
  9
$DIMCLRD
 70
     0
  9
$DIMCLRE
 70
     0
  9
$DIMCLRT
 70
     0
  9
$DIMTFAC
 40
1.0
  9
$DIMGAP
 40
0.09
  9
$LUNITS
 70
     2
  9
$LUPREC
 70
     4
  9
$SKETCHINC
 40
0.1
  9
$FILLETRAD
 40
0.0
  9
$AUNITS
 70
     0
  9
$AUPREC
 70
     0
  9
$MENU
  1
E:\r13\win\SUPPORT\ACAD
  9
$ELEVATION
 40
0.0
  9
$PELEVATION
 40
0.0
  9
$THICKNESS
 40
0.0
  9
$LIMCHECK
 70
     0
  9
$BLIPMODE
 70
     0
  9
$CHAMFERA
 40
1.6000000000000001
  9
$CHAMFERB
 40
1.6000000000000001
  9
$SKPOLY
 70
     0
  9
$TDCREATE
 40
2449840.5944097228
  9
$TDUPDATE
 40
2457301.6159472801
  9
$TDINDWG
 40
0.1073828125
  9
$TDUSRTIMER
 40
0.1073828125
  9
$USRTIMER
 70
     1
  9
$ANGBASE
 50
0.0
  9
$ANGDIR
 70
     0
  9
$PDMODE
 70
     0
  9
$PDSIZE
 40
0.0
  9
$PLINEWID
 40
0.0
  9
$COORDS
 70
     1
  9
$SPLFRAME
 70
     0
  9
$SPLINETYPE
 70
     6
  9
$SPLINESEGS
 70
     8
  9
$ATTDIA
 70
     0
  9
$ATTREQ
 70
     1
  9
$HANDLING
 70
     1
  9
$HANDSEED
  5
2161
  9
$SURFTAB1
 70
     6
  9
$SURFTAB2
 70
     6
  9
$SURFTYPE
 70
     6
  9
$SURFU
 70
     6
  9
$SURFV
 70
     6
  9
$UCSNAME
  2

  9
$UCSORG
 10
0.0
 20
0.0
 30
0.0
  9
$UCSXDIR
 10
1.0
 20
0.0
 30
0.0
  9
$UCSYDIR
 10
0.0
 20
1.0
 30
0.0
  9
$PUCSNAME
  2

  9
$PUCSORG
 10
0.0
 20
0.0
 30
0.0
  9
$PUCSXDIR
 10
1.0
 20
0.0
 30
0.0
  9
$PUCSYDIR
 10
0.0
 20
1.0
 30
0.0
  9
$USERI1
 70
     0
  9
$USERI2
 70
     1
  9
$USERI3
 70
     1
  9
$USERI4
 70
     0
  9
$USERI5
 70
     0
  9
$USERR1
 40
0.0
  9
$USERR2
 40
0.0
  9
$USERR3
 40
0.0
  9
$USERR4
 40
0.0
  9
$USERR5
 40
0.0
  9
$WORLDVIEW
 70
     1
  9
$SHADEDGE
 70
     3
  9
$SHADEDIF
 70
    70
  9
$TILEMODE
 70
     1
  9
$MAXACTVP
 70
    16
  9
$PLIMCHECK
 70
     0
  9
$PEXTMIN
 10
1.0000000000000000E+020
 20
1.0000000000000000E+020
 30
1.0000000000000000E+020
  9
$PEXTMAX
 10
-1.0000000000000000E+020
 20
-1.0000000000000000E+020
 30
-1.0000000000000000E+020
  9
$PLIMMIN
 10
0.0
 20
0.0
  9
$PLIMMAX
 10
12.0
 20
9.0
  9
$UNITMODE
 70
     0
  9
$VISRETAIN
 70
     0
  9
$PLINEGEN
 70
     0
  9
$PSLTSCALE
 70
     0
  0
ENDSEC
  0
SECTION
  2
TABLES
  0
TABLE
  2
VPORT
 70
     1
  0
VPORT
  2
*ACTIVE
 70
     0
 10
0.0
 20
0.0
 11
1.0
 21
1.0
 12
326.92307692307691
 22
180.0
 13
0.0
 23
0.0
 14
5.0
 24
5.0
 15
5.0
 25
5.0
 16
0.0
 26
0.0
 36
1.0
 17
0.0
 27
0.0
 37
0.0
 40
360.0
 41
1.816239316239316
 42
50.0
 43
0.0
 44
0.0
 50
0.0
 51
0.0
 71
     0
 72
   100
 73
     1
 74
     0
 75
     0
 76
     0
 77
     0
 78
     0
  0
ENDTAB
  0
TABLE
  2
LTYPE
 70
     3
  0
LTYPE
  2
CONTINUOUS
 70
     0
  3
Solid Line
 72
    65
 73
     0
 40
0.0
  0
LTYPE
  2
CENTER
 70
     0
  3
____ _ ____ _ ____ _ ____ _ ____ _ ____ _ ____
 72
    65
 73
     4
 40
2.0
 49
1.25
 49
-0.25
 49
0.25
 49
-0.25
  0
LTYPE
  2
PHANTOM2
 70
     0
  3
___ _ _ ___ _ _ ___ _ _ ___ _ _
 72
    65
 73
     6
 40
1.25
 49
0.625
 49
-0.125
 49
0.125
 49
-0.125
 49
0.125
 49
-0.125
  0
ENDTAB
  0
TABLE
  2
LAYER
 70
     3
  0
LAYER
  2
0
 70
     0
 62
     7
  6
CONTINUOUS
  0
LAYER
  2
1
 70
     0
 62
     1
  6
CENTER
  0
LAYER
  2
DEFPOINTS
 70
     0
 62
     7
  6
CONTINUOUS
  0
ENDTAB
  0
TABLE
  2
STYLE
 70
     2
  0
STYLE
  2
STANDARD
 70
     0
 40
0.0
 41
1.0
 50
0.0
 71
     0
 42
2.5
  3
TXT
  4
BIGFONT
  0
STYLE
  2
STANDARD1
 70
     0
 40
0.0
 41
1.0
 50
0.0
 71
     0
 42
3.0
  3
txt
  4

  0
ENDTAB
  0
TABLE
  2
VIEW
 70
     1
  0
VIEW
  2
ALL
 70
     0
 40
135.0
 10
110.49579799999999
 20
67.5
 41
0.0
 11
0.0
 21
0.0
 31
1.0
 12
0.0
 22
0.0
 32
0.0
 42
0.0
 43
0.0
 44
0.0
 50
0.0
 71
     0
  0
ENDTAB
  0
TABLE
  2
UCS
 70
     0
  0
ENDTAB
  0
TABLE
  2
APPID
 70
     6
  0
APPID
  2
ACAD
 70
     0
  0
APPID
  2
DCO15
 70
     0
  0
APPID
  2
ACAD_MLEADERVER
 70
     0
  0
APPID
  2
ACAD_EXEMPT_FROM_CAD_STANDARDS
 70
     0
  0
APPID
  2
ACAD_NAV_VCDISPLAY
 70
     0
  0
APPID
  2
ACAD_DSTYLE_DIMRADIAL_EXTENSION
 70
     0
  0
ENDTAB
  0
TABLE
  2
DIMSTYLE
 70
     1
  0
DIMSTYLE
  2
STANDARD
 70
     0
  3

  4

  5

  6

  7

 40
1.0
 41
0.18
 42
0.0625
 43
0.38
 44
0.18
 45
0.0
 46
0.0
 47
0.0
 48
0.0
140
0.18
141
0.09
142
0.0
143
25.399999999999999
144
1.0
145
0.0
146
1.0
147
0.09
 71
     0
 72
     0
 73
     1
 74
     1
 75
     0
 76
     0
 77
     0
 78
     0
170
     0
171
     2
172
     0
173
     0
174
     0
175
     0
176
     0
177
     0
178
     0
  0
ENDTAB
  0
ENDSEC
  0
SECTION
  2
BLOCKS
  0
BLOCK
  8
0
  2
$MODEL_SPACE
 70
     0
 10
0.0
 20
0.0
 30
0.0
  3
$MODEL_SPACE
  1

  0
ENDBLK
  5
15D
  8
0
  0
BLOCK
 67
     1
  8
0
  2
$PAPER_SPACE
 70
     0
 10
0.0
 20
0.0
 30
0.0
  3
$PAPER_SPACE
  1

  0
ENDBLK
  5
15B
 67
     1
  8
0
  0
ENDSEC
  0
SECTION
  2
ENTITIES
  0
TEXT
  5
13CB
  8
0
 62
     3
 10
0.0
 20
0.0
 30
0.0
 40
10.0
  1
RLT-E-PA
  7
STANDARD1
  0
LINE
  5
1AF8
  8
1
 10
162.1749999999999
 20
112.5
 30
0.0
 11
442.1749999999999
 21
112.5
 31
0.0
  0
LINE
  5
1AF9
  8
1
 10
423.67499999999922
 20
97.0
 30
0.0
 11
423.67499999999922
 21
128.0
 31
0.0
  0
LINE
  5
1AFB
  8
1
 10
396.67499999999961
 20
97.0
 30
0.0
 11
396.67499999999961
 21
128.0
 31
0.0
  0
LINE
  5
1AFD
  8
1
 10
369.67499999999961
 20
97.0
 30
0.0
 11
369.67499999999961
 21
128.0
 31
0.0
  0
LINE
  5
1AFF
  8
1
 10
342.67499999999961
 20
97.0
 30
0.0
 11
342.67499999999961
 21
128.0
 31
0.0
  0
LINE
  5
1B01
  8
1
 10
315.67500000000018
 20
97.0
 30
0.0
 11
315.67500000000018
 21
128.0
 31
0.0
  0
LINE
  5
1B03
  8
1
 10
288.67500000000001
 20
97.0
 30
0.0
 11
288.67500000000001
 21
128.0
 31
0.0
  0
LINE
  5
1B05
  8
1
 10
261.67500000000001
 20
97.0
 30
0.0
 11
261.67500000000001
 21
128.0
 31
0.0
  0
LINE
  5
1B07
  8
1
 10
234.6749999999999
 20
97.0
 30
0.0
 11
234.6749999999999
 21
128.0
 31
0.0
  0
LINE
  5
1B09
  8
1
 10
207.67500000000001
 20
97.0
 30
0.0
 11
207.67500000000001
 21
128.0
 31
0.0
  0
ARC
  5
1B0A
  8
0
 10
423.67500000000001
 20
112.5000000000001
 30
0.0
 40
10.000000000000179
 50
210.00000000000011
 51
234.26082952273231
  0
LINE
  5
1B0B
  8
0
 10
417.83403741068241
 20
104.38315603019289
 30
0.0
 11
419.63354811567251
 21
107.5
 31
0.0
  0
ARC
  5
1B0C
  8
0
 10
423.67499999999842
 20
112.50000000000129
 30
0.0
 40
10.00000000000199
 50
305.73917047726769
 51
329.99999999999801
  0
LINE
  5
1B0D
  8
0
 10
427.71645188432728
 20
107.5
 30
0.0
 11
429.5159625893175
 21
104.38315603019289
 31
0.0
  0
ARC
  5
1B0E
  8
0
 10
423.6749999999999
 20
112.5
 30
0.0
 40
12.499999999999989
 50
203.57817847820229
 51
336.42182152179771
  0
ARC
  5
1B0F
  8
0
 10
423.6749999999999
 20
112.4999999999999
 30
0.0
 40
9.9999999999998828
 50
245.73917047726499
 51
294.26082952273498
  0
LINE
  5
1B10
  8
0
 10
421.942949192431
 20
107.5
 30
0.0
 11
419.5660882182512
 21
103.38315603019289
 31
0.0
  0
LINE
  5
1B11
  8
0
 10
427.78391178174849
 20
103.38315603019289
 30
0.0
 11
425.40705080756879
 21
107.5
 31
0.0
  0
ARC
  5
1B12
  8
0
 10
423.67500000000052
 20
112.5000000000006
 30
0.0
 40
9.9999999999991367
 50
29.9999999999979
 51
54.26082952273233
  0
LINE
  5
1B13
  8
0
 10
419.63354811567251
 20
117.5
 30
0.0
 11
417.83403741068241
 21
120.61684396980699
 31
0.0
  0
LINE
  5
1B14
  8
0
 10
429.5159625893175
 20
120.61684396980699
 30
0.0
 11
427.71645188432728
 21
117.5
 31
0.0
  0
ARC
  5
1B15
  8
0
 10
423.67499999999927
 20
112.5000000000006
 30
0.0
 40
9.9999999999991367
 50
125.73917047726761
 51
150.0000000000021
  0
LINE
  5
1B16
  8
0
 10
425.40705080756879
 20
117.5
 30
0.0
 11
427.78391178174849
 21
121.61684396980699
 31
0.0
  0
ARC
  5
1B17
  8
0
 10
423.6749999999999
 20
112.5
 30
0.0
 40
12.49999999999998
 50
23.5781784782023
 51
156.42182152179609
  0
LINE
  5
1B18
  8
0
 10
419.5660882182512
 20
121.61684396980699
 30
0.0
 11
421.942949192431
 21
117.5
 31
0.0
  0
ARC
  5
1B19
  8
0
 10
423.6749999999999
 20
112.5
 30
0.0
 40
9.9999999999999574
 50
65.739170477265034
 51
114.26082952273489
  0
ARC
  5
1B1A
  8
0
 10
423.67499999999649
 20
112.5000000000005
 30
0.0
 40
10.000000000003411
 50
342.54239687628058
 51
354.26082952273191
  0
LINE
  5
1B1B
  8
0
 10
425.40705080756879
 20
111.5
 30
0.0
 11
426.56175134594798
 21
109.5
 31
0.0
  0
ARC
  5
1B1C
  8
0
 10
423.6749999999958
 20
112.4999999999992
 30
0.0
 40
10.00000000000419
 50
5.7391704772680949
 51
17.45760312371765
  0
LINE
  5
1B1D
  8
0
 10
421.942949192431
 20
113.5
 30
0.0
 11
420.7882486540517
 21
115.5
 31
0.0
  0
ARC
  5
1B1E
  8
0
 10
423.67500000000172
 20
112.5000000000004
 30
0.0
 40
10.000000000001871
 50
185.73917047726809
 51
197.45760312371931
  0
LINE
  5
1B1F
  8
0
 10
420.7882486540517
 20
109.5
 30
0.0
 11
421.942949192431
 21
111.5
 31
0.0
  0
LINE
  5
1B20
  8
0
 10
426.56175134594798
 20
115.5
 30
0.0
 11
425.40705080756879
 21
113.5
 31
0.0
  0
ARC
  5
1B21
  8
0
 10
423.67500000000058
 20
112.4999999999998
 30
0.0
 40
10.000000000000741
 50
162.54239687627901
 51
174.2608295227318
  0
LINE
  5
1B22
  8
0
 10
411.6749999999999
 20
109.5
 30
0.0
 11
422.1749999999999
 21
109.5
 31
0.0
  0
LINE
  5
1B23
  8
0
 10
422.1749999999999
 20
115.5
 30
0.0
 11
411.6749999999999
 21
115.5
 31
0.0
  0
LINE
  5
1B24
  8
0
 10
411.6749999999999
 20
111.5
 30
0.0
 11
411.6749999999999
 21
109.5
 31
0.0
  0
LINE
  5
1B25
  8
0
 10
437.1749999999999
 20
117.0
 30
0.0
 11
436.6749999999999
 21
117.5
 31
0.0
  0
LINE
  5
1B26
  8
0
 10
437.1749999999999
 20
108.0
 30
0.0
 11
437.1749999999999
 21
117.0
 31
0.0
  0
LINE
  5
1B27
  8
0
 10
436.6749999999999
 20
117.5
 30
0.0
 11
410.6749999999999
 21
117.5
 31
0.0
  0
LINE
  5
1B28
  8
0
 10
410.6749999999999
 20
117.5
 30
0.0
 11
410.17500000000001
 21
117.0
 31
0.0
  0
LINE
  5
1B29
  8
0
 10
410.17500000000001
 20
117.0
 30
0.0
 11
410.17500000000001
 21
108.0
 31
0.0
  0
LINE
  5
1B2A
  8
0
 10
410.17500000000001
 20
108.0
 30
0.0
 11
410.6749999999999
 21
107.5
 31
0.0
  0
LINE
  5
1B2B
  8
0
 10
410.6749999999999
 20
107.5
 30
0.0
 11
436.6749999999999
 21
107.5
 31
0.0
  0
LINE
  5
1B2C
  8
0
 10
411.6749999999999
 20
115.5
 30
0.0
 11
411.6749999999999
 21
113.5
 31
0.0
  0
LINE
  5
1B2D
  8
0
 10
425.1749999999999
 20
115.5
 30
0.0
 11
425.1749999999999
 21
113.5
 31
0.0
  0
LINE
  5
1B2E
  8
0
 10
435.6749999999999
 20
115.5
 30
0.0
 11
425.1749999999999
 21
115.5
 31
0.0
  0
LINE
  5
1B2F
  8
0
 10
425.1749999999999
 20
109.5
 30
0.0
 11
435.6749999999999
 21
109.5
 31
0.0
  0
LINE
  5
1B30
  8
0
 10
435.6749999999999
 20
113.5
 30
0.0
 11
435.6749999999999
 21
115.5
 31
0.0
  0
LINE
  5
1B31
  8
0
 10
411.6749999999999
 20
113.5
 30
0.0
 11
414.9249999999999
 21
113.5
 31
0.0
  0
LINE
  5
1B32
  8
0
 10
418.9249999999999
 20
113.5
 30
0.0
 11
422.1749999999999
 21
113.5
 31
0.0
  0
LINE
  5
1B33
  8
0
 10
436.6749999999999
 20
107.5
 30
0.0
 11
437.1749999999999
 21
108.0
 31
0.0
  0
LINE
  5
1B34
  8
0
 10
432.4249999999999
 20
113.5
 30
0.0
 11
435.6749999999999
 21
113.5
 31
0.0
  0
LINE
  5
1B35
  8
0
 10
435.6749999999999
 20
111.5
 30
0.0
 11
432.4249999999999
 21
111.5
 31
0.0
  0
LINE
  5
1B36
  8
0
 10
435.6749999999999
 20
109.5
 30
0.0
 11
435.6749999999999
 21
111.5
 31
0.0
  0
LINE
  5
1B37
  8
0
 10
425.1749999999999
 20
111.5
 30
0.0
 11
425.1749999999999
 21
109.5
 31
0.0
  0
LINE
  5
1B38
  8
0
 10
428.4249999999999
 20
111.5
 30
0.0
 11
425.1749999999999
 21
111.5
 31
0.0
  0
LINE
  5
1B39
  8
0
 10
425.1749999999999
 20
113.5
 30
0.0
 11
428.4249999999999
 21
113.5
 31
0.0
  0
LINE
  5
1B3A
  8
0
 10
422.1749999999999
 20
111.5
 30
0.0
 11
418.9249999999999
 21
111.5
 31
0.0
  0
LINE
  5
1B3B
  8
0
 10
422.1749999999999
 20
109.5
 30
0.0
 11
422.1749999999999
 21
111.5
 31
0.0
  0
LINE
  5
1B3C
  8
0
 10
414.9249999999999
 20
111.5
 30
0.0
 11
411.6749999999999
 21
111.5
 31
0.0
  0
LINE
  5
1B3D
  8
0
 10
422.1749999999999
 20
113.5
 30
0.0
 11
422.1749999999999
 21
115.5
 31
0.0
  0
LINE
  5
1B3E
  8
0
 10
414.9249999999999
 20
110.5
 30
0.0
 11
418.9249999999999
 21
110.5
 31
0.0
  0
LINE
  5
1B3F
  8
0
 10
418.9249999999999
 20
110.5
 30
0.0
 11
418.9249999999999
 21
114.5
 31
0.0
  0
LINE
  5
1B40
  8
0
 10
418.9249999999999
 20
114.5
 30
0.0
 11
414.9249999999999
 21
114.5
 31
0.0
  0
LINE
  5
1B41
  8
0
 10
414.9249999999999
 20
114.5
 30
0.0
 11
414.9249999999999
 21
110.5
 31
0.0
  0
LINE
  5
1B42
  8
0
 10
428.4249999999999
 20
110.5
 30
0.0
 11
432.4249999999999
 21
110.5
 31
0.0
  0
LINE
  5
1B43
  8
0
 10
432.4249999999999
 20
110.5
 30
0.0
 11
432.4249999999999
 21
114.5
 31
0.0
  0
LINE
  5
1B44
  8
0
 10
432.4249999999999
 20
114.5
 30
0.0
 11
428.4249999999999
 21
114.5
 31
0.0
  0
LINE
  5
1B45
  8
0
 10
428.4249999999999
 20
114.5
 30
0.0
 11
428.4249999999999
 21
110.5
 31
0.0
  0
ARC
  5
1B46
  8
0
 10
396.67499999999882
 20
112.49999999999901
 30
0.0
 40
10.00000000000148
 50
30.00000000000199
 51
54.26082952273233
  0
LINE
  5
1B47
  8
0
 10
392.63354811567262
 20
117.5
 30
0.0
 11
390.83403741068241
 21
120.61684396980699
 31
0.0
  0
ARC
  5
1B48
  8
0
 10
396.67499999999939
 20
112.5000000000006
 30
0.0
 40
9.9999999999991367
 50
125.73917047726761
 51
150.0000000000021
  0
LINE
  5
1B49
  8
0
 10
402.51596258931738
 20
120.61684396980699
 30
0.0
 11
400.71645188432728
 21
117.5
 31
0.0
  0
LINE
  5
1B4A
  8
0
 10
392.5660882182512
 20
121.61684396980699
 30
0.0
 11
394.94294919243112
 21
117.5
 31
0.0
  0
ARC
  5
1B4B
  8
0
 10
396.67500000000001
 20
112.5
 30
0.0
 40
12.49999999999998
 50
23.5781784782023
 51
156.42182152179609
  0
LINE
  5
1B4C
  8
0
 10
398.40705080756891
 20
117.5
 30
0.0
 11
400.78391178174849
 21
121.61684396980699
 31
0.0
  0
ARC
  5
1B4D
  8
0
 10
396.67500000000001
 20
112.5
 30
0.0
 40
9.9999999999999574
 50
65.739170477265034
 51
114.26082952273489
  0
ARC
  5
1B4E
  8
0
 10
396.67500000000013
 20
112.5000000000001
 30
0.0
 40
10.000000000000179
 50
210.00000000000011
 51
234.26082952273231
  0
LINE
  5
1B4F
  8
0
 10
390.83403741068241
 20
104.38315603019289
 30
0.0
 11
392.63354811567262
 21
107.5
 31
0.0
  0
ARC
  5
1B50
  8
0
 10
396.67500000000052
 20
112.4999999999994
 30
0.0
 40
9.9999999999991367
 50
305.73917047726769
 51
330.0000000000021
  0
LINE
  5
1B51
  8
0
 10
400.71645188432728
 20
107.5
 30
0.0
 11
402.51596258931738
 21
104.38315603019289
 31
0.0
  0
ARC
  5
1B52
  8
0
 10
396.67500000000001
 20
112.5
 30
0.0
 40
12.49999999999998
 50
203.57817847820229
 51
336.42182152179771
  0
ARC
  5
1B53
  8
0
 10
396.67500000000001
 20
112.4999999999999
 30
0.0
 40
9.9999999999998828
 50
245.73917047726499
 51
294.26082952273498
  0
LINE
  5
1B54
  8
0
 10
394.94294919243112
 20
107.5
 30
0.0
 11
392.5660882182512
 21
103.38315603019289
 31
0.0
  0
LINE
  5
1B55
  8
0
 10
400.78391178174849
 20
103.38315603019289
 30
0.0
 11
398.40705080756891
 21
107.5
 31
0.0
  0
LINE
  5
1B56
  8
0
 10
398.40705080756891
 20
111.5
 30
0.0
 11
399.5617513459481
 21
109.5
 31
0.0
  0
ARC
  5
1B57
  8
0
 10
396.67500000000439
 20
112.4999999999991
 30
0.0
 40
9.9999999999954881
 50
342.5423968762754
 51
354.26082952273521
  0
ARC
  5
1B58
  8
0
 10
396.67500000000359
 20
112.5000000000007
 30
0.0
 40
9.9999999999962643
 50
5.7391704772648211
 51
17.457603123724581
  0
ARC
  5
1B59
  8
0
 10
396.67500000000177
 20
112.5000000000004
 30
0.0
 40
10.000000000001871
 50
185.73917047726809
 51
197.45760312371931
  0
LINE
  5
1B5A
  8
0
 10
394.94294919243112
 20
113.5
 30
0.0
 11
393.78824865405181
 21
115.5
 31
0.0
  0
LINE
  5
1B5B
  8
0
 10
393.78824865405181
 20
109.5
 30
0.0
 11
394.94294919243112
 21
111.5
 31
0.0
  0
LINE
  5
1B5C
  8
0
 10
399.5617513459481
 20
115.5
 30
0.0
 11
398.40705080756891
 21
113.5
 31
0.0
  0
ARC
  5
1B5D
  8
0
 10
396.67500000000058
 20
112.4999999999998
 30
0.0
 40
10.000000000000741
 50
162.54239687627901
 51
174.2608295227318
  0
LINE
  5
1B5E
  8
0
 10
384.67500000000001
 20
109.5
 30
0.0
 11
395.17500000000001
 21
109.5
 31
0.0
  0
LINE
  5
1B5F
  8
0
 10
395.17500000000001
 20
115.5
 30
0.0
 11
384.67500000000001
 21
115.5
 31
0.0
  0
LINE
  5
1B60
  8
0
 10
384.67500000000001
 20
111.5
 30
0.0
 11
384.67500000000001
 21
109.5
 31
0.0
  0
LINE
  5
1B61
  8
0
 10
410.17500000000001
 20
117.0
 30
0.0
 11
409.6749999999999
 21
117.5
 31
0.0
  0
LINE
  5
1B63
  8
0
 10
409.6749999999999
 20
117.5
 30
0.0
 11
383.6749999999999
 21
117.5
 31
0.0
  0
LINE
  5
1B64
  8
0
 10
383.6749999999999
 20
117.5
 30
0.0
 11
383.1749999999999
 21
117.0
 31
0.0
  0
LINE
  5
1B65
  8
0
 10
383.1749999999999
 20
117.0
 30
0.0
 11
383.1749999999999
 21
108.0
 31
0.0
  0
LINE
  5
1B66
  8
0
 10
383.1749999999999
 20
108.0
 30
0.0
 11
383.6749999999999
 21
107.5
 31
0.0
  0
LINE
  5
1B67
  8
0
 10
383.6749999999999
 20
107.5
 30
0.0
 11
409.6749999999999
 21
107.5
 31
0.0
  0
LINE
  5
1B68
  8
0
 10
384.67500000000001
 20
115.5
 30
0.0
 11
384.67500000000001
 21
113.5
 31
0.0
  0
LINE
  5
1B69
  8
0
 10
398.1749999999999
 20
115.5
 30
0.0
 11
398.1749999999999
 21
113.5
 31
0.0
  0
LINE
  5
1B6A
  8
0
 10
408.6749999999999
 20
115.5
 30
0.0
 11
398.1749999999999
 21
115.5
 31
0.0
  0
LINE
  5
1B6B
  8
0
 10
398.1749999999999
 20
109.5
 30
0.0
 11
408.6749999999999
 21
109.5
 31
0.0
  0
LINE
  5
1B6C
  8
0
 10
408.6749999999999
 20
113.5
 30
0.0
 11
408.6749999999999
 21
115.5
 31
0.0
  0
LINE
  5
1B6D
  8
0
 10
384.67500000000001
 20
113.5
 30
0.0
 11
387.9249999999999
 21
113.5
 31
0.0
  0
LINE
  5
1B6E
  8
0
 10
391.9249999999999
 20
113.5
 30
0.0
 11
395.17500000000001
 21
113.5
 31
0.0
  0
LINE
  5
1B6F
  8
0
 10
405.4249999999999
 20
113.5
 30
0.0
 11
408.6749999999999
 21
113.5
 31
0.0
  0
LINE
  5
1B70
  8
0
 10
408.6749999999999
 20
111.5
 30
0.0
 11
405.4249999999999
 21
111.5
 31
0.0
  0
LINE
  5
1B71
  8
0
 10
408.6749999999999
 20
109.5
 30
0.0
 11
408.6749999999999
 21
111.5
 31
0.0
  0
LINE
  5
1B72
  8
0
 10
398.1749999999999
 20
111.5
 30
0.0
 11
398.1749999999999
 21
109.5
 31
0.0
  0
LINE
  5
1B73
  8
0
 10
401.4249999999999
 20
111.5
 30
0.0
 11
398.1749999999999
 21
111.5
 31
0.0
  0
LINE
  5
1B74
  8
0
 10
398.1749999999999
 20
113.5
 30
0.0
 11
401.4249999999999
 21
113.5
 31
0.0
  0
LINE
  5
1B75
  8
0
 10
409.6749999999999
 20
107.5
 30
0.0
 11
410.17500000000001
 21
108.0
 31
0.0
  0
LINE
  5
1B76
  8
0
 10
395.17500000000001
 20
111.5
 30
0.0
 11
391.9249999999999
 21
111.5
 31
0.0
  0
LINE
  5
1B77
  8
0
 10
395.17500000000001
 20
109.5
 30
0.0
 11
395.17500000000001
 21
111.5
 31
0.0
  0
LINE
  5
1B78
  8
0
 10
387.9249999999999
 20
111.5
 30
0.0
 11
384.67500000000001
 21
111.5
 31
0.0
  0
LINE
  5
1B79
  8
0
 10
395.17500000000001
 20
113.5
 30
0.0
 11
395.17500000000001
 21
115.5
 31
0.0
  0
LINE
  5
1B7A
  8
0
 10
387.9249999999999
 20
110.5
 30
0.0
 11
391.9249999999999
 21
110.5
 31
0.0
  0
LINE
  5
1B7B
  8
0
 10
391.9249999999999
 20
110.5
 30
0.0
 11
391.9249999999999
 21
114.5
 31
0.0
  0
LINE
  5
1B7C
  8
0
 10
391.9249999999999
 20
114.5
 30
0.0
 11
387.9249999999999
 21
114.5
 31
0.0
  0
LINE
  5
1B7D
  8
0
 10
387.9249999999999
 20
114.5
 30
0.0
 11
387.9249999999999
 21
110.5
 31
0.0
  0
LINE
  5
1B7E
  8
0
 10
401.4249999999999
 20
110.5
 30
0.0
 11
405.4249999999999
 21
110.5
 31
0.0
  0
LINE
  5
1B7F
  8
0
 10
405.4249999999999
 20
110.5
 30
0.0
 11
405.4249999999999
 21
114.5
 31
0.0
  0
LINE
  5
1B80
  8
0
 10
405.4249999999999
 20
114.5
 30
0.0
 11
401.4249999999999
 21
114.5
 31
0.0
  0
LINE
  5
1B81
  8
0
 10
401.4249999999999
 20
114.5
 30
0.0
 11
401.4249999999999
 21
110.5
 31
0.0
  0
ARC
  5
1B82
  8
0
 10
369.6749999999995
 20
112.4999999999996
 30
0.0
 40
10.0000000000006
 50
30.000000000000121
 51
54.26082952273233
  0
ARC
  5
1B83
  8
0
 10
369.67500000000041
 20
112.4999999999996
 30
0.0
 40
10.00000000000059
 50
125.73917047726761
 51
149.99999999999989
  0
LINE
  5
1B84
  8
0
 10
365.63354811567262
 20
117.5
 30
0.0
 11
363.83403741068241
 21
120.61684396980699
 31
0.0
  0
LINE
  5
1B85
  8
0
 10
375.5159625893175
 20
120.61684396980699
 30
0.0
 11
373.7164518843274
 21
117.5
 31
0.0
  0
LINE
  5
1B86
  8
0
 10
365.56608821825142
 20
121.61684396980699
 30
0.0
 11
367.942949192431
 21
117.5
 31
0.0
  0
ARC
  5
1B87
  8
0
 10
369.67500000000001
 20
112.5
 30
0.0
 40
12.49999999999998
 50
23.5781784782023
 51
156.42182152179609
  0
ARC
  5
1B88
  8
0
 10
369.67500000000001
 20
112.5000000000001
 30
0.0
 40
9.9999999999998828
 50
65.739170477265034
 51
114.26082952273489
  0
LINE
  5
1B89
  8
0
 10
371.40705080756891
 20
117.5
 30
0.0
 11
373.78391178174871
 21
121.61684396980699
 31
0.0
  0
ARC
  5
1B8A
  8
0
 10
369.67500000000109
 20
112.50000000000099
 30
0.0
 40
10.00000000000149
 50
210.0000000000019
 51
234.26082952273231
  0
LINE
  5
1B8B
  8
0
 10
363.83403741068241
 20
104.38315603019289
 30
0.0
 11
365.63354811567262
 21
107.5
 31
0.0
  0
LINE
  5
1B8C
  8
0
 10
373.7164518843274
 20
107.5
 30
0.0
 11
375.5159625893175
 21
104.38315603019289
 31
0.0
  0
ARC
  5
1B8D
  8
0
 10
369.67499999999922
 20
112.5000000000006
 30
0.0
 40
10.00000000000097
 50
305.73917047726769
 51
329.99999999999801
  0
ARC
  5
1B8E
  8
0
 10
369.67500000000001
 20
112.5
 30
0.0
 40
12.49999999999998
 50
203.57817847820229
 51
336.42182152179771
  0
LINE
  5
1B8F
  8
0
 10
373.78391178174871
 20
103.38315603019289
 30
0.0
 11
371.40705080756891
 21
107.5
 31
0.0
  0
ARC
  5
1B90
  8
0
 10
369.67500000000001
 20
112.4999999999999
 30
0.0
 40
9.9999999999999574
 50
245.73917047726499
 51
294.26082952273498
  0
LINE
  5
1B91
  8
0
 10
367.942949192431
 20
107.5
 30
0.0
 11
365.56608821825142
 21
103.38315603019289
 31
0.0
  0
LINE
  5
1B92
  8
0
 10
371.40705080756891
 20
111.5
 30
0.0
 11
372.5617513459481
 21
109.5
 31
0.0
  0
ARC
  5
1B93
  8
0
 10
369.67499999999927
 20
112.5000000000002
 30
0.0
 40
10.000000000000769
 50
342.54239687627899
 51
354.26082952273191
  0
ARC
  5
1B94
  8
0
 10
369.67499999999848
 20
112.4999999999996
 30
0.0
 40
10.00000000000157
 50
5.7391704772680949
 51
17.457603123720961
  0
LINE
  5
1B95
  8
0
 10
367.942949192431
 20
113.5
 30
0.0
 11
366.78824865405181
 21
115.5
 31
0.0
  0
ARC
  5
1B96
  8
0
 10
369.67499999999808
 20
112.4999999999998
 30
0.0
 40
9.9999999999982165
 50
185.73917047726641
 51
197.45760312372451
  0
LINE
  5
1B97
  8
0
 10
366.78824865405181
 20
109.5
 30
0.0
 11
367.942949192431
 21
111.5
 31
0.0
  0
LINE
  5
1B98
  8
0
 10
372.5617513459481
 20
115.5
 30
0.0
 11
371.40705080756891
 21
113.5
 31
0.0
  0
ARC
  5
1B99
  8
0
 10
369.67499999999808
 20
112.5000000000002
 30
0.0
 40
9.9999999999981828
 50
162.5423968762754
 51
174.2608295227335
  0
LINE
  5
1B9A
  8
0
 10
357.67500000000001
 20
109.5
 30
0.0
 11
368.17500000000001
 21
109.5
 31
0.0
  0
LINE
  5
1B9B
  8
0
 10
383.1749999999999
 20
117.0
 30
0.0
 11
382.67500000000001
 21
117.5
 31
0.0
  0
LINE
  5
1B9C
  8
0
 10
368.17500000000001
 20
115.5
 30
0.0
 11
357.67500000000001
 21
115.5
 31
0.0
  0
LINE
  5
1B9D
  8
0
 10
357.67500000000001
 20
111.5
 30
0.0
 11
357.67500000000001
 21
109.5
 31
0.0
  0
LINE
  5
1B9E
  8
0
 10
368.17500000000001
 20
111.5
 30
0.0
 11
364.9249999999999
 21
111.5
 31
0.0
  0
LINE
  5
1B9F
  8
0
 10
360.9249999999999
 20
111.5
 30
0.0
 11
357.67500000000001
 21
111.5
 31
0.0
  0
LINE
  5
1BA0
  8
0
 10
382.67500000000001
 20
117.5
 30
0.0
 11
356.6749999999999
 21
117.5
 31
0.0
  0
LINE
  5
1BA1
  8
0
 10
381.6749999999999
 20
113.5
 30
0.0
 11
381.6749999999999
 21
115.5
 31
0.0
  0
LINE
  5
1BA2
  8
0
 10
357.67500000000001
 20
113.5
 30
0.0
 11
360.9249999999999
 21
113.5
 31
0.0
  0
LINE
  5
1BA3
  8
0
 10
364.9249999999999
 20
113.5
 30
0.0
 11
368.17500000000001
 21
113.5
 31
0.0
  0
LINE
  5
1BA4
  8
0
 10
356.6749999999999
 20
117.5
 30
0.0
 11
356.1749999999999
 21
117.0
 31
0.0
  0
LINE
  5
1BA5
  8
0
 10
356.1749999999999
 20
117.0
 30
0.0
 11
356.1749999999999
 21
108.0
 31
0.0
  0
LINE
  5
1BA6
  8
0
 10
356.1749999999999
 20
108.0
 30
0.0
 11
356.6749999999999
 21
107.5
 31
0.0
  0
LINE
  5
1BA7
  8
0
 10
356.6749999999999
 20
107.5
 30
0.0
 11
382.67500000000001
 21
107.5
 31
0.0
  0
LINE
  5
1BA8
  8
0
 10
357.67500000000001
 20
115.5
 30
0.0
 11
357.67500000000001
 21
113.5
 31
0.0
  0
LINE
  5
1BA9
  8
0
 10
371.1749999999999
 20
115.5
 30
0.0
 11
371.1749999999999
 21
113.5
 31
0.0
  0
LINE
  5
1BAA
  8
0
 10
381.6749999999999
 20
115.5
 30
0.0
 11
371.1749999999999
 21
115.5
 31
0.0
  0
LINE
  5
1BAB
  8
0
 10
371.1749999999999
 20
109.5
 30
0.0
 11
381.6749999999999
 21
109.5
 31
0.0
  0
LINE
  5
1BAC
  8
0
 10
371.1749999999999
 20
111.5
 30
0.0
 11
371.1749999999999
 21
109.5
 31
0.0
  0
LINE
  5
1BAD
  8
0
 10
368.17500000000001
 20
109.5
 30
0.0
 11
368.17500000000001
 21
111.5
 31
0.0
  0
LINE
  5
1BAE
  8
0
 10
381.6749999999999
 20
109.5
 30
0.0
 11
381.6749999999999
 21
111.5
 31
0.0
  0
LINE
  5
1BAF
  8
0
 10
382.67500000000001
 20
107.5
 30
0.0
 11
383.1749999999999
 21
108.0
 31
0.0
  0
LINE
  5
1BB1
  8
0
 10
371.1749999999999
 20
113.5
 30
0.0
 11
374.42500000000001
 21
113.5
 31
0.0
  0
LINE
  5
1BB2
  8
0
 10
378.42500000000001
 20
113.5
 30
0.0
 11
381.6749999999999
 21
113.5
 31
0.0
  0
LINE
  5
1BB3
  8
0
 10
381.6749999999999
 20
111.5
 30
0.0
 11
378.42500000000001
 21
111.5
 31
0.0
  0
LINE
  5
1BB4
  8
0
 10
374.42500000000001
 20
111.5
 30
0.0
 11
371.1749999999999
 21
111.5
 31
0.0
  0
LINE
  5
1BB5
  8
0
 10
368.17500000000001
 20
113.5
 30
0.0
 11
368.17500000000001
 21
115.5
 31
0.0
  0
LINE
  5
1BB6
  8
0
 10
360.9249999999999
 20
110.5
 30
0.0
 11
364.9249999999999
 21
110.5
 31
0.0
  0
LINE
  5
1BB7
  8
0
 10
364.9249999999999
 20
110.5
 30
0.0
 11
364.9249999999999
 21
114.5
 31
0.0
  0
LINE
  5
1BB8
  8
0
 10
364.9249999999999
 20
114.5
 30
0.0
 11
360.9249999999999
 21
114.5
 31
0.0
  0
LINE
  5
1BB9
  8
0
 10
360.9249999999999
 20
114.5
 30
0.0
 11
360.9249999999999
 21
110.5
 31
0.0
  0
LINE
  5
1BBA
  8
0
 10
374.42500000000001
 20
110.5
 30
0.0
 11
378.42500000000001
 21
110.5
 31
0.0
  0
LINE
  5
1BBB
  8
0
 10
378.42500000000001
 20
110.5
 30
0.0
 11
378.42500000000001
 21
114.5
 31
0.0
  0
LINE
  5
1BBC
  8
0
 10
378.42500000000001
 20
114.5
 30
0.0
 11
374.42500000000001
 21
114.5
 31
0.0
  0
LINE
  5
1BBD
  8
0
 10
374.42500000000001
 20
114.5
 30
0.0
 11
374.42500000000001
 21
110.5
 31
0.0
  0
ARC
  5
1BBE
  8
0
 10
342.67500000000098
 20
112.50000000000099
 30
0.0
 40
10.00000000000149
 50
210.0000000000019
 51
234.26082952273231
  0
LINE
  5
1BBF
  8
0
 10
336.83403741068253
 20
104.38315603019289
 30
0.0
 11
338.63354811567251
 21
107.5
 31
0.0
  0
LINE
  5
1BC0
  8
0
 10
346.7164518843274
 20
107.5
 30
0.0
 11
348.51596258931738
 21
104.38315603019289
 31
0.0
  0
ARC
  5
1BC1
  8
0
 10
342.67500000000092
 20
112.4999999999991
 30
0.0
 40
9.9999999999987512
 50
305.73917047726769
 51
330.0000000000021
  0
ARC
  5
1BC2
  8
0
 10
342.67500000000001
 20
112.5
 30
0.0
 40
12.49999999999998
 50
203.57817847820229
 51
336.42182152179771
  0
LINE
  5
1BC3
  8
0
 10
346.7839117817486
 20
103.38315603019289
 30
0.0
 11
344.40705080756891
 21
107.5
 31
0.0
  0
ARC
  5
1BC4
  8
0
 10
342.67500000000001
 20
112.4999999999999
 30
0.0
 40
9.9999999999999574
 50
245.73917047726499
 51
294.26082952273498
  0
LINE
  5
1BC5
  8
0
 10
340.942949192431
 20
107.5
 30
0.0
 11
338.56608821825142
 21
103.38315603019289
 31
0.0
  0
ARC
  5
1BC6
  8
0
 10
342.6750000000003
 20
112.5000000000001
 30
0.0
 40
9.999999999999698
 50
30.000000000000121
 51
54.26082952273233
  0
LINE
  5
1BC7
  8
0
 10
338.63354811567251
 20
117.5
 30
0.0
 11
336.83403741068253
 21
120.61684396980699
 31
0.0
  0
ARC
  5
1BC8
  8
0
 10
342.67500000000041
 20
112.4999999999996
 30
0.0
 40
10.00000000000059
 50
125.73917047726761
 51
149.99999999999989
  0
LINE
  5
1BC9
  8
0
 10
348.51596258931738
 20
120.61684396980699
 30
0.0
 11
346.7164518843274
 21
117.5
 31
0.0
  0
ARC
  5
1BCA
  8
0
 10
342.67500000000001
 20
112.5
 30
0.0
 40
12.49999999999998
 50
23.5781784782023
 51
156.42182152179609
  0
LINE
  5
1BCB
  8
0
 10
338.56608821825142
 20
121.61684396980699
 30
0.0
 11
340.942949192431
 21
117.5
 31
0.0
  0
ARC
  5
1BCC
  8
0
 10
342.67500000000001
 20
112.5000000000001
 30
0.0
 40
9.9999999999998828
 50
65.739170477265034
 51
114.26082952273489
  0
LINE
  5
1BCD
  8
0
 10
344.40705080756891
 20
117.5
 30
0.0
 11
346.7839117817486
 21
121.61684396980699
 31
0.0
  0
LINE
  5
1BCE
  8
0
 10
344.40705080756891
 20
111.5
 30
0.0
 11
345.56175134594798
 21
109.5
 31
0.0
  0
ARC
  5
1BCF
  8
0
 10
342.67499999999848
 20
112.4999999999996
 30
0.0
 40
10.00000000000157
 50
5.7391704772680949
 51
17.457603123720961
  0
ARC
  5
1BD0
  8
0
 10
342.67500000000058
 20
112.4999999999998
 30
0.0
 40
10.000000000000741
 50
162.54239687627901
 51
174.2608295227318
  0
LINE
  5
1BD1
  8
0
 10
340.942949192431
 20
113.5
 30
0.0
 11
339.78824865405193
 21
115.5
 31
0.0
  0
ARC
  5
1BD2
  8
0
 10
342.67500000000177
 20
112.5000000000004
 30
0.0
 40
10.000000000001871
 50
185.73917047726809
 51
197.45760312371931
  0
ARC
  5
1BD3
  8
0
 10
342.6750000000045
 20
112.4999999999991
 30
0.0
 40
9.9999999999954596
 50
342.54239687627393
 51
354.26082952273521
  0
LINE
  5
1BD4
  8
0
 10
339.78824865405193
 20
109.5
 30
0.0
 11
340.942949192431
 21
111.5
 31
0.0
  0
LINE
  5
1BD5
  8
0
 10
345.56175134594798
 20
115.5
 30
0.0
 11
344.40705080756891
 21
113.5
 31
0.0
  0
LINE
  5
1BD6
  8
0
 10
330.67500000000001
 20
109.5
 30
0.0
 11
341.17500000000001
 21
109.5
 31
0.0
  0
LINE
  5
1BD7
  8
0
 10
356.1749999999999
 20
117.0
 30
0.0
 11
355.67500000000001
 21
117.5
 31
0.0
  0
LINE
  5
1BD8
  8
0
 10
355.67500000000001
 20
117.5
 30
0.0
 11
329.6749999999999
 21
117.5
 31
0.0
  0
LINE
  5
1BD9
  8
0
 10
329.6749999999999
 20
117.5
 30
0.0
 11
329.1749999999999
 21
117.0
 31
0.0
  0
LINE
  5
1BDA
  8
0
 10
341.17500000000001
 20
115.5
 30
0.0
 11
330.67500000000001
 21
115.5
 31
0.0
  0
LINE
  5
1BDB
  8
0
 10
330.67500000000001
 20
111.5
 30
0.0
 11
330.67500000000001
 21
109.5
 31
0.0
  0
LINE
  5
1BDC
  8
0
 10
341.17500000000001
 20
111.5
 30
0.0
 11
337.9249999999999
 21
111.5
 31
0.0
  0
LINE
  5
1BDD
  8
0
 10
333.92500000000001
 20
111.5
 30
0.0
 11
330.67500000000001
 21
111.5
 31
0.0
  0
LINE
  5
1BDE
  8
0
 10
329.1749999999999
 20
117.0
 30
0.0
 11
329.1749999999999
 21
108.0
 31
0.0
  0
LINE
  5
1BDF
  8
0
 10
329.1749999999999
 20
108.0
 30
0.0
 11
329.6749999999999
 21
107.5
 31
0.0
  0
LINE
  5
1BE0
  8
0
 10
329.6749999999999
 20
107.5
 30
0.0
 11
355.67500000000001
 21
107.5
 31
0.0
  0
LINE
  5
1BE1
  8
0
 10
330.67500000000001
 20
115.5
 30
0.0
 11
330.67500000000001
 21
113.5
 31
0.0
  0
LINE
  5
1BE2
  8
0
 10
344.1749999999999
 20
115.5
 30
0.0
 11
344.1749999999999
 21
113.5
 31
0.0
  0
LINE
  5
1BE3
  8
0
 10
354.6749999999999
 20
115.5
 30
0.0
 11
344.1749999999999
 21
115.5
 31
0.0
  0
LINE
  5
1BE4
  8
0
 10
344.1749999999999
 20
109.5
 30
0.0
 11
354.6749999999999
 21
109.5
 31
0.0
  0
LINE
  5
1BE5
  8
0
 10
344.1749999999999
 20
111.5
 30
0.0
 11
344.1749999999999
 21
109.5
 31
0.0
  0
LINE
  5
1BE6
  8
0
 10
354.6749999999999
 20
113.5
 30
0.0
 11
354.6749999999999
 21
115.5
 31
0.0
  0
LINE
  5
1BE7
  8
0
 10
330.67500000000001
 20
113.5
 30
0.0
 11
333.92500000000001
 21
113.5
 31
0.0
  0
LINE
  5
1BE8
  8
0
 10
337.9249999999999
 20
113.5
 30
0.0
 11
341.17500000000001
 21
113.5
 31
0.0
  0
LINE
  5
1BE9
  8
0
 10
344.1749999999999
 20
113.5
 30
0.0
 11
347.42500000000001
 21
113.5
 31
0.0
  0
LINE
  5
1BEA
  8
0
 10
351.42500000000001
 20
113.5
 30
0.0
 11
354.6749999999999
 21
113.5
 31
0.0
  0
LINE
  5
1BEB
  8
0
 10
354.6749999999999
 20
111.5
 30
0.0
 11
351.42500000000001
 21
111.5
 31
0.0
  0
LINE
  5
1BEC
  8
0
 10
347.42500000000001
 20
111.5
 30
0.0
 11
344.1749999999999
 21
111.5
 31
0.0
  0
LINE
  5
1BED
  8
0
 10
341.17500000000001
 20
109.5
 30
0.0
 11
341.17500000000001
 21
111.5
 31
0.0
  0
LINE
  5
1BEE
  8
0
 10
354.6749999999999
 20
109.5
 30
0.0
 11
354.6749999999999
 21
111.5
 31
0.0
  0
LINE
  5
1BF0
  8
0
 10
341.17500000000001
 20
113.5
 30
0.0
 11
341.17500000000001
 21
115.5
 31
0.0
  0
LINE
  5
1BF1
  8
0
 10
355.67500000000001
 20
107.5
 30
0.0
 11
356.1749999999999
 21
108.0
 31
0.0
  0
LINE
  5
1BF2
  8
0
 10
347.42500000000001
 20
110.5
 30
0.0
 11
351.42500000000001
 21
110.5
 31
0.0
  0
LINE
  5
1BF3
  8
0
 10
351.42500000000001
 20
110.5
 30
0.0
 11
351.42500000000001
 21
114.5
 31
0.0
  0
LINE
  5
1BF4
  8
0
 10
351.42500000000001
 20
114.5
 30
0.0
 11
347.42500000000001
 21
114.5
 31
0.0
  0
LINE
  5
1BF5
  8
0
 10
347.42500000000001
 20
114.5
 30
0.0
 11
347.42500000000001
 21
110.5
 31
0.0
  0
LINE
  5
1BF6
  8
0
 10
333.92500000000001
 20
110.5
 30
0.0
 11
337.9249999999999
 21
110.5
 31
0.0
  0
LINE
  5
1BF7
  8
0
 10
337.9249999999999
 20
110.5
 30
0.0
 11
337.9249999999999
 21
114.5
 31
0.0
  0
LINE
  5
1BF8
  8
0
 10
337.9249999999999
 20
114.5
 30
0.0
 11
333.92500000000001
 21
114.5
 31
0.0
  0
LINE
  5
1BF9
  8
0
 10
333.92500000000001
 20
114.5
 30
0.0
 11
333.92500000000001
 21
110.5
 31
0.0
  0
ARC
  5
1BFA
  8
0
 10
315.67500000000052
 20
112.5000000000006
 30
0.0
 40
9.9999999999991367
 50
29.9999999999979
 51
54.26082952273233
  0
ARC
  5
1BFB
  8
0
 10
315.67500000000013
 20
112.4999999999999
 30
0.0
 40
10.000000000000149
 50
125.73917047726761
 51
149.99999999999989
  0
LINE
  5
1BFC
  8
0
 10
311.63354811567251
 20
117.5
 30
0.0
 11
309.83403741068253
 21
120.61684396980699
 31
0.0
  0
LINE
  5
1BFD
  8
0
 10
321.51596258931738
 20
120.61684396980699
 30
0.0
 11
319.7164518843274
 21
117.5
 31
0.0
  0
LINE
  5
1BFE
  8
0
 10
311.56608821825142
 20
121.61684396980699
 30
0.0
 11
313.942949192431
 21
117.5
 31
0.0
  0
ARC
  5
1BFF
  8
0
 10
315.67500000000001
 20
112.5
 30
0.0
 40
12.49999999999998
 50
23.5781784782023
 51
156.42182152179609
  0
ARC
  5
1C00
  8
0
 10
315.67500000000001
 20
112.5000000000001
 30
0.0
 40
9.9999999999998828
 50
65.739170477265034
 51
114.26082952273489
  0
LINE
  5
1C01
  8
0
 10
317.40705080756891
 20
117.5
 30
0.0
 11
319.7839117817486
 21
121.61684396980699
 31
0.0
  0
ARC
  5
1C02
  8
0
 10
315.67500000000081
 20
112.5000000000008
 30
0.0
 40
10.00000000000111
 50
210.0000000000019
 51
234.26082952273231
  0
LINE
  5
1C03
  8
0
 10
309.83403741068253
 20
104.38315603019289
 30
0.0
 11
311.63354811567251
 21
107.5
 31
0.0
  0
ARC
  5
1C04
  8
0
 10
315.6750000000003
 20
112.4999999999996
 30
0.0
 40
9.9999999999995843
 50
305.73917047726769
 51
329.99999999999852
  0
LINE
  5
1C05
  8
0
 10
319.7164518843274
 20
107.5
 30
0.0
 11
321.51596258931738
 21
104.38315603019289
 31
0.0
  0
ARC
  5
1C06
  8
0
 10
315.67500000000001
 20
112.5
 30
0.0
 40
12.5
 50
203.57817847820229
 51
336.42182152179771
  0
LINE
  5
1C07
  8
0
 10
319.7839117817486
 20
103.38315603019289
 30
0.0
 11
317.40705080756891
 21
107.5
 31
0.0
  0
ARC
  5
1C08
  8
0
 10
315.67500000000001
 20
112.4999999999999
 30
0.0
 40
9.9999999999999574
 50
245.73917047726499
 51
294.26082952273498
  0
LINE
  5
1C09
  8
0
 10
313.942949192431
 20
107.5
 30
0.0
 11
311.56608821825142
 21
103.38315603019289
 31
0.0
  0
LINE
  5
1C0A
  8
0
 10
317.40705080756891
 20
111.5
 30
0.0
 11
318.56175134594798
 21
109.5
 31
0.0
  0
ARC
  5
1C0B
  8
0
 10
315.67499999999848
 20
112.4999999999996
 30
0.0
 40
10.00000000000157
 50
5.7391704772680949
 51
17.457603123720961
  0
LINE
  5
1C0C
  8
0
 10
318.56175134594798
 20
115.5
 30
0.0
 11
317.40705080756891
 21
113.5
 31
0.0
  0
LINE
  5
1C0D
  8
0
 10
313.942949192431
 20
113.5
 30
0.0
 11
312.78824865405193
 21
115.5
 31
0.0
  0
ARC
  5
1C0E
  8
0
 10
315.67499999999859
 20
112.4999999999998
 30
0.0
 40
9.999999999998689
 50
185.73917047726641
 51
197.45760312372269
  0
ARC
  5
1C0F
  8
0
 10
315.67499999999927
 20
112.5000000000002
 30
0.0
 40
10.000000000000769
 50
342.54239687627899
 51
354.26082952273191
  0
LINE
  5
1C10
  8
0
 10
312.78824865405193
 20
109.5
 30
0.0
 11
313.942949192431
 21
111.5
 31
0.0
  0
ARC
  5
1C11
  8
0
 10
315.67499999999819
 20
112.5000000000003
 30
0.0
 40
9.9999999999982911
 50
162.5423968762754
 51
174.2608295227335
  0
LINE
  5
1C12
  8
0
 10
303.67500000000001
 20
111.5
 30
0.0
 11
303.67500000000001
 21
109.5
 31
0.0
  0
LINE
  5
1C13
  8
0
 10
327.67500000000001
 20
111.5
 30
0.0
 11
324.42500000000001
 21
111.5
 31
0.0
  0
LINE
  5
1C14
  8
0
 10
320.42500000000001
 20
111.5
 30
0.0
 11
317.1749999999999
 21
111.5
 31
0.0
  0
LINE
  5
1C15
  8
0
 10
328.67500000000001
 20
117.5
 30
0.0
 11
302.67500000000001
 21
117.5
 31
0.0
  0
LINE
  5
1C16
  8
0
 10
329.1749999999999
 20
117.0
 30
0.0
 11
328.67500000000001
 21
117.5
 31
0.0
  0
LINE
  5
1C17
  8
0
 10
302.67500000000001
 20
117.5
 30
0.0
 11
302.1749999999999
 21
117.0
 31
0.0
  0
LINE
  5
1C18
  8
0
 10
302.1749999999999
 20
117.0
 30
0.0
 11
302.1749999999999
 21
108.0
 31
0.0
  0
LINE
  5
1C19
  8
0
 10
303.67500000000001
 20
109.5
 30
0.0
 11
314.17500000000001
 21
109.5
 31
0.0
  0
LINE
  5
1C1A
  8
0
 10
317.1749999999999
 20
115.5
 30
0.0
 11
317.1749999999999
 21
113.5
 31
0.0
  0
LINE
  5
1C1B
  8
0
 10
314.17500000000001
 20
111.5
 30
0.0
 11
310.9249999999999
 21
111.5
 31
0.0
  0
LINE
  5
1C1C
  8
0
 10
306.92500000000001
 20
111.5
 30
0.0
 11
303.67500000000001
 21
111.5
 31
0.0
  0
LINE
  5
1C1D
  8
0
 10
327.67500000000001
 20
113.5
 30
0.0
 11
327.67500000000001
 21
115.5
 31
0.0
  0
LINE
  5
1C1E
  8
0
 10
303.67500000000001
 20
113.5
 30
0.0
 11
306.92500000000001
 21
113.5
 31
0.0
  0
LINE
  5
1C1F
  8
0
 10
310.9249999999999
 20
113.5
 30
0.0
 11
314.17500000000001
 21
113.5
 31
0.0
  0
LINE
  5
1C20
  8
0
 10
317.1749999999999
 20
113.5
 30
0.0
 11
320.42500000000001
 21
113.5
 31
0.0
  0
LINE
  5
1C21
  8
0
 10
324.42500000000001
 20
113.5
 30
0.0
 11
327.67500000000001
 21
113.5
 31
0.0
  0
LINE
  5
1C22
  8
0
 10
302.1749999999999
 20
108.0
 30
0.0
 11
302.67500000000001
 21
107.5
 31
0.0
  0
LINE
  5
1C23
  8
0
 10
302.67500000000001
 20
107.5
 30
0.0
 11
328.67500000000001
 21
107.5
 31
0.0
  0
LINE
  5
1C24
  8
0
 10
303.67500000000001
 20
115.5
 30
0.0
 11
303.67500000000001
 21
113.5
 31
0.0
  0
LINE
  5
1C25
  8
0
 10
314.17500000000001
 20
115.5
 30
0.0
 11
303.67500000000001
 21
115.5
 31
0.0
  0
LINE
  5
1C26
  8
0
 10
327.67500000000001
 20
115.5
 30
0.0
 11
317.1749999999999
 21
115.5
 31
0.0
  0
LINE
  5
1C27
  8
0
 10
317.1749999999999
 20
109.5
 30
0.0
 11
327.67500000000001
 21
109.5
 31
0.0
  0
LINE
  5
1C28
  8
0
 10
317.1749999999999
 20
111.5
 30
0.0
 11
317.1749999999999
 21
109.5
 31
0.0
  0
LINE
  5
1C29
  8
0
 10
314.17500000000001
 20
109.5
 30
0.0
 11
314.17500000000001
 21
111.5
 31
0.0
  0
LINE
  5
1C2A
  8
0
 10
327.67500000000001
 20
109.5
 30
0.0
 11
327.67500000000001
 21
111.5
 31
0.0
  0
LINE
  5
1C2C
  8
0
 10
328.67500000000001
 20
107.5
 30
0.0
 11
329.1749999999999
 21
108.0
 31
0.0
  0
LINE
  5
1C2D
  8
0
 10
314.17500000000001
 20
113.5
 30
0.0
 11
314.17500000000001
 21
115.5
 31
0.0
  0
LINE
  5
1C2E
  8
0
 10
306.92500000000001
 20
110.5
 30
0.0
 11
310.9249999999999
 21
110.5
 31
0.0
  0
LINE
  5
1C2F
  8
0
 10
310.9249999999999
 20
110.5
 30
0.0
 11
310.9249999999999
 21
114.5
 31
0.0
  0
LINE
  5
1C30
  8
0
 10
310.9249999999999
 20
114.5
 30
0.0
 11
306.92500000000001
 21
114.5
 31
0.0
  0
LINE
  5
1C31
  8
0
 10
306.92500000000001
 20
114.5
 30
0.0
 11
306.92500000000001
 21
110.5
 31
0.0
  0
LINE
  5
1C32
  8
0
 10
320.42500000000001
 20
110.5
 30
0.0
 11
324.42500000000001
 21
110.5
 31
0.0
  0
LINE
  5
1C33
  8
0
 10
324.42500000000001
 20
110.5
 30
0.0
 11
324.42500000000001
 21
114.5
 31
0.0
  0
LINE
  5
1C34
  8
0
 10
324.42500000000001
 20
114.5
 30
0.0
 11
320.42500000000001
 21
114.5
 31
0.0
  0
LINE
  5
1C35
  8
0
 10
320.42500000000001
 20
114.5
 30
0.0
 11
320.42500000000001
 21
110.5
 31
0.0
  0
ARC
  5
1C36
  8
0
 10
288.67499999999939
 20
112.5000000000004
 30
0.0
 40
9.9999999999993499
 50
125.73917047726761
 51
149.99999999999989
  0
ARC
  5
1C37
  8
0
 10
288.67500000000018
 20
112.5000000000001
 30
0.0
 40
9.9999999999997513
 50
30.000000000000121
 51
54.26082952273233
  0
LINE
  5
1C38
  8
0
 10
284.63354811567251
 20
117.5
 30
0.0
 11
282.83403741068253
 21
120.61684396980699
 31
0.0
  0
LINE
  5
1C39
  8
0
 10
294.51596258931738
 20
120.61684396980699
 30
0.0
 11
292.7164518843274
 21
117.5
 31
0.0
  0
LINE
  5
1C3A
  8
0
 10
284.5660882182512
 20
121.61684396980699
 30
0.0
 11
286.94294919243112
 21
117.5
 31
0.0
  0
LINE
  5
1C3B
  8
0
 10
290.40705080756891
 20
117.5
 30
0.0
 11
292.7839117817486
 21
121.61684396980699
 31
0.0
  0
ARC
  5
1C3C
  8
0
 10
288.67500000000001
 20
112.5
 30
0.0
 40
12.5
 50
23.5781784782023
 51
156.42182152179609
  0
ARC
  5
1C3D
  8
0
 10
288.67500000000001
 20
112.4999999999999
 30
0.0
 40
10.00000000000003
 50
65.739170477265034
 51
114.2608295227313
  0
ARC
  5
1C3E
  8
0
 10
288.67500000000001
 20
112.5
 30
0.0
 40
9.9999999999999911
 50
305.73917047726769
 51
329.99999999999852
  0
ARC
  5
1C3F
  8
0
 10
288.67499999999973
 20
112.4999999999998
 30
0.0
 40
9.9999999999997513
 50
210.00000000000011
 51
234.26082952273231
  0
LINE
  5
1C40
  8
0
 10
282.83403741068253
 20
104.38315603019289
 30
0.0
 11
284.63354811567251
 21
107.5
 31
0.0
  0
LINE
  5
1C41
  8
0
 10
292.7164518843274
 20
107.5
 30
0.0
 11
294.51596258931738
 21
104.38315603019289
 31
0.0
  0
ARC
  5
1C42
  8
0
 10
288.67500000000001
 20
112.5
 30
0.0
 40
12.5
 50
203.57817847820229
 51
336.42182152179771
  0
LINE
  5
1C43
  8
0
 10
292.7839117817486
 20
103.38315603019289
 30
0.0
 11
290.40705080756891
 21
107.5
 31
0.0
  0
ARC
  5
1C44
  8
0
 10
288.67500000000001
 20
112.4999999999999
 30
0.0
 40
9.9999999999999662
 50
245.73917047726499
 51
294.26082952273498
  0
LINE
  5
1C45
  8
0
 10
286.94294919243112
 20
107.5
 30
0.0
 11
284.5660882182512
 21
103.38315603019289
 31
0.0
  0
ARC
  5
1C46
  8
0
 10
288.67499999999848
 20
112.4999999999996
 30
0.0
 40
10.00000000000156
 50
5.7391704772680949
 51
17.457603123720961
  0
LINE
  5
1C47
  8
0
 10
291.56175134594798
 20
115.5
 30
0.0
 11
290.40705080756891
 21
113.5
 31
0.0
  0
LINE
  5
1C48
  8
0
 10
290.40705080756891
 20
111.5
 30
0.0
 11
291.56175134594798
 21
109.5
 31
0.0
  0
LINE
  5
1C49
  8
0
 10
285.78824865405193
 20
109.5
 30
0.0
 11
286.94294919243112
 21
111.5
 31
0.0
  0
ARC
  5
1C4A
  8
0
 10
288.67499999999859
 20
112.5000000000003
 30
0.0
 40
10.00000000000132
 50
342.54239687627899
 51
354.26082952273191
  0
ARC
  5
1C4B
  8
0
 10
288.67499999999978
 20
112.5
 30
0.0
 40
9.9999999999999236
 50
162.54239687627901
 51
174.2608295227335
  0
LINE
  5
1C4C
  8
0
 10
286.94294919243112
 20
113.5
 30
0.0
 11
285.78824865405193
 21
115.5
 31
0.0
  0
ARC
  5
1C4D
  8
0
 10
288.67500000000001
 20
112.5
 30
0.0
 40
9.999999999999984
 50
185.73917047726641
 51
197.45760312371931
  0
LINE
  5
1C4E
  8
0
 10
302.1749999999999
 20
117.0
 30
0.0
 11
301.67500000000001
 21
117.5
 31
0.0
  0
LINE
  5
1C4F
  8
0
 10
276.67500000000001
 20
111.5
 30
0.0
 11
276.67500000000001
 21
109.5
 31
0.0
  0
LINE
  5
1C50
  8
0
 10
276.67500000000001
 20
109.5
 30
0.0
 11
287.17500000000001
 21
109.5
 31
0.0
  0
LINE
  5
1C51
  8
0
 10
301.67500000000001
 20
117.5
 30
0.0
 11
275.67500000000001
 21
117.5
 31
0.0
  0
LINE
  5
1C52
  8
0
 10
275.67500000000001
 20
117.5
 30
0.0
 11
275.1749999999999
 21
117.0
 31
0.0
  0
LINE
  5
1C53
  8
0
 10
290.1749999999999
 20
115.5
 30
0.0
 11
290.1749999999999
 21
113.5
 31
0.0
  0
LINE
  5
1C54
  8
0
 10
275.1749999999999
 20
117.0
 30
0.0
 11
275.1749999999999
 21
108.0
 31
0.0
  0
LINE
  5
1C55
  8
0
 10
275.1749999999999
 20
108.0
 30
0.0
 11
275.67500000000001
 21
107.5
 31
0.0
  0
LINE
  5
1C56
  8
0
 10
275.67500000000001
 20
107.5
 30
0.0
 11
301.67500000000001
 21
107.5
 31
0.0
  0
LINE
  5
1C57
  8
0
 10
276.67500000000001
 20
115.5
 30
0.0
 11
276.67500000000001
 21
113.5
 31
0.0
  0
LINE
  5
1C58
  8
0
 10
287.17500000000001
 20
115.5
 30
0.0
 11
276.67500000000001
 21
115.5
 31
0.0
  0
LINE
  5
1C59
  8
0
 10
300.67500000000001
 20
115.5
 30
0.0
 11
290.1749999999999
 21
115.5
 31
0.0
  0
LINE
  5
1C5A
  8
0
 10
290.1749999999999
 20
109.5
 30
0.0
 11
300.67500000000001
 21
109.5
 31
0.0
  0
LINE
  5
1C5B
  8
0
 10
290.1749999999999
 20
111.5
 30
0.0
 11
290.1749999999999
 21
109.5
 31
0.0
  0
LINE
  5
1C5C
  8
0
 10
297.4249999999999
 20
113.5
 30
0.0
 11
300.67500000000001
 21
113.5
 31
0.0
  0
LINE
  5
1C5D
  8
0
 10
300.67500000000001
 20
111.5
 30
0.0
 11
297.4249999999999
 21
111.5
 31
0.0
  0
LINE
  5
1C5E
  8
0
 10
300.67500000000001
 20
109.5
 30
0.0
 11
300.67500000000001
 21
111.5
 31
0.0
  0
LINE
  5
1C5F
  8
0
 10
293.42500000000001
 20
111.5
 30
0.0
 11
290.1749999999999
 21
111.5
 31
0.0
  0
LINE
  5
1C60
  8
0
 10
290.1749999999999
 20
113.5
 30
0.0
 11
293.42500000000001
 21
113.5
 31
0.0
  0
LINE
  5
1C61
  8
0
 10
300.67500000000001
 20
113.5
 30
0.0
 11
300.67500000000001
 21
115.5
 31
0.0
  0
LINE
  5
1C63
  8
0
 10
301.67500000000001
 20
107.5
 30
0.0
 11
302.1749999999999
 21
108.0
 31
0.0
  0
LINE
  5
1C64
  8
0
 10
283.9249999999999
 20
113.5
 30
0.0
 11
287.17500000000001
 21
113.5
 31
0.0
  0
LINE
  5
1C65
  8
0
 10
287.17500000000001
 20
111.5
 30
0.0
 11
283.9249999999999
 21
111.5
 31
0.0
  0
LINE
  5
1C66
  8
0
 10
287.17500000000001
 20
109.5
 30
0.0
 11
287.17500000000001
 21
111.5
 31
0.0
  0
LINE
  5
1C67
  8
0
 10
279.92500000000001
 20
111.5
 30
0.0
 11
276.67500000000001
 21
111.5
 31
0.0
  0
LINE
  5
1C68
  8
0
 10
276.67500000000001
 20
113.5
 30
0.0
 11
279.92500000000001
 21
113.5
 31
0.0
  0
LINE
  5
1C69
  8
0
 10
287.17500000000001
 20
113.5
 30
0.0
 11
287.17500000000001
 21
115.5
 31
0.0
  0
LINE
  5
1C6A
  8
0
 10
283.9249999999999
 20
110.5
 30
0.0
 11
283.9249999999999
 21
114.5
 31
0.0
  0
LINE
  5
1C6B
  8
0
 10
283.9249999999999
 20
114.5
 30
0.0
 11
279.92500000000001
 21
114.5
 31
0.0
  0
LINE
  5
1C6C
  8
0
 10
279.92500000000001
 20
114.5
 30
0.0
 11
279.92500000000001
 21
110.5
 31
0.0
  0
LINE
  5
1C6D
  8
0
 10
279.92500000000001
 20
110.5
 30
0.0
 11
283.9249999999999
 21
110.5
 31
0.0
  0
LINE
  5
1C6E
  8
0
 10
297.4249999999999
 20
110.5
 30
0.0
 11
297.4249999999999
 21
114.5
 31
0.0
  0
LINE
  5
1C6F
  8
0
 10
293.42500000000001
 20
110.5
 30
0.0
 11
297.4249999999999
 21
110.5
 31
0.0
  0
LINE
  5
1C70
  8
0
 10
297.4249999999999
 20
114.5
 30
0.0
 11
293.42500000000001
 21
114.5
 31
0.0
  0
LINE
  5
1C71
  8
0
 10
293.42500000000001
 20
114.5
 30
0.0
 11
293.42500000000001
 21
110.5
 31
0.0
  0
ARC
  5
1C72
  8
0
 10
261.67499999999978
 20
112.4999999999998
 30
0.0
 40
9.9999999999997513
 50
210.00000000000011
 51
234.26082952273231
  0
ARC
  5
1C73
  8
0
 10
261.67499999999973
 20
112.5000000000002
 30
0.0
 40
10.00000000000029
 50
305.73917047726769
 51
329.99999999999801
  0
LINE
  5
1C74
  8
0
 10
255.83403741068241
 20
104.38315603019289
 30
0.0
 11
257.63354811567262
 21
107.5
 31
0.0
  0
LINE
  5
1C75
  8
0
 10
265.71645188432728
 20
107.5
 30
0.0
 11
267.5159625893175
 21
104.38315603019289
 31
0.0
  0
LINE
  5
1C76
  8
0
 10
259.94294919243112
 20
107.5
 30
0.0
 11
257.56608821825131
 21
103.38315603019289
 31
0.0
  0
ARC
  5
1C77
  8
0
 10
261.67500000000001
 20
112.5
 30
0.0
 40
12.5
 50
203.57817847820229
 51
336.42182152179771
  0
LINE
  5
1C78
  8
0
 10
265.7839117817486
 20
103.38315603019289
 30
0.0
 11
263.40705080756879
 21
107.5
 31
0.0
  0
ARC
  5
1C79
  8
0
 10
261.67500000000001
 20
112.4999999999999
 30
0.0
 40
9.9999999999999662
 50
245.73917047726499
 51
294.26082952273498
  0
ARC
  5
1C7A
  8
0
 10
261.67499999999939
 20
112.5000000000004
 30
0.0
 40
9.9999999999993499
 50
125.73917047726761
 51
149.99999999999989
  0
ARC
  5
1C7B
  8
0
 10
261.67500000000001
 20
112.5
 30
0.0
 40
10.000000000000011
 50
30.000000000000121
 51
54.26082952273233
  0
LINE
  5
1C7C
  8
0
 10
257.63354811567262
 20
117.5
 30
0.0
 11
255.83403741068241
 21
120.61684396980699
 31
0.0
  0
LINE
  5
1C7D
  8
0
 10
267.5159625893175
 20
120.61684396980699
 30
0.0
 11
265.71645188432728
 21
117.5
 31
0.0
  0
LINE
  5
1C7E
  8
0
 10
257.56608821825131
 20
121.61684396980699
 30
0.0
 11
259.94294919243112
 21
117.5
 31
0.0
  0
ARC
  5
1C7F
  8
0
 10
261.67500000000001
 20
112.5
 30
0.0
 40
12.5
 50
23.5781784782023
 51
156.42182152179609
  0
ARC
  5
1C80
  8
0
 10
261.67500000000001
 20
112.4999999999999
 30
0.0
 40
10.00000000000003
 50
65.739170477265034
 51
114.2608295227313
  0
LINE
  5
1C81
  8
0
 10
263.40705080756879
 20
117.5
 30
0.0
 11
265.7839117817486
 21
121.61684396980699
 31
0.0
  0
ARC
  5
1C82
  8
0
 10
261.67499999999842
 20
112.4999999999996
 30
0.0
 40
10.00000000000156
 50
5.7391704772680949
 51
17.457603123720961
  0
LINE
  5
1C83
  8
0
 10
264.5617513459481
 20
115.5
 30
0.0
 11
263.40705080756879
 21
113.5
 31
0.0
  0
LINE
  5
1C84
  8
0
 10
263.40705080756879
 20
111.5
 30
0.0
 11
264.5617513459481
 21
109.5
 31
0.0
  0
ARC
  5
1C85
  8
0
 10
261.67499999999859
 20
112.5000000000003
 30
0.0
 40
10.00000000000132
 50
342.54239687627899
 51
354.26082952273191
  0
ARC
  5
1C86
  8
0
 10
261.6749999999999
 20
112.5
 30
0.0
 40
9.9999999999999236
 50
162.54239687627901
 51
174.2608295227335
  0
LINE
  5
1C87
  8
0
 10
259.94294919243112
 20
113.5
 30
0.0
 11
258.78824865405181
 21
115.5
 31
0.0
  0
ARC
  5
1C88
  8
0
 10
261.67500000000001
 20
112.5
 30
0.0
 40
9.999999999999984
 50
185.73917047726641
 51
197.45760312371931
  0
LINE
  5
1C89
  8
0
 10
258.78824865405181
 20
109.5
 30
0.0
 11
259.94294919243112
 21
111.5
 31
0.0
  0
LINE
  5
1C8A
  8
0
 10
249.67500000000001
 20
111.5
 30
0.0
 11
249.67500000000001
 21
109.5
 31
0.0
  0
LINE
  5
1C8B
  8
0
 10
275.1749999999999
 20
117.0
 30
0.0
 11
274.67500000000001
 21
117.5
 31
0.0
  0
LINE
  5
1C8C
  8
0
 10
274.67500000000001
 20
117.5
 30
0.0
 11
248.67500000000001
 21
117.5
 31
0.0
  0
LINE
  5
1C8D
  8
0
 10
248.67500000000001
 20
117.5
 30
0.0
 11
248.1749999999999
 21
117.0
 31
0.0
  0
LINE
  5
1C8E
  8
0
 10
249.67500000000001
 20
109.5
 30
0.0
 11
260.17500000000001
 21
109.5
 31
0.0
  0
LINE
  5
1C8F
  8
0
 10
263.17500000000001
 20
115.5
 30
0.0
 11
263.17500000000001
 21
113.5
 31
0.0
  0
LINE
  5
1C90
  8
0
 10
248.1749999999999
 20
117.0
 30
0.0
 11
248.1749999999999
 21
108.0
 31
0.0
  0
LINE
  5
1C91
  8
0
 10
260.17500000000001
 20
111.5
 30
0.0
 11
256.92500000000001
 21
111.5
 31
0.0
  0
LINE
  5
1C92
  8
0
 10
252.92500000000001
 20
111.5
 30
0.0
 11
249.67500000000001
 21
111.5
 31
0.0
  0
LINE
  5
1C93
  8
0
 10
248.1749999999999
 20
108.0
 30
0.0
 11
248.67500000000001
 21
107.5
 31
0.0
  0
LINE
  5
1C94
  8
0
 10
248.67500000000001
 20
107.5
 30
0.0
 11
274.67500000000001
 21
107.5
 31
0.0
  0
LINE
  5
1C95
  8
0
 10
249.67500000000001
 20
115.5
 30
0.0
 11
249.67500000000001
 21
113.5
 31
0.0
  0
LINE
  5
1C96
  8
0
 10
260.17500000000001
 20
115.5
 30
0.0
 11
249.67500000000001
 21
115.5
 31
0.0
  0
LINE
  5
1C97
  8
0
 10
273.67500000000001
 20
115.5
 30
0.0
 11
263.17500000000001
 21
115.5
 31
0.0
  0
LINE
  5
1C98
  8
0
 10
263.17500000000001
 20
109.5
 30
0.0
 11
273.67500000000001
 21
109.5
 31
0.0
  0
LINE
  5
1C99
  8
0
 10
263.17500000000001
 20
111.5
 30
0.0
 11
263.17500000000001
 21
109.5
 31
0.0
  0
LINE
  5
1C9A
  8
0
 10
273.67500000000001
 20
109.5
 30
0.0
 11
273.67500000000001
 21
111.5
 31
0.0
  0
LINE
  5
1C9B
  8
0
 10
249.67500000000001
 20
113.5
 30
0.0
 11
252.92500000000001
 21
113.5
 31
0.0
  0
LINE
  5
1C9C
  8
0
 10
256.92500000000001
 20
113.5
 30
0.0
 11
260.17500000000001
 21
113.5
 31
0.0
  0
LINE
  5
1C9D
  8
0
 10
263.17500000000001
 20
113.5
 30
0.0
 11
266.42500000000001
 21
113.5
 31
0.0
  0
LINE
  5
1C9E
  8
0
 10
270.42500000000001
 20
113.5
 30
0.0
 11
273.67500000000001
 21
113.5
 31
0.0
  0
LINE
  5
1C9F
  8
0
 10
273.67500000000001
 20
111.5
 30
0.0
 11
270.42500000000001
 21
111.5
 31
0.0
  0
LINE
  5
1CA0
  8
0
 10
266.42500000000001
 20
111.5
 30
0.0
 11
263.17500000000001
 21
111.5
 31
0.0
  0
LINE
  5
1CA1
  8
0
 10
273.67500000000001
 20
113.5
 30
0.0
 11
273.67500000000001
 21
115.5
 31
0.0
  0
LINE
  5
1CA2
  8
0
 10
274.67500000000001
 20
107.5
 30
0.0
 11
275.1749999999999
 21
108.0
 31
0.0
  0
LINE
  5
1CA4
  8
0
 10
260.17500000000001
 20
113.5
 30
0.0
 11
260.17500000000001
 21
115.5
 31
0.0
  0
LINE
  5
1CA5
  8
0
 10
260.17500000000001
 20
109.5
 30
0.0
 11
260.17500000000001
 21
111.5
 31
0.0
  0
LINE
  5
1CA6
  8
0
 10
252.92500000000001
 20
110.5
 30
0.0
 11
256.92500000000001
 21
110.5
 31
0.0
  0
LINE
  5
1CA7
  8
0
 10
256.92500000000001
 20
110.5
 30
0.0
 11
256.92500000000001
 21
114.5
 31
0.0
  0
LINE
  5
1CA8
  8
0
 10
256.92500000000001
 20
114.5
 30
0.0
 11
252.92500000000001
 21
114.5
 31
0.0
  0
LINE
  5
1CA9
  8
0
 10
252.92500000000001
 20
114.5
 30
0.0
 11
252.92500000000001
 21
110.5
 31
0.0
  0
LINE
  5
1CAA
  8
0
 10
266.42500000000001
 20
110.5
 30
0.0
 11
270.42500000000001
 21
110.5
 31
0.0
  0
LINE
  5
1CAB
  8
0
 10
270.42500000000001
 20
110.5
 30
0.0
 11
270.42500000000001
 21
114.5
 31
0.0
  0
LINE
  5
1CAC
  8
0
 10
270.42500000000001
 20
114.5
 30
0.0
 11
266.42500000000001
 21
114.5
 31
0.0
  0
LINE
  5
1CAD
  8
0
 10
266.42500000000001
 20
114.5
 30
0.0
 11
266.42500000000001
 21
110.5
 31
0.0
  0
ARC
  5
1CAE
  8
0
 10
234.6750000000001
 20
112.5000000000001
 30
0.0
 40
10.000000000000171
 50
210.00000000000011
 51
234.26082952273231
  0
LINE
  5
1CAF
  8
0
 10
228.83403741068241
 20
104.38315603019289
 30
0.0
 11
230.6335481156726
 21
107.5
 31
0.0
  0
ARC
  5
1CB0
  8
0
 10
234.6750000000001
 20
112.4999999999999
 30
0.0
 40
9.9999999999998739
 50
305.73917047726769
 51
329.99999999999852
  0
LINE
  5
1CB1
  8
0
 10
238.71645188432731
 20
107.5
 30
0.0
 11
240.5159625893175
 21
104.38315603019289
 31
0.0
  0
LINE
  5
1CB2
  8
0
 10
232.94294919243109
 20
107.5
 30
0.0
 11
230.56608821825131
 21
103.38315603019289
 31
0.0
  0
ARC
  5
1CB3
  8
0
 10
234.67500000000001
 20
112.5
 30
0.0
 40
12.5
 50
203.57817847820229
 51
336.42182152179771
  0
LINE
  5
1CB4
  8
0
 10
238.7839117817486
 20
103.38315603019289
 30
0.0
 11
236.40705080756879
 21
107.5
 31
0.0
  0
ARC
  5
1CB5
  8
0
 10
234.67500000000001
 20
112.5
 30
0.0
 40
10.00000000000002
 50
245.73917047726499
 51
294.26082952273498
  0
ARC
  5
1CB6
  8
0
 10
234.67500000000001
 20
112.5
 30
0.0
 40
9.9999999999999911
 50
125.73917047726761
 51
149.99999999999989
  0
ARC
  5
1CB7
  8
0
 10
234.6750000000001
 20
112.5
 30
0.0
 40
9.9999999999998792
 50
30.000000000000121
 51
54.26082952273233
  0
LINE
  5
1CB8
  8
0
 10
230.6335481156726
 20
117.5
 30
0.0
 11
228.83403741068241
 21
120.61684396980699
 31
0.0
  0
LINE
  5
1CB9
  8
0
 10
240.5159625893175
 20
120.61684396980699
 30
0.0
 11
238.71645188432731
 21
117.5
 31
0.0
  0
LINE
  5
1CBA
  8
0
 10
230.56608821825131
 20
121.61684396980699
 30
0.0
 11
232.94294919243109
 21
117.5
 31
0.0
  0
ARC
  5
1CBB
  8
0
 10
234.67500000000001
 20
112.5
 30
0.0
 40
12.5
 50
23.5781784782023
 51
156.42182152179609
  0
ARC
  5
1CBC
  8
0
 10
234.67500000000001
 20
112.5
 30
0.0
 40
9.9999999999999698
 50
65.739170477265034
 51
114.26082952273489
  0
LINE
  5
1CBD
  8
0
 10
236.40705080756879
 20
117.5
 30
0.0
 11
238.7839117817486
 21
121.61684396980699
 31
0.0
  0
LINE
  5
1CBE
  8
0
 10
237.5617513459481
 20
115.5
 30
0.0
 11
236.40705080756879
 21
113.5
 31
0.0
  0
LINE
  5
1CBF
  8
0
 10
232.94294919243109
 20
113.5
 30
0.0
 11
231.78824865405181
 21
115.5
 31
0.0
  0
ARC
  5
1CC0
  8
0
 10
234.6749999999999
 20
112.5
 30
0.0
 40
10.000000000000041
 50
5.7391704772664589
 51
17.457603123720961
  0
LINE
  5
1CC1
  8
0
 10
236.40705080756879
 20
111.5
 30
0.0
 11
237.5617513459481
 21
109.5
 31
0.0
  0
ARC
  5
1CC2
  8
0
 10
234.67500000000001
 20
112.4999999999999
 30
0.0
 40
9.9999999999999627
 50
342.54239687627899
 51
354.2608295227335
  0
ARC
  5
1CC3
  8
0
 10
234.67500000000101
 20
112.4999999999998
 30
0.0
 40
10.0000000000011
 50
162.54239687627901
 51
174.2608295227318
  0
ARC
  5
1CC4
  8
0
 10
234.67500000000101
 20
112.5000000000001
 30
0.0
 40
10.00000000000105
 50
185.73917047726809
 51
197.45760312371931
  0
LINE
  5
1CC5
  8
0
 10
231.78824865405181
 20
109.5
 30
0.0
 11
232.94294919243109
 21
111.5
 31
0.0
  0
LINE
  5
1CC6
  8
0
 10
222.67500000000001
 20
111.5
 30
0.0
 11
222.67500000000001
 21
109.5
 31
0.0
  0
LINE
  5
1CC7
  8
0
 10
233.1749999999999
 20
111.5
 30
0.0
 11
229.92500000000001
 21
111.5
 31
0.0
  0
LINE
  5
1CC8
  8
0
 10
225.92500000000001
 20
111.5
 30
0.0
 11
222.67500000000001
 21
111.5
 31
0.0
  0
LINE
  5
1CC9
  8
0
 10
222.67500000000001
 20
113.5
 30
0.0
 11
225.92500000000001
 21
113.5
 31
0.0
  0
LINE
  5
1CCA
  8
0
 10
229.92500000000001
 20
113.5
 30
0.0
 11
233.1749999999999
 21
113.5
 31
0.0
  0
LINE
  5
1CCB
  8
0
 10
236.17500000000001
 20
113.5
 30
0.0
 11
239.4249999999999
 21
113.5
 31
0.0
  0
LINE
  5
1CCC
  8
0
 10
243.42500000000001
 20
113.5
 30
0.0
 11
246.67500000000001
 21
113.5
 31
0.0
  0
LINE
  5
1CCD
  8
0
 10
247.67500000000001
 20
117.5
 30
0.0
 11
221.67500000000001
 21
117.5
 31
0.0
  0
LINE
  5
1CCE
  8
0
 10
221.67500000000001
 20
117.5
 30
0.0
 11
221.1749999999999
 21
117.0
 31
0.0
  0
LINE
  5
1CCF
  8
0
 10
221.1749999999999
 20
117.0
 30
0.0
 11
221.1749999999999
 21
108.0
 31
0.0
  0
LINE
  5
1CD0
  8
0
 10
222.67500000000001
 20
109.5
 30
0.0
 11
233.1749999999999
 21
109.5
 31
0.0
  0
LINE
  5
1CD1
  8
0
 10
236.17500000000001
 20
115.5
 30
0.0
 11
236.17500000000001
 21
113.5
 31
0.0
  0
LINE
  5
1CD2
  8
0
 10
233.1749999999999
 20
109.5
 30
0.0
 11
233.1749999999999
 21
111.5
 31
0.0
  0
LINE
  5
1CD3
  8
0
 10
246.67500000000001
 20
113.5
 30
0.0
 11
246.67500000000001
 21
115.5
 31
0.0
  0
LINE
  5
1CD4
  8
0
 10
246.67500000000001
 20
109.5
 30
0.0
 11
246.67500000000001
 21
111.5
 31
0.0
  0
LINE
  5
1CD5
  8
0
 10
247.67500000000001
 20
107.5
 30
0.0
 11
248.1749999999999
 21
108.0
 31
0.0
  0
LINE
  5
1CD6
  8
0
 10
246.67500000000001
 20
111.5
 30
0.0
 11
243.42500000000001
 21
111.5
 31
0.0
  0
LINE
  5
1CD7
  8
0
 10
236.17500000000001
 20
109.5
 30
0.0
 11
246.67500000000001
 21
109.5
 31
0.0
  0
LINE
  5
1CD8
  8
0
 10
236.17500000000001
 20
111.5
 30
0.0
 11
236.17500000000001
 21
109.5
 31
0.0
  0
LINE
  5
1CD9
  8
0
 10
239.4249999999999
 20
111.5
 30
0.0
 11
236.17500000000001
 21
111.5
 31
0.0
  0
LINE
  5
1CDA
  8
0
 10
246.67500000000001
 20
115.5
 30
0.0
 11
236.17500000000001
 21
115.5
 31
0.0
  0
LINE
  5
1CDC
  8
0
 10
248.1749999999999
 20
117.0
 30
0.0
 11
247.67500000000001
 21
117.5
 31
0.0
  0
LINE
  5
1CDD
  8
0
 10
221.1749999999999
 20
108.0
 30
0.0
 11
221.67500000000001
 21
107.5
 31
0.0
  0
LINE
  5
1CDE
  8
0
 10
221.67500000000001
 20
107.5
 30
0.0
 11
247.67500000000001
 21
107.5
 31
0.0
  0
LINE
  5
1CDF
  8
0
 10
222.67500000000001
 20
115.5
 30
0.0
 11
222.67500000000001
 21
113.5
 31
0.0
  0
LINE
  5
1CE0
  8
0
 10
233.1749999999999
 20
115.5
 30
0.0
 11
222.67500000000001
 21
115.5
 31
0.0
  0
LINE
  5
1CE1
  8
0
 10
233.1749999999999
 20
113.5
 30
0.0
 11
233.1749999999999
 21
115.5
 31
0.0
  0
LINE
  5
1CE2
  8
0
 10
225.92500000000001
 20
110.5
 30
0.0
 11
229.92500000000001
 21
110.5
 31
0.0
  0
LINE
  5
1CE3
  8
0
 10
229.92500000000001
 20
114.5
 30
0.0
 11
225.92500000000001
 21
114.5
 31
0.0
  0
LINE
  5
1CE4
  8
0
 10
229.92500000000001
 20
110.5
 30
0.0
 11
229.92500000000001
 21
114.5
 31
0.0
  0
LINE
  5
1CE5
  8
0
 10
225.92500000000001
 20
114.5
 30
0.0
 11
225.92500000000001
 21
110.5
 31
0.0
  0
LINE
  5
1CE6
  8
0
 10
243.42500000000001
 20
114.5
 30
0.0
 11
239.4249999999999
 21
114.5
 31
0.0
  0
LINE
  5
1CE7
  8
0
 10
239.4249999999999
 20
110.5
 30
0.0
 11
243.42500000000001
 21
110.5
 31
0.0
  0
LINE
  5
1CE8
  8
0
 10
243.42500000000001
 20
110.5
 30
0.0
 11
243.42500000000001
 21
114.5
 31
0.0
  0
LINE
  5
1CE9
  8
0
 10
239.4249999999999
 20
114.5
 30
0.0
 11
239.4249999999999
 21
110.5
 31
0.0
  0
LINE
  5
1CEA
  8
0
 10
201.83403741068241
 20
104.38315603019289
 30
0.0
 11
203.6335481156726
 21
107.5
 31
0.0
  0
ARC
  5
1CEB
  8
0
 10
207.6749999999999
 20
112.4999999999999
 30
0.0
 40
9.9999999999999041
 50
210.00000000000011
 51
234.26082952273231
  0
ARC
  5
1CEC
  8
0
 10
207.67500000000001
 20
112.4999999999999
 30
0.0
 40
9.9999999999998561
 50
305.73917047726769
 51
329.99999999999852
  0
LINE
  5
1CED
  8
0
 10
211.71645188432731
 20
107.5
 30
0.0
 11
213.5159625893175
 21
104.38315603019289
 31
0.0
  0
LINE
  5
1CEE
  8
0
 10
205.94294919243109
 20
107.5
 30
0.0
 11
203.56608821825131
 21
103.38315603019289
 31
0.0
  0
ARC
  5
1CEF
  8
0
 10
207.67500000000001
 20
112.5
 30
0.0
 40
12.5
 50
203.57817847820229
 51
336.42182152179771
  0
LINE
  5
1CF0
  8
0
 10
211.7839117817486
 20
103.38315603019289
 30
0.0
 11
209.40705080756879
 21
107.5
 31
0.0
  0
ARC
  5
1CF1
  8
0
 10
207.67500000000001
 20
112.5
 30
0.0
 40
10.000000000000011
 50
245.73917047726499
 51
294.26082952273498
  0
ARC
  5
1CF2
  8
0
 10
207.67500000000001
 20
112.5
 30
0.0
 40
10.000000000000011
 50
125.73917047726761
 51
149.99999999999989
  0
ARC
  5
1CF3
  8
0
 10
207.67500000000001
 20
112.5000000000001
 30
0.0
 40
9.9999999999998277
 50
30.000000000000121
 51
54.26082952273233
  0
LINE
  5
1CF4
  8
0
 10
203.6335481156726
 20
117.5
 30
0.0
 11
201.83403741068241
 21
120.61684396980699
 31
0.0
  0
LINE
  5
1CF5
  8
0
 10
213.5159625893175
 20
120.61684396980699
 30
0.0
 11
211.71645188432731
 21
117.5
 31
0.0
  0
ARC
  5
1CF6
  8
0
 10
207.67500000000001
 20
112.5
 30
0.0
 40
12.500000000000011
 50
23.5781784782023
 51
156.42182152179609
  0
LINE
  5
1CF7
  8
0
 10
203.56608821825131
 20
121.61684396980699
 30
0.0
 11
205.94294919243109
 21
117.5
 31
0.0
  0
ARC
  5
1CF8
  8
0
 10
207.67500000000001
 20
112.5
 30
0.0
 40
9.999999999999984
 50
65.739170477265034
 51
114.26082952273489
  0
LINE
  5
1CF9
  8
0
 10
209.40705080756879
 20
117.5
 30
0.0
 11
211.7839117817486
 21
121.61684396980699
 31
0.0
  0
ARC
  5
1CFA
  8
0
 10
207.67500000000121
 20
112.5000000000002
 30
0.0
 40
9.9999999999987406
 50
5.7391704772664589
 51
17.45760312372277
  0
LINE
  5
1CFB
  8
0
 10
210.5617513459481
 20
115.5
 30
0.0
 11
209.40705080756879
 21
113.5
 31
0.0
  0
LINE
  5
1CFC
  8
0
 10
205.94294919243109
 20
113.5
 30
0.0
 11
204.78824865405181
 21
115.5
 31
0.0
  0
LINE
  5
1CFD
  8
0
 10
209.40705080756879
 20
111.5
 30
0.0
 11
210.5617513459481
 21
109.5
 31
0.0
  0
ARC
  5
1CFE
  8
0
 10
207.67499999999981
 20
112.5
 30
0.0
 40
9.9999999999998135
 50
162.54239687627901
 51
174.2608295227335
  0
ARC
  5
1CFF
  8
0
 10
207.67500000000041
 20
112.5000000000001
 30
0.0
 40
10.000000000000529
 50
185.73917047726809
 51
197.45760312371931
  0
LINE
  5
1D00
  8
0
 10
204.78824865405181
 20
109.5
 30
0.0
 11
205.94294919243109
 21
111.5
 31
0.0
  0
ARC
  5
1D01
  8
0
 10
207.67500000000041
 20
112.4999999999999
 30
0.0
 40
9.9999999999995524
 50
342.54239687627569
 51
354.2608295227335
  0
LINE
  5
1D02
  8
0
 10
219.67500000000001
 20
109.5
 30
0.0
 11
219.67500000000001
 21
111.5
 31
0.0
  0
LINE
  5
1D03
  8
0
 10
220.6749999999999
 20
107.5
 30
0.0
 11
221.1749999999999
 21
108.0
 31
0.0
  0
LINE
  5
1D04
  8
0
 10
194.6749999999999
 20
117.5
 30
0.0
 11
194.1749999999999
 21
117.0
 31
0.0
  0
LINE
  5
1D05
  8
0
 10
195.6749999999999
 20
111.5
 30
0.0
 11
195.6749999999999
 21
109.5
 31
0.0
  0
LINE
  5
1D06
  8
0
 10
195.6749999999999
 20
109.5
 30
0.0
 11
206.1749999999999
 21
109.5
 31
0.0
  0
LINE
  5
1D07
  8
0
 10
209.17500000000001
 20
115.5
 30
0.0
 11
209.17500000000001
 21
113.5
 31
0.0
  0
LINE
  5
1D08
  8
0
 10
195.6749999999999
 20
113.5
 30
0.0
 11
198.9249999999999
 21
113.5
 31
0.0
  0
LINE
  5
1D09
  8
0
 10
202.92500000000001
 20
113.5
 30
0.0
 11
206.1749999999999
 21
113.5
 31
0.0
  0
LINE
  5
1D0A
  8
0
 10
219.67500000000001
 20
113.5
 30
0.0
 11
219.67500000000001
 21
115.5
 31
0.0
  0
LINE
  5
1D0B
  8
0
 10
220.6749999999999
 20
117.5
 30
0.0
 11
194.6749999999999
 21
117.5
 31
0.0
  0
LINE
  5
1D0C
  8
0
 10
194.1749999999999
 20
117.0
 30
0.0
 11
194.1749999999999
 21
108.0
 31
0.0
  0
LINE
  5
1D0D
  8
0
 10
206.1749999999999
 20
111.5
 30
0.0
 11
202.92500000000001
 21
111.5
 31
0.0
  0
LINE
  5
1D0E
  8
0
 10
198.9249999999999
 20
111.5
 30
0.0
 11
195.6749999999999
 21
111.5
 31
0.0
  0
LINE
  5
1D0F
  8
0
 10
209.17500000000001
 20
113.5
 30
0.0
 11
212.4249999999999
 21
113.5
 31
0.0
  0
LINE
  5
1D10
  8
0
 10
216.42500000000001
 20
113.5
 30
0.0
 11
219.67500000000001
 21
113.5
 31
0.0
  0
LINE
  5
1D11
  8
0
 10
219.67500000000001
 20
111.5
 30
0.0
 11
216.42500000000001
 21
111.5
 31
0.0
  0
LINE
  5
1D12
  8
0
 10
212.4249999999999
 20
111.5
 30
0.0
 11
209.17500000000001
 21
111.5
 31
0.0
  0
LINE
  5
1D13
  8
0
 10
206.1749999999999
 20
109.5
 30
0.0
 11
206.1749999999999
 21
111.5
 31
0.0
  0
LINE
  5
1D14
  8
0
 10
221.1749999999999
 20
117.0
 30
0.0
 11
220.6749999999999
 21
117.5
 31
0.0
  0
LINE
  5
1D15
  8
0
 10
194.1749999999999
 20
108.0
 30
0.0
 11
194.6749999999999
 21
107.5
 31
0.0
  0
LINE
  5
1D16
  8
0
 10
194.6749999999999
 20
107.5
 30
0.0
 11
220.6749999999999
 21
107.5
 31
0.0
  0
LINE
  5
1D17
  8
0
 10
195.6749999999999
 20
115.5
 30
0.0
 11
195.6749999999999
 21
113.5
 31
0.0
  0
LINE
  5
1D18
  8
0
 10
206.1749999999999
 20
115.5
 30
0.0
 11
195.6749999999999
 21
115.5
 31
0.0
  0
LINE
  5
1D19
  8
0
 10
219.67500000000001
 20
115.5
 30
0.0
 11
209.17500000000001
 21
115.5
 31
0.0
  0
LINE
  5
1D1A
  8
0
 10
209.17500000000001
 20
109.5
 30
0.0
 11
219.67500000000001
 21
109.5
 31
0.0
  0
LINE
  5
1D1B
  8
0
 10
209.17500000000001
 20
111.5
 30
0.0
 11
209.17500000000001
 21
109.5
 31
0.0
  0
LINE
  5
1D1C
  8
0
 10
206.1749999999999
 20
113.5
 30
0.0
 11
206.1749999999999
 21
115.5
 31
0.0
  0
LINE
  5
1D1E
  8
0
 10
216.42500000000001
 20
110.5
 30
0.0
 11
216.42500000000001
 21
114.5
 31
0.0
  0
LINE
  5
1D1F
  8
0
 10
216.42500000000001
 20
114.5
 30
0.0
 11
212.4249999999999
 21
114.5
 31
0.0
  0
LINE
  5
1D20
  8
0
 10
212.4249999999999
 20
114.5
 30
0.0
 11
212.4249999999999
 21
110.5
 31
0.0
  0
LINE
  5
1D21
  8
0
 10
212.4249999999999
 20
110.5
 30
0.0
 11
216.42500000000001
 21
110.5
 31
0.0
  0
LINE
  5
1D22
  8
0
 10
198.9249999999999
 20
110.5
 30
0.0
 11
202.92500000000001
 21
110.5
 31
0.0
  0
LINE
  5
1D23
  8
0
 10
202.92500000000001
 20
110.5
 30
0.0
 11
202.92500000000001
 21
114.5
 31
0.0
  0
LINE
  5
1D24
  8
0
 10
202.92500000000001
 20
114.5
 30
0.0
 11
198.9249999999999
 21
114.5
 31
0.0
  0
LINE
  5
1D25
  8
0
 10
198.9249999999999
 20
114.5
 30
0.0
 11
198.9249999999999
 21
110.5
 31
0.0
  0
LINE
  5
1D26
  8
0
 10
184.71645188432731
 20
107.5
 30
0.0
 11
186.5159625893175
 21
104.38315603019289
 31
0.0
  0
ARC
  5
1D27
  8
0
 10
180.6749999999999
 20
112.5
 30
0.0
 40
10.000000000000091
 50
305.73917047726769
 51
329.99999999999852
  0
LINE
  5
1D28
  8
0
 10
174.83403741068241
 20
104.38315603019289
 30
0.0
 11
176.63354811567251
 21
107.5
 31
0.0
  0
ARC
  5
1D29
  8
0
 10
180.6749999999999
 20
112.5
 30
0.0
 40
9.9999999999999805
 50
210.00000000000011
 51
234.26082952273231
  0
ARC
  5
1D2A
  8
0
 10
180.6749999999999
 20
112.5
 30
0.0
 40
12.5
 50
203.57817847820229
 51
336.42182152179771
  0
LINE
  5
1D2B
  8
0
 10
184.7839117817486
 20
103.38315603019289
 30
0.0
 11
182.40705080756879
 21
107.5
 31
0.0
  0
ARC
  5
1D2C
  8
0
 10
180.6749999999999
 20
112.5
 30
0.0
 40
10.000000000000011
 50
245.73917047726499
 51
294.26082952273498
  0
LINE
  5
1D2D
  8
0
 10
178.942949192431
 20
107.5
 30
0.0
 11
176.56608821825131
 21
103.38315603019289
 31
0.0
  0
ARC
  5
1D2E
  8
0
 10
180.67500000000001
 20
112.5
 30
0.0
 40
10.00000000000005
 50
125.73917047726761
 51
149.99999999999989
  0
LINE
  5
1D2F
  8
0
 10
176.63354811567251
 20
117.5
 30
0.0
 11
174.83403741068241
 21
120.61684396980699
 31
0.0
  0
LINE
  5
1D30
  8
0
 10
186.5159625893175
 20
120.61684396980699
 30
0.0
 11
184.71645188432731
 21
117.5
 31
0.0
  0
ARC
  5
1D31
  8
0
 10
180.6749999999999
 20
112.5
 30
0.0
 40
9.9999999999999822
 50
30.000000000000121
 51
54.26082952273233
  0
ARC
  5
1D32
  8
0
 10
180.6749999999999
 20
112.5
 30
0.0
 40
12.5
 50
23.5781784782023
 51
156.42182152179609
  0
LINE
  5
1D33
  8
0
 10
176.56608821825131
 20
121.61684396980699
 30
0.0
 11
178.942949192431
 21
117.5
 31
0.0
  0
ARC
  5
1D34
  8
0
 10
180.6749999999999
 20
112.5
 30
0.0
 40
9.9999999999999964
 50
65.739170477265034
 51
114.26082952273489
  0
LINE
  5
1D35
  8
0
 10
182.40705080756879
 20
117.5
 30
0.0
 11
184.7839117817486
 21
121.61684396980699
 31
0.0
  0
LINE
  5
1D36
  8
0
 10
183.5617513459481
 20
115.5
 30
0.0
 11
182.40705080756879
 21
113.5
 31
0.0
  0
LINE
  5
1D37
  8
0
 10
177.78824865405181
 20
109.5
 30
0.0
 11
178.942949192431
 21
111.5
 31
0.0
  0
ARC
  5
1D38
  8
0
 10
180.6749999999999
 20
112.5
 30
0.0
 40
10.00000000000005
 50
5.7391704772664589
 51
17.457603123720961
  0
ARC
  5
1D39
  8
0
 10
180.67499999999981
 20
112.5
 30
0.0
 40
9.9999999999998934
 50
162.54239687627901
 51
174.2608295227335
  0
LINE
  5
1D3A
  8
0
 10
178.942949192431
 20
113.5
 30
0.0
 11
177.78824865405181
 21
115.5
 31
0.0
  0
ARC
  5
1D3B
  8
0
 10
180.6750000000003
 20
112.5
 30
0.0
 40
10.00000000000033
 50
185.73917047726641
 51
197.45760312371931
  0
ARC
  5
1D3C
  8
0
 10
180.67499999999981
 20
112.5
 30
0.0
 40
10.00000000000019
 50
342.54239687627899
 51
354.26082952273191
  0
LINE
  5
1D3D
  8
0
 10
182.40705080756879
 20
111.5
 30
0.0
 11
183.5617513459481
 21
109.5
 31
0.0
  0
LINE
  5
1D3E
  8
0
 10
167.6749999999999
 20
117.5
 30
0.0
 11
167.1749999999999
 21
117.0
 31
0.0
  0
LINE
  5
1D3F
  8
0
 10
192.6749999999999
 20
109.5
 30
0.0
 11
192.6749999999999
 21
111.5
 31
0.0
  0
LINE
  5
1D40
  8
0
 10
182.1749999999999
 20
115.5
 30
0.0
 11
182.1749999999999
 21
113.5
 31
0.0
  0
LINE
  5
1D41
  8
0
 10
182.1749999999999
 20
113.5
 30
0.0
 11
185.4249999999999
 21
113.5
 31
0.0
  0
LINE
  5
1D42
  8
0
 10
189.4249999999999
 20
113.5
 30
0.0
 11
192.6749999999999
 21
113.5
 31
0.0
  0
LINE
  5
1D43
  8
0
 10
167.1749999999999
 20
117.0
 30
0.0
 11
167.1749999999999
 21
108.0
 31
0.0
  0
LINE
  5
1D44
  8
0
 10
192.6749999999999
 20
111.5
 30
0.0
 11
189.4249999999999
 21
111.5
 31
0.0
  0
LINE
  5
1D45
  8
0
 10
185.4249999999999
 20
111.5
 30
0.0
 11
182.1749999999999
 21
111.5
 31
0.0
  0
LINE
  5
1D46
  8
0
 10
193.6749999999999
 20
107.5
 30
0.0
 11
194.1749999999999
 21
108.0
 31
0.0
  0
LINE
  5
1D47
  8
0
 10
179.1749999999999
 20
111.5
 30
0.0
 11
175.9249999999999
 21
111.5
 31
0.0
  0
LINE
  5
1D48
  8
0
 10
171.9249999999999
 20
111.5
 30
0.0
 11
168.6749999999999
 21
111.5
 31
0.0
  0
LINE
  5
1D49
  8
0
 10
168.6749999999999
 20
113.5
 30
0.0
 11
171.9249999999999
 21
113.5
 31
0.0
  0
LINE
  5
1D4A
  8
0
 10
175.9249999999999
 20
113.5
 30
0.0
 11
179.1749999999999
 21
113.5
 31
0.0
  0
LINE
  5
1D4B
  8
0
 10
193.6749999999999
 20
117.5
 30
0.0
 11
167.6749999999999
 21
117.5
 31
0.0
  0
LINE
  5
1D4C
  8
0
 10
167.1749999999999
 20
108.0
 30
0.0
 11
167.6749999999999
 21
107.5
 31
0.0
  0
LINE
  5
1D4D
  8
0
 10
192.6749999999999
 20
115.5
 30
0.0
 11
182.1749999999999
 21
115.5
 31
0.0
  0
LINE
  5
1D4E
  8
0
 10
192.6749999999999
 20
113.5
 30
0.0
 11
192.6749999999999
 21
115.5
 31
0.0
  0
LINE
  5
1D4F
  8
0
 10
168.6749999999999
 20
111.5
 30
0.0
 11
168.6749999999999
 21
109.5
 31
0.0
  0
LINE
  5
1D50
  8
0
 10
182.1749999999999
 20
109.5
 30
0.0
 11
192.6749999999999
 21
109.5
 31
0.0
  0
LINE
  5
1D51
  8
0
 10
182.1749999999999
 20
111.5
 30
0.0
 11
182.1749999999999
 21
109.5
 31
0.0
  0
LINE
  5
1D53
  8
0
 10
194.1749999999999
 20
117.0
 30
0.0
 11
193.6749999999999
 21
117.5
 31
0.0
  0
LINE
  5
1D54
  8
0
 10
167.6749999999999
 20
107.5
 30
0.0
 11
193.6749999999999
 21
107.5
 31
0.0
  0
LINE
  5
1D55
  8
0
 10
179.1749999999999
 20
109.5
 30
0.0
 11
179.1749999999999
 21
111.5
 31
0.0
  0
LINE
  5
1D56
  8
0
 10
168.6749999999999
 20
109.5
 30
0.0
 11
179.1749999999999
 21
109.5
 31
0.0
  0
LINE
  5
1D57
  8
0
 10
168.6749999999999
 20
115.5
 30
0.0
 11
168.6749999999999
 21
113.5
 31
0.0
  0
LINE
  5
1D58
  8
0
 10
179.1749999999999
 20
115.5
 30
0.0
 11
168.6749999999999
 21
115.5
 31
0.0
  0
LINE
  5
1D59
  8
0
 10
179.1749999999999
 20
113.5
 30
0.0
 11
179.1749999999999
 21
115.5
 31
0.0
  0
LINE
  5
1D5A
  8
0
 10
171.9249999999999
 20
114.5
 30
0.0
 11
171.9249999999999
 21
110.5
 31
0.0
  0
LINE
  5
1D5B
  8
0
 10
171.9249999999999
 20
110.5
 30
0.0
 11
175.9249999999999
 21
110.5
 31
0.0
  0
LINE
  5
1D5C
  8
0
 10
175.9249999999999
 20
110.5
 30
0.0
 11
175.9249999999999
 21
114.5
 31
0.0
  0
LINE
  5
1D5D
  8
0
 10
175.9249999999999
 20
114.5
 30
0.0
 11
171.9249999999999
 21
114.5
 31
0.0
  0
LINE
  5
1D5E
  8
0
 10
189.4249999999999
 20
114.5
 30
0.0
 11
185.4249999999999
 21
114.5
 31
0.0
  0
LINE
  5
1D5F
  8
0
 10
185.4249999999999
 20
110.5
 30
0.0
 11
189.4249999999999
 21
110.5
 31
0.0
  0
LINE
  5
1D60
  8
0
 10
189.4249999999999
 20
110.5
 30
0.0
 11
189.4249999999999
 21
114.5
 31
0.0
  0
LINE
  5
1D61
  8
0
 10
185.4249999999999
 20
114.5
 30
0.0
 11
185.4249999999999
 21
110.5
 31
0.0
  0
LINE
  5
1D70
  8
1
 10
77.824999999999974
 20
112.5
 30
0.0
 11
122.1749999999999
 21
112.5
 31
0.0
  0
LINE
  5
1D71
  8
0
 10
117.1749999999999
 20
110.5
 30
0.0
 11
116.72499999999999
 21
110.5
 31
0.0
  0
LINE
  5
1D72
  8
0
 10
117.1749999999999
 20
114.5
 30
0.0
 11
117.1749999999999
 21
110.5
 31
0.0
  0
LINE
  5
1D73
  8
0
 10
117.1749999999999
 20
114.5
 30
0.0
 11
116.72499999999999
 21
114.5
 31
0.0
  0
LINE
  5
1D74
  8
0
 10
82.824999999999974
 20
110.5
 30
0.0
 11
83.274999999999977
 21
110.5
 31
0.0
  0
LINE
  5
1D75
  8
0
 10
82.824999999999974
 20
114.5
 30
0.0
 11
83.274999999999977
 21
114.5
 31
0.0
  0
LINE
  5
1D76
  8
0
 10
82.824999999999974
 20
114.5
 30
0.0
 11
82.824999999999974
 21
110.5
 31
0.0
  0
LINE
  5
1D77
  8
0
 10
112.5
 20
125.0
 30
0.0
 11
112.5
 21
100.0
 31
0.0
  0
LINE
  5
1D78
  8
0
 10
87.5
 20
125.0
 30
0.0
 11
87.5
 21
100.0
 31
0.0
  0
LINE
  5
1D79
  8
0
 10
112.5
 20
125.0
 30
0.0
 11
87.5
 21
125.0
 31
0.0
  0
LINE
  5
1D7A
  8
0
 10
87.5
 20
100.0
 30
0.0
 11
112.5
 21
100.0
 31
0.0
  0
LINE
  5
1D7B
  8
0
 10
116.72499999999999
 20
117.5
 30
0.0
 11
112.5
 21
117.5
 31
0.0
  0
LINE
  5
1D7C
  8
0
 10
83.274999999999977
 20
117.5
 30
0.0
 11
87.5
 21
117.5
 31
0.0
  0
LINE
  5
1D7D
  8
0
 10
83.274999999999977
 20
117.0
 30
0.0
 11
87.5
 21
117.0
 31
0.0
  0
LINE
  5
1D7E
  8
0
 10
83.274999999999977
 20
108.0
 30
0.0
 11
87.5
 21
108.0
 31
0.0
  0
LINE
  5
1D7F
  8
0
 10
83.274999999999977
 20
117.5
 30
0.0
 11
83.274999999999977
 21
107.5
 31
0.0
  0
LINE
  5
1D80
  8
0
 10
83.274999999999977
 20
107.5
 30
0.0
 11
87.5
 21
107.5
 31
0.0
  0
LINE
  5
1D81
  8
0
 10
116.72499999999999
 20
107.5
 30
0.0
 11
112.5
 21
107.5
 31
0.0
  0
LINE
  5
1D82
  8
0
 10
116.72499999999999
 20
117.5
 30
0.0
 11
116.72499999999999
 21
107.5
 31
0.0
  0
LINE
  5
1D83
  8
0
 10
116.72499999999999
 20
108.0
 30
0.0
 11
112.5
 21
108.0
 31
0.0
  0
LINE
  5
1D84
  8
0
 10
116.72499999999999
 20
117.0
 30
0.0
 11
112.5
 21
117.0
 31
0.0
  0
LINE
  5
1E7F
  8
1
 10
423.6749999999999
 20
211.90000000000001
 30
0.0
 11
423.6749999999999
 21
172.44999999999999
 31
0.0
  0
LINE
  5
1E80
  8
1
 10
396.67500000000001
 20
211.90000000000001
 30
0.0
 11
396.67500000000001
 21
172.44999999999999
 31
0.0
  0
LINE
  5
1E81
  8
1
 10
369.67500000000001
 20
211.90000000000001
 30
0.0
 11
369.67500000000001
 21
172.44999999999999
 31
0.0
  0
LINE
  5
1E82
  8
1
 10
342.67500000000001
 20
211.90000000000001
 30
0.0
 11
342.67500000000001
 21
172.44999999999999
 31
0.0
  0
LINE
  5
1E83
  8
1
 10
315.67500000000001
 20
211.90000000000001
 30
0.0
 11
315.67500000000001
 21
172.44999999999999
 31
0.0
  0
LINE
  5
1E84
  8
1
 10
288.67500000000001
 20
211.90000000000001
 30
0.0
 11
288.67500000000001
 21
172.44999999999999
 31
0.0
  0
LINE
  5
1E85
  8
1
 10
261.67500000000001
 20
211.90000000000001
 30
0.0
 11
261.67500000000001
 21
172.44999999999999
 31
0.0
  0
LINE
  5
1E86
  8
1
 10
234.67500000000001
 20
211.90000000000001
 30
0.0
 11
234.67500000000001
 21
172.44999999999999
 31
0.0
  0
LINE
  5
1E87
  8
1
 10
207.67500000000001
 20
211.90000000000001
 30
0.0
 11
207.67500000000001
 21
172.44999999999999
 31
0.0
  0
LINE
  5
1E88
  8
1
 10
180.6749999999999
 20
211.90000000000001
 30
0.0
 11
180.6749999999999
 21
172.44999999999999
 31
0.0
  0
LINE
  5
1E89
  8
0
 10
418.9249999999999
 20
209.34999999999999
 30
0.0
 11
414.9249999999999
 21
209.34999999999999
 31
0.0
  0
LINE
  5
1E8A
  8
0
 10
418.9249999999999
 20
209.34999999999999
 30
0.0
 11
418.9249999999999
 21
208.90000000000001
 31
0.0
  0
LINE
  5
1E8B
  8
0
 10
414.9249999999999
 20
209.34999999999999
 30
0.0
 11
414.9249999999999
 21
208.90000000000001
 31
0.0
  0
LINE
  5
1E8C
  8
0
 10
428.4249999999999
 20
209.34999999999999
 30
0.0
 11
428.4249999999999
 21
208.90000000000001
 31
0.0
  0
LINE
  5
1E8D
  8
0
 10
432.4249999999999
 20
209.34999999999999
 30
0.0
 11
432.4249999999999
 21
208.90000000000001
 31
0.0
  0
LINE
  5
1E8E
  8
0
 10
432.4249999999999
 20
209.34999999999999
 30
0.0
 11
428.4249999999999
 21
209.34999999999999
 31
0.0
  0
LINE
  5
1E8F
  8
0
 10
432.4249999999999
 20
175.0
 30
0.0
 11
428.4249999999999
 21
175.0
 31
0.0
  0
LINE
  5
1E90
  8
0
 10
432.4249999999999
 20
175.0
 30
0.0
 11
432.4249999999999
 21
175.44999999999999
 31
0.0
  0
LINE
  5
1E91
  8
0
 10
428.4249999999999
 20
175.0
 30
0.0
 11
428.4249999999999
 21
175.44999999999999
 31
0.0
  0
LINE
  5
1E92
  8
0
 10
418.9249999999999
 20
175.0
 30
0.0
 11
418.9249999999999
 21
175.44999999999999
 31
0.0
  0
LINE
  5
1E93
  8
0
 10
414.9249999999999
 20
175.0
 30
0.0
 11
414.9249999999999
 21
175.44999999999999
 31
0.0
  0
LINE
  5
1E94
  8
0
 10
418.9249999999999
 20
175.0
 30
0.0
 11
414.9249999999999
 21
175.0
 31
0.0
  0
LINE
  5
1E95
  8
0
 10
437.1749999999999
 20
208.90000000000001
 30
0.0
 11
437.1749999999999
 21
204.67500000000001
 31
0.0
  0
LINE
  5
1E96
  8
0
 10
436.6749999999999
 20
208.90000000000001
 30
0.0
 11
436.6749999999999
 21
204.67500000000001
 31
0.0
  0
LINE
  5
1E98
  8
0
 10
410.6749999999999
 20
208.90000000000001
 30
0.0
 11
410.6749999999999
 21
204.67500000000001
 31
0.0
  0
LINE
  5
1E9A
  8
0
 10
410.17500000000001
 20
208.90000000000001
 30
0.0
 11
410.17500000000001
 21
204.67500000000001
 31
0.0
  0
LINE
  5
1E9B
  8
0
 10
436.6749999999999
 20
175.44999999999999
 30
0.0
 11
436.6749999999999
 21
179.67500000000001
 31
0.0
  0
LINE
  5
1E9C
  8
0
 10
437.1749999999999
 20
175.44999999999999
 30
0.0
 11
437.1749999999999
 21
179.67500000000001
 31
0.0
  0
LINE
  5
1EA1
  8
0
 10
436.1749999999999
 20
179.67500000000001
 30
0.0
 11
436.1749999999999
 21
204.67500000000001
 31
0.0
  0
LINE
  5
1EA2
  8
0
 10
411.1749999999999
 20
204.67500000000001
 30
0.0
 11
411.1749999999999
 21
179.67500000000001
 31
0.0
  0
LINE
  5
1EA3
  8
0
 10
391.9249999999999
 20
209.34999999999999
 30
0.0
 11
387.9249999999999
 21
209.34999999999999
 31
0.0
  0
LINE
  5
1EA4
  8
0
 10
387.9249999999999
 20
209.34999999999999
 30
0.0
 11
387.9249999999999
 21
208.90000000000001
 31
0.0
  0
LINE
  5
1EA5
  8
0
 10
391.9249999999999
 20
209.34999999999999
 30
0.0
 11
391.9249999999999
 21
208.90000000000001
 31
0.0
  0
LINE
  5
1EA6
  8
0
 10
405.4249999999999
 20
209.34999999999999
 30
0.0
 11
405.4249999999999
 21
208.90000000000001
 31
0.0
  0
LINE
  5
1EA7
  8
0
 10
405.4249999999999
 20
209.34999999999999
 30
0.0
 11
401.4249999999999
 21
209.34999999999999
 31
0.0
  0
LINE
  5
1EA8
  8
0
 10
401.4249999999999
 20
209.34999999999999
 30
0.0
 11
401.4249999999999
 21
208.90000000000001
 31
0.0
  0
LINE
  5
1EA9
  8
0
 10
405.4249999999999
 20
175.0
 30
0.0
 11
401.4249999999999
 21
175.0
 31
0.0
  0
LINE
  5
1EAA
  8
0
 10
405.4249999999999
 20
175.0
 30
0.0
 11
405.4249999999999
 21
175.44999999999999
 31
0.0
  0
LINE
  5
1EAB
  8
0
 10
401.4249999999999
 20
175.0
 30
0.0
 11
401.4249999999999
 21
175.44999999999999
 31
0.0
  0
LINE
  5
1EAC
  8
0
 10
387.9249999999999
 20
175.0
 30
0.0
 11
387.9249999999999
 21
175.44999999999999
 31
0.0
  0
LINE
  5
1EAD
  8
0
 10
391.9249999999999
 20
175.0
 30
0.0
 11
387.9249999999999
 21
175.0
 31
0.0
  0
LINE
  5
1EAE
  8
0
 10
391.9249999999999
 20
175.0
 30
0.0
 11
391.9249999999999
 21
175.44999999999999
 31
0.0
  0
LINE
  5
1EB0
  8
0
 10
409.6749999999999
 20
208.90000000000001
 30
0.0
 11
409.6749999999999
 21
204.67500000000001
 31
0.0
  0
LINE
  5
1EB2
  8
0
 10
383.6749999999999
 20
208.90000000000001
 30
0.0
 11
383.6749999999999
 21
204.67500000000001
 31
0.0
  0
LINE
  5
1EB4
  8
0
 10
383.1749999999999
 20
208.90000000000001
 30
0.0
 11
383.1749999999999
 21
204.67500000000001
 31
0.0
  0
LINE
  5
1EBB
  8
0
 10
409.1749999999999
 20
179.67500000000001
 30
0.0
 11
409.1749999999999
 21
204.67500000000001
 31
0.0
  0
LINE
  5
1EBC
  8
0
 10
384.17500000000001
 20
204.67500000000001
 30
0.0
 11
384.17500000000001
 21
179.67500000000001
 31
0.0
  0
LINE
  5
1EBD
  8
0
 10
374.42500000000001
 20
209.34999999999999
 30
0.0
 11
374.42500000000001
 21
208.90000000000001
 31
0.0
  0
LINE
  5
1EBE
  8
0
 10
378.42500000000001
 20
209.34999999999999
 30
0.0
 11
378.42500000000001
 21
208.90000000000001
 31
0.0
  0
LINE
  5
1EBF
  8
0
 10
378.42500000000001
 20
209.34999999999999
 30
0.0
 11
374.42500000000001
 21
209.34999999999999
 31
0.0
  0
LINE
  5
1EC0
  8
0
 10
364.9249999999999
 20
209.34999999999999
 30
0.0
 11
364.9249999999999
 21
208.90000000000001
 31
0.0
  0
LINE
  5
1EC1
  8
0
 10
364.9249999999999
 20
209.34999999999999
 30
0.0
 11
360.9249999999999
 21
209.34999999999999
 31
0.0
  0
LINE
  5
1EC2
  8
0
 10
360.9249999999999
 20
209.34999999999999
 30
0.0
 11
360.9249999999999
 21
208.90000000000001
 31
0.0
  0
LINE
  5
1EC3
  8
0
 10
360.9249999999999
 20
175.0
 30
0.0
 11
360.9249999999999
 21
175.44999999999999
 31
0.0
  0
LINE
  5
1EC4
  8
0
 10
364.9249999999999
 20
175.0
 30
0.0
 11
360.9249999999999
 21
175.0
 31
0.0
  0
LINE
  5
1EC5
  8
0
 10
364.9249999999999
 20
175.0
 30
0.0
 11
364.9249999999999
 21
175.44999999999999
 31
0.0
  0
LINE
  5
1EC6
  8
0
 10
378.42500000000001
 20
175.0
 30
0.0
 11
378.42500000000001
 21
175.44999999999999
 31
0.0
  0
LINE
  5
1EC7
  8
0
 10
378.42500000000001
 20
175.0
 30
0.0
 11
374.42500000000001
 21
175.0
 31
0.0
  0
LINE
  5
1EC8
  8
0
 10
374.42500000000001
 20
175.0
 30
0.0
 11
374.42500000000001
 21
175.44999999999999
 31
0.0
  0
LINE
  5
1ECC
  8
0
 10
356.1749999999999
 20
208.90000000000001
 30
0.0
 11
356.1749999999999
 21
204.67500000000001
 31
0.0
  0
LINE
  5
1ECD
  8
0
 10
382.67500000000001
 20
208.90000000000001
 30
0.0
 11
382.67500000000001
 21
204.67500000000001
 31
0.0
  0
LINE
  5
1ECE
  8
0
 10
356.6749999999999
 20
208.90000000000001
 30
0.0
 11
356.6749999999999
 21
204.67500000000001
 31
0.0
  0
LINE
  5
1ED5
  8
0
 10
382.17500000000001
 20
179.67500000000001
 30
0.0
 11
382.17500000000001
 21
204.67500000000001
 31
0.0
  0
LINE
  5
1ED6
  8
0
 10
357.17500000000001
 20
204.67500000000001
 30
0.0
 11
357.17500000000001
 21
179.67500000000001
 31
0.0
  0
LINE
  5
1ED7
  8
0
 10
347.42500000000001
 20
209.34999999999999
 30
0.0
 11
347.42500000000001
 21
208.90000000000001
 31
0.0
  0
LINE
  5
1ED8
  8
0
 10
351.42500000000001
 20
209.34999999999999
 30
0.0
 11
347.42500000000001
 21
209.34999999999999
 31
0.0
  0
LINE
  5
1ED9
  8
0
 10
351.42500000000001
 20
209.34999999999999
 30
0.0
 11
351.42500000000001
 21
208.90000000000001
 31
0.0
  0
LINE
  5
1EDA
  8
0
 10
337.9249999999999
 20
209.34999999999999
 30
0.0
 11
337.9249999999999
 21
208.90000000000001
 31
0.0
  0
LINE
  5
1EDB
  8
0
 10
337.9249999999999
 20
209.34999999999999
 30
0.0
 11
333.92500000000001
 21
209.34999999999999
 31
0.0
  0
LINE
  5
1EDC
  8
0
 10
333.92500000000001
 20
209.34999999999999
 30
0.0
 11
333.92500000000001
 21
208.90000000000001
 31
0.0
  0
LINE
  5
1EDD
  8
0
 10
337.9249999999999
 20
175.0
 30
0.0
 11
333.92500000000001
 21
175.0
 31
0.0
  0
LINE
  5
1EDE
  8
0
 10
333.92500000000001
 20
175.0
 30
0.0
 11
333.92500000000001
 21
175.44999999999999
 31
0.0
  0
LINE
  5
1EDF
  8
0
 10
337.9249999999999
 20
175.0
 30
0.0
 11
337.9249999999999
 21
175.44999999999999
 31
0.0
  0
LINE
  5
1EE0
  8
0
 10
351.42500000000001
 20
175.0
 30
0.0
 11
351.42500000000001
 21
175.44999999999999
 31
0.0
  0
LINE
  5
1EE1
  8
0
 10
347.42500000000001
 20
175.0
 30
0.0
 11
347.42500000000001
 21
175.44999999999999
 31
0.0
  0
LINE
  5
1EE2
  8
0
 10
351.42500000000001
 20
175.0
 30
0.0
 11
347.42500000000001
 21
175.0
 31
0.0
  0
LINE
  5
1EE6
  8
0
 10
329.1749999999999
 20
208.90000000000001
 30
0.0
 11
329.1749999999999
 21
204.67500000000001
 31
0.0
  0
LINE
  5
1EE7
  8
0
 10
355.67500000000001
 20
208.90000000000001
 30
0.0
 11
355.67500000000001
 21
204.67500000000001
 31
0.0
  0
LINE
  5
1EE8
  8
0
 10
329.6749999999999
 20
208.90000000000001
 30
0.0
 11
329.6749999999999
 21
204.67500000000001
 31
0.0
  0
LINE
  5
1EEF
  8
0
 10
355.17500000000001
 20
179.67500000000001
 30
0.0
 11
355.17500000000001
 21
204.67500000000001
 31
0.0
  0
LINE
  5
1EF0
  8
0
 10
330.17500000000001
 20
204.67500000000001
 30
0.0
 11
330.17500000000001
 21
179.67500000000001
 31
0.0
  0
LINE
  5
1EF1
  8
0
 10
310.9249999999999
 20
209.34999999999999
 30
0.0
 11
310.9249999999999
 21
208.90000000000001
 31
0.0
  0
LINE
  5
1EF2
  8
0
 10
310.9249999999999
 20
209.34999999999999
 30
0.0
 11
306.92500000000001
 21
209.34999999999999
 31
0.0
  0
LINE
  5
1EF3
  8
0
 10
306.92500000000001
 20
209.34999999999999
 30
0.0
 11
306.92500000000001
 21
208.90000000000001
 31
0.0
  0
LINE
  5
1EF4
  8
0
 10
324.42500000000001
 20
209.34999999999999
 30
0.0
 11
320.42500000000001
 21
209.34999999999999
 31
0.0
  0
LINE
  5
1EF5
  8
0
 10
320.42500000000001
 20
209.34999999999999
 30
0.0
 11
320.42500000000001
 21
208.90000000000001
 31
0.0
  0
LINE
  5
1EF6
  8
0
 10
324.42500000000001
 20
209.34999999999999
 30
0.0
 11
324.42500000000001
 21
208.90000000000001
 31
0.0
  0
LINE
  5
1EF7
  8
0
 10
306.92500000000001
 20
175.0
 30
0.0
 11
306.92500000000001
 21
175.44999999999999
 31
0.0
  0
LINE
  5
1EF8
  8
0
 10
310.9249999999999
 20
175.0
 30
0.0
 11
306.92500000000001
 21
175.0
 31
0.0
  0
LINE
  5
1EF9
  8
0
 10
310.9249999999999
 20
175.0
 30
0.0
 11
310.9249999999999
 21
175.44999999999999
 31
0.0
  0
LINE
  5
1EFA
  8
0
 10
324.42500000000001
 20
175.0
 30
0.0
 11
324.42500000000001
 21
175.44999999999999
 31
0.0
  0
LINE
  5
1EFB
  8
0
 10
320.42500000000001
 20
175.0
 30
0.0
 11
320.42500000000001
 21
175.44999999999999
 31
0.0
  0
LINE
  5
1EFC
  8
0
 10
324.42500000000001
 20
175.0
 30
0.0
 11
320.42500000000001
 21
175.0
 31
0.0
  0
LINE
  5
1EFE
  8
0
 10
328.67500000000001
 20
208.90000000000001
 30
0.0
 11
328.67500000000001
 21
204.67500000000001
 31
0.0
  0
LINE
  5
1F00
  8
0
 10
302.67500000000001
 20
208.90000000000001
 30
0.0
 11
302.67500000000001
 21
204.67500000000001
 31
0.0
  0
LINE
  5
1F02
  8
0
 10
302.1749999999999
 20
208.90000000000001
 30
0.0
 11
302.1749999999999
 21
204.67500000000001
 31
0.0
  0
LINE
  5
1F09
  8
0
 10
328.17500000000001
 20
179.67500000000001
 30
0.0
 11
328.17500000000001
 21
204.67500000000001
 31
0.0
  0
LINE
  5
1F0A
  8
0
 10
303.17500000000001
 20
204.67500000000001
 30
0.0
 11
303.17500000000001
 21
179.67500000000001
 31
0.0
  0
LINE
  5
1F0B
  8
0
 10
293.42500000000001
 20
209.34999999999999
 30
0.0
 11
293.42500000000001
 21
208.90000000000001
 31
0.0
  0
LINE
  5
1F0C
  8
0
 10
297.4249999999999
 20
209.34999999999999
 30
0.0
 11
297.4249999999999
 21
208.90000000000001
 31
0.0
  0
LINE
  5
1F0D
  8
0
 10
297.4249999999999
 20
209.34999999999999
 30
0.0
 11
293.42500000000001
 21
209.34999999999999
 31
0.0
  0
LINE
  5
1F0E
  8
0
 10
283.9249999999999
 20
209.34999999999999
 30
0.0
 11
283.9249999999999
 21
208.90000000000001
 31
0.0
  0
LINE
  5
1F0F
  8
0
 10
279.92500000000001
 20
209.34999999999999
 30
0.0
 11
279.92500000000001
 21
208.90000000000001
 31
0.0
  0
LINE
  5
1F10
  8
0
 10
283.9249999999999
 20
209.34999999999999
 30
0.0
 11
279.92500000000001
 21
209.34999999999999
 31
0.0
  0
LINE
  5
1F11
  8
0
 10
293.42500000000001
 20
175.0
 30
0.0
 11
293.42500000000001
 21
175.44999999999999
 31
0.0
  0
LINE
  5
1F12
  8
0
 10
297.4249999999999
 20
175.0
 30
0.0
 11
293.42500000000001
 21
175.0
 31
0.0
  0
LINE
  5
1F13
  8
0
 10
297.4249999999999
 20
175.0
 30
0.0
 11
297.4249999999999
 21
175.44999999999999
 31
0.0
  0
LINE
  5
1F14
  8
0
 10
283.9249999999999
 20
175.0
 30
0.0
 11
283.9249999999999
 21
175.44999999999999
 31
0.0
  0
LINE
  5
1F15
  8
0
 10
279.92500000000001
 20
175.0
 30
0.0
 11
279.92500000000001
 21
175.44999999999999
 31
0.0
  0
LINE
  5
1F16
  8
0
 10
283.9249999999999
 20
175.0
 30
0.0
 11
279.92500000000001
 21
175.0
 31
0.0
  0
LINE
  5
1F1A
  8
0
 10
275.1749999999999
 20
208.90000000000001
 30
0.0
 11
275.1749999999999
 21
204.67500000000001
 31
0.0
  0
LINE
  5
1F1B
  8
0
 10
301.67500000000001
 20
208.90000000000001
 30
0.0
 11
301.67500000000001
 21
204.67500000000001
 31
0.0
  0
LINE
  5
1F1C
  8
0
 10
275.67500000000001
 20
208.90000000000001
 30
0.0
 11
275.67500000000001
 21
204.67500000000001
 31
0.0
  0
LINE
  5
1F23
  8
0
 10
301.17500000000001
 20
179.67500000000001
 30
0.0
 11
301.17500000000001
 21
204.67500000000001
 31
0.0
  0
LINE
  5
1F24
  8
0
 10
276.17500000000001
 20
204.67500000000001
 30
0.0
 11
276.17500000000001
 21
179.67500000000001
 31
0.0
  0
LINE
  5
1F25
  8
0
 10
256.92500000000001
 20
209.34999999999999
 30
0.0
 11
256.92500000000001
 21
208.90000000000001
 31
0.0
  0
LINE
  5
1F26
  8
0
 10
256.92500000000001
 20
209.34999999999999
 30
0.0
 11
252.92500000000001
 21
209.34999999999999
 31
0.0
  0
LINE
  5
1F27
  8
0
 10
252.92500000000001
 20
209.34999999999999
 30
0.0
 11
252.92500000000001
 21
208.90000000000001
 31
0.0
  0
LINE
  5
1F28
  8
0
 10
270.42500000000001
 20
209.34999999999999
 30
0.0
 11
266.42500000000001
 21
209.34999999999999
 31
0.0
  0
LINE
  5
1F29
  8
0
 10
266.42500000000001
 20
209.34999999999999
 30
0.0
 11
266.42500000000001
 21
208.90000000000001
 31
0.0
  0
LINE
  5
1F2A
  8
0
 10
270.42500000000001
 20
209.34999999999999
 30
0.0
 11
270.42500000000001
 21
208.90000000000001
 31
0.0
  0
LINE
  5
1F2B
  8
0
 10
252.92500000000001
 20
175.0
 30
0.0
 11
252.92500000000001
 21
175.44999999999999
 31
0.0
  0
LINE
  5
1F2C
  8
0
 10
256.92500000000001
 20
175.0
 30
0.0
 11
252.92500000000001
 21
175.0
 31
0.0
  0
LINE
  5
1F2D
  8
0
 10
256.92500000000001
 20
175.0
 30
0.0
 11
256.92500000000001
 21
175.44999999999999
 31
0.0
  0
LINE
  5
1F2E
  8
0
 10
266.42500000000001
 20
175.0
 30
0.0
 11
266.42500000000001
 21
175.44999999999999
 31
0.0
  0
LINE
  5
1F2F
  8
0
 10
270.42500000000001
 20
175.0
 30
0.0
 11
266.42500000000001
 21
175.0
 31
0.0
  0
LINE
  5
1F30
  8
0
 10
270.42500000000001
 20
175.0
 30
0.0
 11
270.42500000000001
 21
175.44999999999999
 31
0.0
  0
LINE
  5
1F33
  8
0
 10
274.67500000000001
 20
208.90000000000001
 30
0.0
 11
274.67500000000001
 21
204.67500000000001
 31
0.0
  0
LINE
  5
1F35
  8
0
 10
248.67500000000001
 20
208.90000000000001
 30
0.0
 11
248.67500000000001
 21
204.67500000000001
 31
0.0
  0
LINE
  5
1F36
  8
0
 10
248.1749999999999
 20
208.90000000000001
 30
0.0
 11
248.1749999999999
 21
204.67500000000001
 31
0.0
  0
LINE
  5
1F3D
  8
0
 10
274.17500000000001
 20
179.67500000000001
 30
0.0
 11
274.17500000000001
 21
204.67500000000001
 31
0.0
  0
LINE
  5
1F3E
  8
0
 10
249.17500000000001
 20
204.67500000000001
 30
0.0
 11
249.17500000000001
 21
179.67500000000001
 31
0.0
  0
LINE
  5
1F3F
  8
0
 10
229.92500000000001
 20
209.34999999999999
 30
0.0
 11
229.92500000000001
 21
208.90000000000001
 31
0.0
  0
LINE
  5
1F40
  8
0
 10
225.92500000000001
 20
209.34999999999999
 30
0.0
 11
225.92500000000001
 21
208.90000000000001
 31
0.0
  0
LINE
  5
1F41
  8
0
 10
229.92500000000001
 20
209.34999999999999
 30
0.0
 11
225.92500000000001
 21
209.34999999999999
 31
0.0
  0
LINE
  5
1F42
  8
0
 10
243.42500000000001
 20
209.34999999999999
 30
0.0
 11
239.4249999999999
 21
209.34999999999999
 31
0.0
  0
LINE
  5
1F43
  8
0
 10
243.42500000000001
 20
209.34999999999999
 30
0.0
 11
243.42500000000001
 21
208.90000000000001
 31
0.0
  0
LINE
  5
1F44
  8
0
 10
239.4249999999999
 20
209.34999999999999
 30
0.0
 11
239.4249999999999
 21
208.90000000000001
 31
0.0
  0
LINE
  5
1F45
  8
0
 10
229.92500000000001
 20
175.0
 30
0.0
 11
225.92500000000001
 21
175.0
 31
0.0
  0
LINE
  5
1F46
  8
0
 10
225.92500000000001
 20
175.0
 30
0.0
 11
225.92500000000001
 21
175.44999999999999
 31
0.0
  0
LINE
  5
1F47
  8
0
 10
229.92500000000001
 20
175.0
 30
0.0
 11
229.92500000000001
 21
175.44999999999999
 31
0.0
  0
LINE
  5
1F48
  8
0
 10
239.4249999999999
 20
175.0
 30
0.0
 11
239.4249999999999
 21
175.44999999999999
 31
0.0
  0
LINE
  5
1F49
  8
0
 10
243.42500000000001
 20
175.0
 30
0.0
 11
239.4249999999999
 21
175.0
 31
0.0
  0
LINE
  5
1F4A
  8
0
 10
243.42500000000001
 20
175.0
 30
0.0
 11
243.42500000000001
 21
175.44999999999999
 31
0.0
  0
LINE
  5
1F4D
  8
0
 10
247.67500000000001
 20
208.90000000000001
 30
0.0
 11
247.67500000000001
 21
204.67500000000001
 31
0.0
  0
LINE
  5
1F4E
  8
0
 10
221.67500000000001
 20
208.90000000000001
 30
0.0
 11
221.67500000000001
 21
204.67500000000001
 31
0.0
  0
LINE
  5
1F50
  8
0
 10
221.1749999999999
 20
208.90000000000001
 30
0.0
 11
221.1749999999999
 21
204.67500000000001
 31
0.0
  0
LINE
  5
1F57
  8
0
 10
247.17500000000001
 20
179.67500000000001
 30
0.0
 11
247.17500000000001
 21
204.67500000000001
 31
0.0
  0
LINE
  5
1F58
  8
0
 10
222.17500000000001
 20
204.67500000000001
 30
0.0
 11
222.17500000000001
 21
179.67500000000001
 31
0.0
  0
LINE
  5
1F59
  8
0
 10
216.42500000000001
 20
209.34999999999999
 30
0.0
 11
216.42500000000001
 21
208.90000000000001
 31
0.0
  0
LINE
  5
1F5A
  8
0
 10
216.42500000000001
 20
209.34999999999999
 30
0.0
 11
212.4249999999999
 21
209.34999999999999
 31
0.0
  0
LINE
  5
1F5B
  8
0
 10
212.4249999999999
 20
209.34999999999999
 30
0.0
 11
212.4249999999999
 21
208.90000000000001
 31
0.0
  0
LINE
  5
1F5C
  8
0
 10
202.92500000000001
 20
209.34999999999999
 30
0.0
 11
202.92500000000001
 21
208.90000000000001
 31
0.0
  0
LINE
  5
1F5D
  8
0
 10
202.92500000000001
 20
209.34999999999999
 30
0.0
 11
198.9249999999999
 21
209.34999999999999
 31
0.0
  0
LINE
  5
1F5E
  8
0
 10
198.9249999999999
 20
209.34999999999999
 30
0.0
 11
198.9249999999999
 21
208.90000000000001
 31
0.0
  0
LINE
  5
1F5F
  8
0
 10
202.92500000000001
 20
175.0
 30
0.0
 11
198.9249999999999
 21
175.0
 31
0.0
  0
LINE
  5
1F60
  8
0
 10
198.9249999999999
 20
175.0
 30
0.0
 11
198.9249999999999
 21
175.44999999999999
 31
0.0
  0
LINE
  5
1F61
  8
0
 10
202.92500000000001
 20
175.0
 30
0.0
 11
202.92500000000001
 21
175.44999999999999
 31
0.0
  0
LINE
  5
1F62
  8
0
 10
212.4249999999999
 20
175.0
 30
0.0
 11
212.4249999999999
 21
175.44999999999999
 31
0.0
  0
LINE
  5
1F63
  8
0
 10
216.42500000000001
 20
175.0
 30
0.0
 11
212.4249999999999
 21
175.0
 31
0.0
  0
LINE
  5
1F64
  8
0
 10
216.42500000000001
 20
175.0
 30
0.0
 11
216.42500000000001
 21
175.44999999999999
 31
0.0
  0
LINE
  5
1F66
  8
0
 10
220.6749999999999
 20
208.90000000000001
 30
0.0
 11
220.6749999999999
 21
204.67500000000001
 31
0.0
  0
LINE
  5
1F68
  8
0
 10
194.6749999999999
 20
208.90000000000001
 30
0.0
 11
194.6749999999999
 21
204.67500000000001
 31
0.0
  0
LINE
  5
1F6A
  8
0
 10
194.1749999999999
 20
208.90000000000001
 30
0.0
 11
194.1749999999999
 21
204.67500000000001
 31
0.0
  0
LINE
  5
1F71
  8
0
 10
220.17500000000001
 20
179.67500000000001
 30
0.0
 11
220.17500000000001
 21
204.67500000000001
 31
0.0
  0
LINE
  5
1F72
  8
0
 10
195.1749999999999
 20
204.67500000000001
 30
0.0
 11
195.1749999999999
 21
179.67500000000001
 31
0.0
  0
LINE
  5
1F73
  8
0
 10
189.4249999999999
 20
209.34999999999999
 30
0.0
 11
189.4249999999999
 21
208.90000000000001
 31
0.0
  0
LINE
  5
1F74
  8
0
 10
185.4249999999999
 20
209.34999999999999
 30
0.0
 11
185.4249999999999
 21
208.90000000000001
 31
0.0
  0
LINE
  5
1F75
  8
0
 10
189.4249999999999
 20
209.34999999999999
 30
0.0
 11
185.4249999999999
 21
209.34999999999999
 31
0.0
  0
LINE
  5
1F76
  8
0
 10
175.9249999999999
 20
209.34999999999999
 30
0.0
 11
175.9249999999999
 21
208.90000000000001
 31
0.0
  0
LINE
  5
1F77
  8
0
 10
175.9249999999999
 20
209.34999999999999
 30
0.0
 11
171.9249999999999
 21
209.34999999999999
 31
0.0
  0
LINE
  5
1F78
  8
0
 10
171.9249999999999
 20
209.34999999999999
 30
0.0
 11
171.9249999999999
 21
208.90000000000001
 31
0.0
  0
LINE
  5
1F79
  8
0
 10
171.9249999999999
 20
175.0
 30
0.0
 11
171.9249999999999
 21
175.44999999999999
 31
0.0
  0
LINE
  5
1F7A
  8
0
 10
175.9249999999999
 20
175.0
 30
0.0
 11
171.9249999999999
 21
175.0
 31
0.0
  0
LINE
  5
1F7B
  8
0
 10
175.9249999999999
 20
175.0
 30
0.0
 11
175.9249999999999
 21
175.44999999999999
 31
0.0
  0
LINE
  5
1F7C
  8
0
 10
185.4249999999999
 20
175.0
 30
0.0
 11
185.4249999999999
 21
175.44999999999999
 31
0.0
  0
LINE
  5
1F7D
  8
0
 10
189.4249999999999
 20
175.0
 30
0.0
 11
185.4249999999999
 21
175.0
 31
0.0
  0
LINE
  5
1F7E
  8
0
 10
189.4249999999999
 20
175.0
 30
0.0
 11
189.4249999999999
 21
175.44999999999999
 31
0.0
  0
LINE
  5
1F80
  8
0
 10
193.6749999999999
 20
208.90000000000001
 30
0.0
 11
193.6749999999999
 21
204.67500000000001
 31
0.0
  0
LINE
  5
1F81
  8
0
 10
437.1749999999999
 20
204.6749999999999
 30
0.0
 11
167.1749999999999
 21
204.67500000000001
 31
0.0
  0
LINE
  5
1F82
  8
0
 10
167.6749999999999
 20
208.90000000000001
 30
0.0
 11
167.6749999999999
 21
204.67500000000001
 31
0.0
  0
LINE
  5
1F83
  8
0
 10
437.1749999999999
 20
208.90000000000001
 30
0.0
 11
167.1749999999999
 21
208.90000000000001
 31
0.0
  0
LINE
  5
1F84
  8
0
 10
167.1749999999999
 20
208.90000000000001
 30
0.0
 11
167.1749999999999
 21
204.67500000000001
 31
0.0
  0
LINE
  5
1F87
  8
0
 10
167.1749999999999
 20
175.44999999999999
 30
0.0
 11
167.1749999999999
 21
179.67500000000001
 31
0.0
  0
LINE
  5
1F88
  8
0
 10
167.6749999999999
 20
175.44999999999999
 30
0.0
 11
167.6749999999999
 21
179.67500000000001
 31
0.0
  0
LINE
  5
1F8B
  8
0
 10
193.1749999999999
 20
179.67500000000001
 30
0.0
 11
193.1749999999999
 21
204.67500000000001
 31
0.0
  0
LINE
  5
1F8C
  8
0
 10
168.1749999999999
 20
204.67500000000001
 30
0.0
 11
168.1749999999999
 21
179.67500000000001
 31
0.0
  0
LINE
  5
2030
  8
0
 10
410.6749999999999
 20
179.67500000000001
 30
0.0
 11
410.6749999999999
 21
175.44999999999999
 31
0.0
  0
LINE
  5
2031
  8
0
 10
410.17500000000001
 20
179.67500000000001
 30
0.0
 11
410.17500000000001
 21
175.44999999999999
 31
0.0
  0
LINE
  5
2032
  8
0
 10
409.6749999999999
 20
179.67500000000001
 30
0.0
 11
409.6749999999999
 21
175.44999999999999
 31
0.0
  0
LINE
  5
2033
  8
0
 10
383.6749999999999
 20
179.67500000000001
 30
0.0
 11
383.6749999999999
 21
175.44999999999999
 31
0.0
  0
LINE
  5
2034
  8
0
 10
383.1749999999999
 20
179.67500000000001
 30
0.0
 11
383.1749999999999
 21
175.44999999999999
 31
0.0
  0
LINE
  5
2035
  8
0
 10
356.1749999999999
 20
179.67500000000001
 30
0.0
 11
356.1749999999999
 21
175.44999999999999
 31
0.0
  0
LINE
  5
2036
  8
0
 10
382.67500000000001
 20
179.67500000000001
 30
0.0
 11
382.67500000000001
 21
175.44999999999999
 31
0.0
  0
LINE
  5
2037
  8
0
 10
356.6749999999999
 20
179.67500000000001
 30
0.0
 11
356.6749999999999
 21
175.44999999999999
 31
0.0
  0
LINE
  5
2038
  8
0
 10
329.1749999999999
 20
179.67500000000001
 30
0.0
 11
329.1749999999999
 21
175.44999999999999
 31
0.0
  0
LINE
  5
2039
  8
0
 10
355.67500000000001
 20
179.67500000000001
 30
0.0
 11
355.67500000000001
 21
175.44999999999999
 31
0.0
  0
LINE
  5
203A
  8
0
 10
329.6749999999999
 20
179.67500000000001
 30
0.0
 11
329.6749999999999
 21
175.44999999999999
 31
0.0
  0
LINE
  5
203B
  8
0
 10
328.67500000000001
 20
179.67500000000001
 30
0.0
 11
328.67500000000001
 21
175.44999999999999
 31
0.0
  0
LINE
  5
203C
  8
0
 10
302.67500000000001
 20
179.67500000000001
 30
0.0
 11
302.67500000000001
 21
175.44999999999999
 31
0.0
  0
LINE
  5
203D
  8
0
 10
302.1749999999999
 20
179.67500000000001
 30
0.0
 11
302.1749999999999
 21
175.44999999999999
 31
0.0
  0
LINE
  5
203E
  8
0
 10
275.1749999999999
 20
179.67500000000001
 30
0.0
 11
275.1749999999999
 21
175.44999999999999
 31
0.0
  0
LINE
  5
203F
  8
0
 10
301.67500000000001
 20
179.67500000000001
 30
0.0
 11
301.67500000000001
 21
175.44999999999999
 31
0.0
  0
LINE
  5
2040
  8
0
 10
275.67500000000001
 20
179.67500000000001
 30
0.0
 11
275.67500000000001
 21
175.44999999999999
 31
0.0
  0
LINE
  5
2041
  8
0
 10
274.67500000000001
 20
179.67500000000001
 30
0.0
 11
274.67500000000001
 21
175.44999999999999
 31
0.0
  0
LINE
  5
2042
  8
0
 10
248.67500000000001
 20
179.67500000000001
 30
0.0
 11
248.67500000000001
 21
175.44999999999999
 31
0.0
  0
LINE
  5
2043
  8
0
 10
248.1749999999999
 20
179.67500000000001
 30
0.0
 11
248.1749999999999
 21
175.44999999999999
 31
0.0
  0
LINE
  5
2044
  8
0
 10
247.67500000000001
 20
179.67500000000001
 30
0.0
 11
247.67500000000001
 21
175.44999999999999
 31
0.0
  0
LINE
  5
2045
  8
0
 10
221.67500000000001
 20
179.67500000000001
 30
0.0
 11
221.67500000000001
 21
175.44999999999999
 31
0.0
  0
LINE
  5
2046
  8
0
 10
221.1749999999999
 20
179.67500000000001
 30
0.0
 11
221.1749999999999
 21
175.44999999999999
 31
0.0
  0
LINE
  5
2047
  8
0
 10
220.6749999999999
 20
179.67500000000001
 30
0.0
 11
220.6749999999999
 21
175.44999999999999
 31
0.0
  0
LINE
  5
2048
  8
0
 10
194.6749999999999
 20
179.67500000000001
 30
0.0
 11
194.6749999999999
 21
175.44999999999999
 31
0.0
  0
LINE
  5
2049
  8
0
 10
194.1749999999999
 20
179.67500000000001
 30
0.0
 11
194.1749999999999
 21
175.44999999999999
 31
0.0
  0
LINE
  5
204A
  8
0
 10
193.6749999999999
 20
179.67500000000001
 30
0.0
 11
193.6749999999999
 21
175.44999999999999
 31
0.0
  0
LINE
  5
204B
  8
0
 10
437.1749999999999
 20
175.44999999999999
 30
0.0
 11
167.1749999999999
 21
175.44999999999999
 31
0.0
  0
LINE
  5
204C
  8
0
 10
437.1749999999999
 20
179.67500000000001
 30
0.0
 11
167.1749999999999
 21
179.6750000000001
 31
0.0
  0
LINE
  5
2053
  8
1
 10
180.6749999999999
 20
97.0
 30
0.0
 11
180.6749999999999
 21
128.0
 31
0.0
  0
LINE
  5
2060
  8
1
 10
163.1749999999999
 20
192.1749999999999
 30
0.0
 11
441.1749999999999
 21
192.17500000000001
 31
0.0
  0
LINE
  5
2069
  8
1
 10
100.0
 20
97.0
 30
0.0
 11
100.0
 21
128.0
 31
0.0
  0
ENDSEC
  0
EOF
