  0
SECTION
  2
HEADER
  9
$ACADVER
  1
AC1009
  9
$INSBASE
 10
0.0
 20
0.0
 30
0.0
  9
$EXTMIN
 10
0.0
 20
-2.960436562073669
 30
0.0
  9
$EXTMAX
 10
443.0
 20
212.5
 30
0.0
  9
$LIMMIN
 10
0.0
 20
0.0
  9
$LIMMAX
 10
187.5
 20
135.0
  9
$ORTHOMODE
 70
     1
  9
$REGENMODE
 70
     1
  9
$FILLMODE
 70
     1
  9
$QTEXTMODE
 70
     0
  9
$MIRRTEXT
 70
     0
  9
$DRAGMODE
 70
     2
  9
$LTSCALE
 40
10.0
  9
$OSMODE
 70
    37
  9
$ATTMODE
 70
     1
  9
$TEXTSIZE
 40
2.5
  9
$TRACEWID
 40
0.05
  9
$TEXTSTYLE
  7
STANDARD
  9
$CLAYER
  8
0
  9
$CELTYPE
  6
BYLAYER
  9
$CECOLOR
 62
   256
  9
$DIMSCALE
 40
1.0
  9
$DIMASZ
 40
3.0
  9
$DIMEXO
 40
2.0
  9
$DIMDLI
 40
10.0
  9
$DIMRND
 40
0.0
  9
$DIMDLE
 40
0.0
  9
$DIMEXE
 40
2.0
  9
$DIMTP
 40
0.0
  9
$DIMTM
 40
0.0
  9
$DIMTXT
 40
3.0
  9
$DIMCEN
 40
0.09
  9
$DIMTSZ
 40
0.0
  9
$DIMTOL
 70
     0
  9
$DIMLIM
 70
     0
  9
$DIMTIH
 70
     0
  9
$DIMTOH
 70
     0
  9
$DIMSE1
 70
     0
  9
$DIMSE2
 70
     0
  9
$DIMTAD
 70
     1
  9
$DIMZIN
 70
     0
  9
$DIMBLK
  1

  9
$DIMASO
 70
     0
  9
$DIMSHO
 70
     0
  9
$DIMPOST
  1

  9
$DIMAPOST
  1

  9
$DIMALT
 70
     0
  9
$DIMALTD
 70
     2
  9
$DIMALTF
 40
25.399999999999999
  9
$DIMLFAC
 40
1.0
  9
$DIMTOFL
 70
     1
  9
$DIMTVP
 40
1.6000000000000001
  9
$DIMTIX
 70
     1
  9
$DIMSOXD
 70
     0
  9
$DIMSAH
 70
     0
  9
$DIMBLK1
  1

  9
$DIMBLK2
  1

  9
$DIMSTYLE
  2
STANDARD
  9
$DIMCLRD
 70
     0
  9
$DIMCLRE
 70
     0
  9
$DIMCLRT
 70
     0
  9
$DIMTFAC
 40
1.0
  9
$DIMGAP
 40
0.09
  9
$LUNITS
 70
     2
  9
$LUPREC
 70
     1
  9
$SKETCHINC
 40
0.1
  9
$FILLETRAD
 40
0.0
  9
$AUNITS
 70
     0
  9
$AUPREC
 70
     0
  9
$MENU
  1
E:\r13\win\SUPPORT\ACAD
  9
$ELEVATION
 40
0.0
  9
$PELEVATION
 40
0.0
  9
$THICKNESS
 40
0.0
  9
$LIMCHECK
 70
     0
  9
$BLIPMODE
 70
     0
  9
$CHAMFERA
 40
1.6000000000000001
  9
$CHAMFERB
 40
1.6000000000000001
  9
$SKPOLY
 70
     0
  9
$TDCREATE
 40
2449840.5944097228
  9
$TDUPDATE
 40
2457304.4285981939
  9
$TDINDWG
 40
0.1932398495
  9
$TDUSRTIMER
 40
0.1932398495
  9
$USRTIMER
 70
     1
  9
$ANGBASE
 50
0.0
  9
$ANGDIR
 70
     0
  9
$PDMODE
 70
     0
  9
$PDSIZE
 40
0.0
  9
$PLINEWID
 40
0.0
  9
$COORDS
 70
     1
  9
$SPLFRAME
 70
     0
  9
$SPLINETYPE
 70
     6
  9
$SPLINESEGS
 70
     8
  9
$ATTDIA
 70
     0
  9
$ATTREQ
 70
     1
  9
$HANDLING
 70
     1
  9
$HANDSEED
  5
2B72
  9
$SURFTAB1
 70
     6
  9
$SURFTAB2
 70
     6
  9
$SURFTYPE
 70
     6
  9
$SURFU
 70
     6
  9
$SURFV
 70
     6
  9
$UCSNAME
  2

  9
$UCSORG
 10
0.0
 20
0.0
 30
0.0
  9
$UCSXDIR
 10
1.0
 20
0.0
 30
0.0
  9
$UCSYDIR
 10
0.0
 20
1.0
 30
0.0
  9
$PUCSNAME
  2

  9
$PUCSORG
 10
0.0
 20
0.0
 30
0.0
  9
$PUCSXDIR
 10
1.0
 20
0.0
 30
0.0
  9
$PUCSYDIR
 10
0.0
 20
1.0
 30
0.0
  9
$USERI1
 70
     0
  9
$USERI2
 70
     1
  9
$USERI3
 70
     1
  9
$USERI4
 70
     0
  9
$USERI5
 70
     0
  9
$USERR1
 40
0.0
  9
$USERR2
 40
0.0
  9
$USERR3
 40
0.0
  9
$USERR4
 40
0.0
  9
$USERR5
 40
0.0
  9
$WORLDVIEW
 70
     1
  9
$SHADEDGE
 70
     3
  9
$SHADEDIF
 70
    70
  9
$TILEMODE
 70
     1
  9
$MAXACTVP
 70
    16
  9
$PLIMCHECK
 70
     0
  9
$PEXTMIN
 10
1.0000000000000000E+020
 20
1.0000000000000000E+020
 30
1.0000000000000000E+020
  9
$PEXTMAX
 10
-1.0000000000000000E+020
 20
-1.0000000000000000E+020
 30
-1.0000000000000000E+020
  9
$PLIMMIN
 10
0.0
 20
0.0
  9
$PLIMMAX
 10
12.0
 20
9.0
  9
$UNITMODE
 70
     0
  9
$VISRETAIN
 70
     0
  9
$PLINEGEN
 70
     0
  9
$PSLTSCALE
 70
     0
  0
ENDSEC
  0
SECTION
  2
TABLES
  0
TABLE
  2
VPORT
 70
     1
  0
VPORT
  2
*ACTIVE
 70
     0
 10
0.0
 20
0.0
 11
1.0
 21
1.0
 12
272.4358974358974
 22
150.0
 13
0.0
 23
0.0
 14
5.0
 24
5.0
 15
5.0
 25
5.0
 16
0.0
 26
0.0
 36
1.0
 17
0.0
 27
0.0
 37
0.0
 40
300.0
 41
1.816239316239316
 42
50.0
 43
0.0
 44
0.0
 50
0.0
 51
0.0
 71
     0
 72
   100
 73
     1
 74
     0
 75
     0
 76
     0
 77
     0
 78
     0
  0
ENDTAB
  0
TABLE
  2
LTYPE
 70
     3
  0
LTYPE
  2
CONTINUOUS
 70
     0
  3
Solid Line
 72
    65
 73
     0
 40
0.0
  0
LTYPE
  2
CENTER
 70
     0
  3
____ _ ____ _ ____ _ ____ _ ____ _ ____ _ ____
 72
    65
 73
     4
 40
2.0
 49
1.25
 49
-0.25
 49
0.25
 49
-0.25
  0
LTYPE
  2
PHANTOM2
 70
     0
  3
___ _ _ ___ _ _ ___ _ _ ___ _ _
 72
    65
 73
     6
 40
1.25
 49
0.625
 49
-0.125
 49
0.125
 49
-0.125
 49
0.125
 49
-0.125
  0
ENDTAB
  0
TABLE
  2
LAYER
 70
     3
  0
LAYER
  2
0
 70
     0
 62
     7
  6
CONTINUOUS
  0
LAYER
  2
1
 70
     0
 62
     1
  6
CENTER
  0
LAYER
  2
DEFPOINTS
 70
     0
 62
     7
  6
CONTINUOUS
  0
ENDTAB
  0
TABLE
  2
STYLE
 70
     2
  0
STYLE
  2
STANDARD
 70
     0
 40
0.0
 41
1.0
 50
0.0
 71
     0
 42
2.5
  3
TXT
  4
BIGFONT
  0
STYLE
  2
STANDARD1
 70
     0
 40
0.0
 41
1.0
 50
0.0
 71
     0
 42
3.0
  3
txt
  4

  0
ENDTAB
  0
TABLE
  2
VIEW
 70
     1
  0
VIEW
  2
ALL
 70
     0
 40
135.0
 10
110.49579799999999
 20
67.5
 41
0.0
 11
0.0
 21
0.0
 31
1.0
 12
0.0
 22
0.0
 32
0.0
 42
0.0
 43
0.0
 44
0.0
 50
0.0
 71
     0
  0
ENDTAB
  0
TABLE
  2
UCS
 70
     0
  0
ENDTAB
  0
TABLE
  2
APPID
 70
    12
  0
APPID
  2
ACAD
 70
     0
  0
APPID
  2
DCO15
 70
     0
  0
APPID
  2
ACAD_MLEADERVER
 70
     0
  0
APPID
  2
ACAD_EXEMPT_FROM_CAD_STANDARDS
 70
     0
  0
APPID
  2
ACAD_NAV_VCDISPLAY
 70
     0
  0
APPID
  2
ACAD_DSTYLE_DIMRADIAL_EXTENSION
 70
     0
  0
APPID
  2
ACAD_PSEXT
 70
     0
  0
APPID
  2
ACAD_DSTYLE_DIMJAG
 70
     0
  0
APPID
  2
ACAD_DSTYLE_DIMTALN
 70
     0
  0
APPID
  2
ACAD_DSTYLE_DIMBREAK
 70
     0
  0
APPID
  2
ACAECLAYERSTANDARD
 70
     0
  0
APPID
  2
ACCMTRANSPARENCY
 70
     0
  0
ENDTAB
  0
TABLE
  2
DIMSTYLE
 70
     1
  0
DIMSTYLE
  2
STANDARD
 70
     0
  3

  4

  5

  6

  7

 40
1.0
 41
0.18
 42
0.0625
 43
0.38
 44
0.18
 45
0.0
 46
0.0
 47
0.0
 48
0.0
140
0.18
141
0.09
142
0.0
143
25.399999999999999
144
1.0
145
0.0
146
1.0
147
0.09
 71
     0
 72
     0
 73
     1
 74
     1
 75
     0
 76
     0
 77
     0
 78
     0
170
     0
171
     2
172
     0
173
     0
174
     0
175
     0
176
     0
177
     0
178
     0
  0
ENDTAB
  0
ENDSEC
  0
SECTION
  2
BLOCKS
  0
BLOCK
  8
0
  2
$MODEL_SPACE
 70
     0
 10
0.0
 20
0.0
 30
0.0
  3
$MODEL_SPACE
  1

  0
ENDBLK
  5
15D
  8
0
  0
BLOCK
 67
     1
  8
0
  2
$PAPER_SPACE
 70
     0
 10
0.0
 20
0.0
 30
0.0
  3
$PAPER_SPACE
  1

  0
ENDBLK
  5
15B
 67
     1
  8
0
  0
ENDSEC
  0
SECTION
  2
ENTITIES
  0
TEXT
  5
13CB
  8
0
 62
     3
 10
0.0
 20
0.0
 30
0.0
 40
10.0
  1
RLT-AL-270-SL
  7
STANDARD1
  0
LINE
  5
22F8
  8
0
 10
168.0
 20
182.69999999999999
 30
0.0
 11
438.0
 21
182.7000000000001
 31
0.0
  0
LINE
  5
22F9
  8
0
 10
168.0
 20
206.30000000000001
 30
0.0
 11
438.0
 21
206.29999999999981
 31
0.0
  0
LINE
  5
22FC
  8
0
 10
168.0
 20
205.70500000000001
 30
0.0
 11
438.0
 21
205.7049999999999
 31
0.0
  0
LINE
  5
22FE
  8
0
 10
168.0
 20
183.2949999999999
 30
0.0
 11
437.99999999999989
 21
183.2949999999999
 31
0.0
  0
LINE
  5
2304
  8
0
 10
168.0
 20
207.227
 30
0.0
 11
438.0
 21
207.22699999999989
 31
0.0
  0
LINE
  5
2305
  8
0
 10
168.0
 20
181.773
 30
0.0
 11
438.0
 21
181.77299999999991
 31
0.0
  0
LINE
  5
2306
  8
0
 10
168.0
 20
208.66499999999999
 30
0.0
 11
437.99999999999989
 21
208.66499999999991
 31
0.0
  0
LINE
  5
230A
  8
0
 10
168.0
 20
176.5
 30
0.0
 11
168.0
 21
212.5
 31
0.0
  0
LINE
  5
230B
  8
0
 10
438.0
 20
176.5
 30
0.0
 11
438.0
 21
212.5
 31
0.0
  0
LINE
  5
230D
  8
0
 10
168.0
 20
180.33500000000001
 30
0.0
 11
437.99999999999989
 21
180.33500000000001
 31
0.0
  0
LINE
  5
230E
  8
0
 10
168.0
 20
177.69
 30
0.0
 11
438.0
 21
177.68999999999991
 31
0.0
  0
LINE
  5
230F
  8
0
 10
168.0
 20
176.5
 30
0.0
 11
438.0
 21
176.49999999999989
 31
0.0
  0
LINE
  5
2310
  8
0
 10
168.0
 20
212.5
 30
0.0
 11
438.0
 21
212.5
 31
0.0
  0
LINE
  5
2311
  8
0
 10
168.0
 20
211.30999999999989
 30
0.0
 11
437.99999999999989
 21
211.3099999999998
 31
0.0
  0
LINE
  5
2312
  8
0
 10
82.0
 20
126.5
 30
0.0
 11
82.0
 21
114.8966296296296
 31
0.0
  0
LINE
  5
2313
  8
0
 10
82.0
 20
114.8966296296296
 30
0.0
 11
82.99199999999999
 21
115.1939999999999
 31
0.0
  0
LINE
  5
2314
  8
0
 10
82.99199999999999
 20
115.1939999999999
 30
0.0
 11
84.0
 21
115.1939999999999
 31
0.0
  0
LINE
  5
2315
  8
0
 10
84.0
 20
115.1939999999999
 30
0.0
 11
84.0
 21
100.2979999999952
 31
0.0
  0
ARC
  5
2316
  8
0
 10
84.298000000000002
 20
100.2979999999952
 30
0.0
 40
0.2979999999999947
 50
180.0
 51
269.99967740224793
  0
LINE
  5
2317
  8
0
 10
84.297998322142888
 20
100.0
 30
0.0
 11
85.722696745117716
 21
100.0
 31
0.0
  0
ARC
  5
2318
  8
0
 10
85.722696131595143
 20
100.29799999999931
 30
0.0
 40
0.2980000000000002
 50
270.00011796057811
 51
352.40370181061712
  0
LINE
  5
2319
  8
0
 10
86.0180809083611
 20
100.25860668007159
 30
0.0
 11
86.322942335552696
 21
102.5445676111769
 31
0.0
  0
ARC
  5
231A
  8
0
 10
86.814589453274905
 20
102.479
 30
0.0
 40
0.4960000000000035
 50
90.000016961188734
 51
172.40367778080639
  0
LINE
  5
231B
  8
0
 10
86.814589306444702
 20
102.97499999999989
 30
0.0
 11
87.979410717726211
 21
102.97499999999989
 31
0.0
  0
ARC
  5
231C
  8
0
 10
87.979410471243298
 20
102.479
 30
0.0
 40
0.4959999999999997
 50
7.5872856757869673
 51
89.999971527360188
  0
LINE
  5
231D
  8
0
 10
88.471067924006135
 20
102.5444900690392
 30
0.0
 11
88.810000000000002
 21
100.0
 31
0.0
  0
LINE
  5
231E
  8
0
 10
88.810000000000002
 20
100.0
 30
0.0
 11
92.336999999999975
 21
100.0
 31
0.0
  0
ARC
  5
231F
  8
0
 10
92.851015623921896
 20
99.445631946840194
 30
0.0
 40
0.7559999999999948
 50
95.618501432044312
 51
132.8369892038622
  0
LINE
  5
2320
  8
0
 10
92.777000000000015
 20
100.19799999999999
 30
0.0
 11
107.223
 21
100.19799999999999
 31
0.0
  0
ARC
  5
2321
  8
0
 10
107.1489843760781
 20
99.445631946840194
 30
0.0
 40
0.7560000000000061
 50
47.16301079613774
 51
84.381498567952264
  0
LINE
  5
2322
  8
0
 10
107.6629999999999
 20
100.0
 30
0.0
 11
110.93000000000001
 21
100.0
 31
0.0
  0
ARC
  5
2323
  8
0
 10
110.9286957509586
 20
100.29799714584949
 30
0.0
 40
0.2980000000000039
 50
270.25076578549999
 51
352.40373213101532
  0
LINE
  5
2324
  8
0
 10
111.2240805485711
 20
100.25860398223659
 30
0.0
 11
111.52894231154011
 21
102.5445674311223
 31
0.0
  0
ARC
  5
2325
  8
0
 10
112.02058945327489
 20
102.479
 30
0.0
 40
0.4959999999999953
 50
90.000019753318753
 51
172.4036987640747
  0
LINE
  5
2326
  8
0
 10
112.0205892822738
 20
102.97499999999989
 30
0.0
 11
113.1854106935553
 21
102.97499999999989
 31
0.0
  0
ARC
  5
2327
  8
0
 10
113.18541054672509
 20
102.479
 30
0.0
 40
0.4960000000000013
 50
7.5963222191935289
 51
89.999983038811266
  0
LINE
  5
2328
  8
0
 10
113.6770576644473
 20
102.5445676111769
 30
0.0
 11
113.9819190916389
 21
100.25860668007159
 31
0.0
  0
ARC
  5
2329
  8
0
 10
114.2773038684048
 20
100.29799999999931
 30
0.0
 40
0.2980000000000018
 50
187.59629818938291
 51
269.99988203942189
  0
LINE
  5
232A
  8
0
 10
114.2773032548823
 20
100.0
 30
0.0
 11
115.7020016778571
 21
100.0
 31
0.0
  0
ARC
  5
232B
  8
0
 10
115.702
 20
100.2979999999952
 30
0.0
 40
0.2979999999999997
 50
270.00032259775207
 51
0.0
  0
LINE
  5
232C
  8
0
 10
116.0
 20
100.29800000443581
 30
0.0
 11
116.0
 21
115.1939999999999
 31
0.0
  0
LINE
  5
232D
  8
0
 10
116.0
 20
115.1939999999999
 30
0.0
 11
117.008
 21
115.1939999999999
 31
0.0
  0
LINE
  5
232E
  8
0
 10
117.008
 20
115.1939999999999
 30
0.0
 11
118.0
 21
114.8966296296296
 31
0.0
  0
LINE
  5
232F
  8
0
 10
118.0
 20
114.8966296296296
 30
0.0
 11
118.0
 21
126.5
 31
0.0
  0
LINE
  5
2330
  8
0
 10
118.0
 20
126.5
 30
0.0
 11
116.81
 21
126.5
 31
0.0
  0
LINE
  5
2331
  8
0
 10
116.81
 20
126.5
 30
0.0
 11
116.81
 21
124.231109588644
 31
0.0
  0
ARC
  5
2332
  8
0
 10
118.7929999999994
 20
124.2311097806831
 30
0.0
 40
1.982999999999483
 50
180.0000055985677
 51
194.94952316015559
  0
LINE
  5
2333
  8
0
 10
116.8771176736678
 20
123.7195592830309
 30
0.0
 11
117.1398823263321
 21
122.73544071696899
 31
0.0
  0
ARC
  5
2334
  8
0
 10
115.2239999999998
 20
122.2238902193168
 30
0.0
 40
1.9830000000001731
 50
0.0000055330846732
 51
14.949523160153911
  0
LINE
  5
2335
  8
0
 10
117.20699999999999
 20
122.22389040852271
 30
0.0
 11
117.20699999999999
 21
120.760109588644
 31
0.0
  0
ARC
  5
2336
  8
0
 10
115.22399999999971
 20
120.76010978068319
 30
0.0
 40
1.9830000000002781
 50
345.05047683984611
 51
0.0000944669139921
  0
LINE
  5
2337
  8
0
 10
117.1398823263321
 20
120.2485592830309
 30
0.0
 11
116.8771176736678
 21
119.26444071696901
 31
0.0
  0
ARC
  5
2338
  8
0
 10
118.79299999999949
 20
118.7528902193168
 30
0.0
 40
1.982999999999524
 50
165.05047683984441
 51
179.99999433670661
  0
LINE
  5
2339
  8
0
 10
116.81
 20
118.7528904130826
 30
0.0
 11
116.81
 21
116.48399999999999
 31
0.0
  0
LINE
  5
233A
  8
0
 10
116.81
 20
116.48399999999999
 30
0.0
 11
114.16500000000001
 21
116.48399999999999
 31
0.0
  0
LINE
  5
233B
  8
0
 10
114.16500000000001
 20
116.48399999999999
 30
0.0
 11
114.16500000000001
 21
117.376001677857
 31
0.0
  0
ARC
  5
233C
  8
0
 10
113.86700000000469
 20
117.37599999999991
 30
0.0
 40
0.2980000000000109
 50
0.0003225987975874
 51
90.0
  0
LINE
  5
233D
  8
0
 10
113.86700000000469
 20
117.67400000000001
 30
0.0
 11
113.02500000000001
 21
117.67400000000001
 31
0.0
  0
ARC
  5
233E
  8
0
 10
113.02500000000001
 20
117.37599999999991
 30
0.0
 40
0.2980000000000089
 50
90.0
 51
180.0
  0
LINE
  5
233F
  8
0
 10
112.7269999999999
 20
117.37599999999991
 30
0.0
 11
112.727
 21
115.3929999999999
 31
0.0
  0
ARC
  5
2340
  8
0
 10
113.02499999999991
 20
115.3929999999999
 30
0.0
 40
0.2979999999999947
 50
180.0
 51
270.0
  0
LINE
  5
2341
  8
0
 10
113.02499999999991
 20
115.0949999999999
 30
0.0
 11
114.2630016722502
 21
115.0949999999999
 31
0.0
  0
ARC
  5
2342
  8
0
 10
114.26300000000469
 20
114.7970000000047
 30
0.0
 40
0.2979999999999971
 50
0.0003215203182109
 51
89.999678481173447
  0
LINE
  5
2343
  8
0
 10
114.56100000000001
 20
114.79700167225199
 30
0.0
 11
114.56100000000001
 21
111.1288686384537
 31
0.0
  0
LINE
  5
2344
  8
0
 10
114.56100000000001
 20
111.1288686384537
 30
0.0
 11
113.444
 21
108.6145957446808
 31
0.0
  0
LINE
  5
2345
  8
0
 10
113.444
 20
108.6145957446808
 30
0.0
 11
113.34999999999999
 21
108.1245957446808
 31
0.0
  0
ARC
  5
2346
  8
0
 10
114.5088921882565
 20
106.7920324643829
 30
0.0
 40
1.7660000000000351
 50
108.415591808868
 51
131.01255138298109
  0
ARC
  5
2347
  8
0
 10
114.0160000000017
 20
108.28056900862479
 30
0.0
 40
0.1979999999999985
 50
0.0002409835668749
 51
109.1645832568768
  0
LINE
  5
2348
  8
0
 10
114.214
 20
108.2805698414042
 30
0.0
 11
114.214
 21
106.1146224801101
 31
0.0
  0
ARC
  5
2349
  8
0
 10
114.01600000000001
 20
106.1146224807374
 30
0.0
 40
0.1979999999999982
 50
250.83541674363369
 51
0.0
  0
LINE
  5
234A
  8
0
 10
113.95099999999999
 20
105.9275957446808
 30
0.0
 11
113.373
 21
106.25659574468079
 31
0.0
  0
LINE
  5
234B
  8
0
 10
113.373
 20
106.25659574468079
 30
0.0
 11
113.373
 21
105.5765957446808
 31
0.0
  0
LINE
  5
234C
  8
0
 10
113.373
 20
105.5765957446808
 30
0.0
 11
111.602
 21
105.5765957446808
 31
0.0
  0
ARC
  5
234D
  8
0
 10
111.602
 20
105.97359574468079
 30
0.0
 40
0.3970000000000056
 50
180.0
 51
270.0
  0
LINE
  5
234E
  8
0
 10
111.205
 20
105.97359574468079
 30
0.0
 11
111.205
 21
106.89959574468079
 31
0.0
  0
LINE
  5
234F
  8
0
 10
111.205
 20
106.89959574468079
 30
0.0
 11
111.8
 21
107.19799999999989
 31
0.0
  0
LINE
  5
2350
  8
0
 10
111.8
 20
107.19799999999989
 30
0.0
 11
111.205
 21
107.49459574468079
 31
0.0
  0
LINE
  5
2351
  8
0
 10
111.205
 20
107.49459574468079
 30
0.0
 11
111.205
 21
108.3535970041287
 31
0.0
  0
ARC
  5
2352
  8
0
 10
110.808000000002
 20
108.3535957446808
 30
0.0
 40
0.3970000000000031
 50
0.0001817655819828
 51
90.0
  0
LINE
  5
2353
  8
0
 10
110.808000000002
 20
108.75059574468079
 30
0.0
 11
110.16075881270049
 21
108.75059574468079
 31
0.0
  0
ARC
  5
2354
  8
0
 10
110.16075881270049
 20
108.3505957446808
 30
0.0
 40
0.3999999999999932
 50
90.0
 51
172.83977671223809
  0
LINE
  5
2355
  8
0
 10
109.7638782235431
 20
108.4004535219087
 30
0.0
 11
109.0448941000503
 21
102.6771570094626
 31
0.0
  0
ARC
  5
2356
  8
0
 10
108.25807832541069
 20
102.7759999999998
 30
0.0
 40
0.7929999999999966
 50
270.00003310750731
 51
352.83978055836042
  0
LINE
  5
2357
  8
0
 10
108.25807878363391
 20
101.9829999999999
 30
0.0
 11
91.74192121636608
 21
101.9829999999999
 31
0.0
  0
ARC
  5
2358
  8
0
 10
91.741921674589236
 20
102.7759999999998
 30
0.0
 40
0.7930000000000006
 50
187.1602194416412
 51
269.99996689249269
  0
LINE
  5
2359
  8
0
 10
90.955105899949672
 20
102.6771570094626
 30
0.0
 11
90.236121776456855
 21
108.4004535219087
 31
0.0
  0
ARC
  5
235A
  8
0
 10
89.839241187299478
 20
108.3505957446808
 30
0.0
 40
0.4000000000000015
 50
7.1602232877619141
 51
90.0
  0
LINE
  5
235B
  8
0
 10
89.839241187299478
 20
108.75059574468079
 30
0.0
 11
89.191999999997989
 21
108.75059574468079
 31
0.0
  0
ARC
  5
235C
  8
0
 10
89.191999999998018
 20
108.3535957446808
 30
0.0
 40
0.3970000000000002
 50
90.0
 51
179.999818234418
  0
LINE
  5
235D
  8
0
 10
88.795000000000016
 20
108.3535970041267
 30
0.0
 11
88.794999999999973
 21
107.49459574468079
 31
0.0
  0
LINE
  5
235E
  8
0
 10
88.794999999999973
 20
107.49459574468079
 30
0.0
 11
88.199999999999974
 21
107.19799999999989
 31
0.0
  0
LINE
  5
235F
  8
0
 10
88.199999999999974
 20
107.19799999999989
 30
0.0
 11
88.794999999999973
 21
106.89959574468079
 31
0.0
  0
LINE
  5
2360
  8
0
 10
88.794999999999973
 20
106.89959574468079
 30
0.0
 11
88.794999999999973
 21
105.97359574468079
 31
0.0
  0
ARC
  5
2361
  8
0
 10
88.397999999999996
 20
105.97359574468079
 30
0.0
 40
0.3970000000000011
 50
270.0
 51
0.0
  0
LINE
  5
2362
  8
0
 10
88.398000000000025
 20
105.5765957446808
 30
0.0
 11
86.626999999999995
 21
105.5765957446808
 31
0.0
  0
LINE
  5
2363
  8
0
 10
86.626999999999995
 20
105.5765957446808
 30
0.0
 11
86.626999999999995
 21
106.25659574468079
 31
0.0
  0
LINE
  5
2364
  8
0
 10
86.626999999999995
 20
106.25659574468079
 30
0.0
 11
86.048999999999978
 21
105.9275957446808
 31
0.0
  0
ARC
  5
2365
  8
0
 10
85.984000000000009
 20
106.1146224807374
 30
0.0
 40
0.1980000000000004
 50
180.0
 51
289.1645832563662
  0
LINE
  5
2366
  8
0
 10
85.785999999999987
 20
106.1146224807374
 30
0.0
 11
85.785999999999987
 21
108.2805698414041
 31
0.0
  0
ARC
  5
2367
  8
0
 10
85.983999999998247
 20
108.28056900862479
 30
0.0
 40
0.198
 50
70.835416742960703
 51
179.9997590164331
  0
ARC
  5
2368
  8
0
 10
85.487064431406623
 20
106.7849477075829
 30
0.0
 40
1.7739999999999541
 50
49.039066281129053
 51
71.53279052700077
  0
LINE
  5
2369
  8
0
 10
86.650000000000006
 20
108.1245957446808
 30
0.0
 11
86.556000000000012
 21
108.6145957446808
 31
0.0
  0
LINE
  5
236A
  8
0
 10
86.556000000000012
 20
108.6145957446808
 30
0.0
 11
85.438999999999979
 21
111.1288686384537
 31
0.0
  0
LINE
  5
236B
  8
0
 10
85.438999999999979
 20
111.1288686384537
 30
0.0
 11
85.438999999999979
 21
114.7970016722502
 31
0.0
  0
ARC
  5
236C
  8
0
 10
85.736999999995305
 20
114.7970000000047
 30
0.0
 40
0.298000000000006
 50
90.000321518823313
 51
179.99967848081519
  0
LINE
  5
236D
  8
0
 10
85.736998327749802
 20
115.0949999999999
 30
0.0
 11
86.974999999999994
 21
115.0949999999999
 31
0.0
  0
ARC
  5
236E
  8
0
 10
86.974999999999994
 20
115.3929999999999
 30
0.0
 40
0.2979999999999965
 50
270.0
 51
0.0
  0
LINE
  5
236F
  8
0
 10
87.272999999999996
 20
115.3929999999999
 30
0.0
 11
87.272999999999996
 21
117.37599999999991
 31
0.0
  0
ARC
  5
2370
  8
0
 10
86.974999999999994
 20
117.37599999999991
 30
0.0
 40
0.298
 50
0.0
 51
90.0
  0
LINE
  5
2371
  8
0
 10
86.974999999999994
 20
117.67400000000001
 30
0.0
 11
86.132999999995292
 21
117.67400000000001
 31
0.0
  0
ARC
  5
2372
  8
0
 10
86.132999999995263
 20
117.37599999999991
 30
0.0
 40
0.2980000000000018
 50
90.0
 51
179.99967740233089
  0
LINE
  5
2373
  8
0
 10
85.834999999999994
 20
117.37600167785661
 30
0.0
 11
85.834999999999994
 21
116.48399999999999
 31
0.0
  0
LINE
  5
2374
  8
0
 10
85.834999999999994
 20
116.48399999999999
 30
0.0
 11
83.189999999999998
 21
116.48399999999999
 31
0.0
  0
LINE
  5
2375
  8
0
 10
83.189999999999998
 20
116.48399999999999
 30
0.0
 11
83.189999999999998
 21
118.75289041135591
 31
0.0
  0
ARC
  5
2376
  8
0
 10
81.207000000000534
 20
118.7528902193168
 30
0.0
 40
1.982999999999483
 50
0.0000055985676632
 51
14.94952316015728
  0
LINE
  5
2377
  8
0
 10
83.122882326332117
 20
119.26444071696901
 30
0.0
 11
82.860117673667872
 21
120.2485592830309
 31
0.0
  0
ARC
  5
2378
  8
0
 10
84.776000000000224
 20
120.76010978068319
 30
0.0
 40
1.983000000000213
 50
180.00000546681841
 51
194.94952316015389
  0
LINE
  5
2379
  8
0
 10
82.793000000000006
 20
120.7601095914772
 30
0.0
 11
82.793000000000006
 21
122.2238904113559
 31
0.0
  0
ARC
  5
237A
  8
0
 10
84.776000000000266
 20
122.2238902193168
 30
0.0
 40
1.9830000000002781
 50
165.05047683984611
 51
179.99999446691371
  0
LINE
  5
237B
  8
0
 10
82.860117673667872
 20
122.73544071696899
 30
0.0
 11
83.122882326332117
 21
123.7195592830309
 31
0.0
  0
ARC
  5
237C
  8
0
 10
81.207000000000406
 20
124.2311097806831
 30
0.0
 40
1.9829999999995751
 50
345.05047683984441
 51
0.0000944028151795
  0
LINE
  5
237D
  8
0
 10
83.189999999997326
 20
124.2311130479052
 30
0.0
 11
83.189999999999998
 21
126.5
 31
0.0
  0
LINE
  5
237E
  8
0
 10
83.189999999999998
 20
126.5
 30
0.0
 11
82.0
 21
126.5
 31
0.0
  0
LINE
  5
23A7
  8
0
 10
168.0
 20
100.0
 30
0.0
 11
437.99999999999989
 21
99.999999999999957
 31
0.0
  0
LINE
  5
23A8
  8
0
 10
168.0
 20
100.0
 30
0.0
 11
168.0
 21
126.5
 31
0.0
  0
LINE
  5
23A9
  8
0
 10
168.0
 20
114.8966296296296
 30
0.0
 11
438.0
 21
114.8966296296296
 31
0.0
  0
LINE
  5
23AA
  8
0
 10
438.0
 20
100.0
 30
0.0
 11
438.0
 21
126.5
 31
0.0
  0
LINE
  5
23AB
  8
0
 10
168.0
 20
126.5
 30
0.0
 11
438.0
 21
126.5
 31
0.0
  0
LINE
  5
2495
  8
1
 10
163.0
 20
194.49999999999989
 30
0.0
 11
443.0
 21
194.5
 31
0.0
  0
LINE
  5
2496
  8
1
 10
100.0
 20
131.5
 30
0.0
 11
100.0
 21
95.0
 31
0.0
  0
ARC
  5
2684
  8
0
 10
395.10000000000002
 20
194.5
 30
0.0
 40
2.599999999999997
 50
90.0
 51
270.0
  0
LINE
  5
2685
  8
0
 10
399.89999999999998
 20
197.09999999999999
 30
0.0
 11
395.10000000000002
 21
197.09999999999999
 31
0.0
  0
ARC
  5
2686
  8
0
 10
399.89999999999992
 20
194.5
 30
0.0
 40
2.5999999999999961
 50
270.0
 51
90.0
  0
LINE
  5
2687
  8
0
 10
395.10000000000002
 20
191.90000000000001
 30
0.0
 11
399.89999999999998
 21
191.90000000000001
 31
0.0
  0
ARC
  5
2690
  8
0
 10
233.09999999999991
 20
194.49999999999989
 30
0.0
 40
2.6000000000000001
 50
90.0
 51
270.0
  0
LINE
  5
2691
  8
0
 10
237.89999999999989
 20
197.09999999999991
 30
0.0
 11
233.09999999999991
 21
197.09999999999991
 31
0.0
  0
ARC
  5
2692
  8
0
 10
237.90000000000001
 20
194.49999999999989
 30
0.0
 40
2.6000000000000001
 50
270.0
 51
90.0
  0
LINE
  5
2693
  8
0
 10
233.09999999999991
 20
191.89999999999989
 30
0.0
 11
237.90000000000001
 21
191.89999999999989
 31
0.0
  0
ARC
  5
2694
  8
0
 10
179.09999999999991
 20
194.49999999999989
 30
0.0
 40
2.599999999999997
 50
90.0
 51
270.0
  0
LINE
  5
2695
  8
0
 10
183.90000000000001
 20
197.09999999999991
 30
0.0
 11
179.09999999999991
 21
197.09999999999991
 31
0.0
  0
ARC
  5
2696
  8
0
 10
183.90000000000001
 20
194.49999999999989
 30
0.0
 40
2.5999999999999961
 50
270.0
 51
90.0
  0
LINE
  5
2697
  8
0
 10
179.09999999999991
 20
191.89999999999989
 30
0.0
 11
183.90000000000001
 21
191.89999999999989
 31
0.0
  0
ARC
  5
2698
  8
0
 10
206.09999999999991
 20
194.49999999999989
 30
0.0
 40
2.599999999999997
 50
90.0
 51
270.0
  0
LINE
  5
2699
  8
0
 10
210.90000000000001
 20
197.09999999999991
 30
0.0
 11
206.09999999999991
 21
197.09999999999991
 31
0.0
  0
ARC
  5
269A
  8
0
 10
210.89999999999989
 20
194.49999999999989
 30
0.0
 40
2.5999999999999961
 50
270.0
 51
90.0
  0
LINE
  5
269B
  8
0
 10
206.09999999999991
 20
191.89999999999989
 30
0.0
 11
210.90000000000001
 21
191.89999999999989
 31
0.0
  0
ARC
  5
26A4
  8
0
 10
368.10000000000002
 20
194.5
 30
0.0
 40
2.5999999999999992
 50
90.0
 51
269.99999914622629
  0
LINE
  5
26A5
  8
0
 10
372.89999999999998
 20
197.09999999999999
 30
0.0
 11
368.10000000000002
 21
197.09999999999999
 31
0.0
  0
ARC
  5
26A6
  8
0
 10
372.89999999999998
 20
194.5
 30
0.0
 40
2.6000000000000001
 50
270.0
 51
90.0
  0
LINE
  5
26A7
  8
0
 10
368.10000000000002
 20
191.90000000000001
 30
0.0
 11
372.89999999999998
 21
191.90000000000001
 31
0.0
  0
ARC
  5
26A8
  8
0
 10
422.10000000000002
 20
194.5
 30
0.0
 40
2.599999999999997
 50
90.0
 51
270.0
  0
LINE
  5
26A9
  8
0
 10
426.89999999999998
 20
197.09999999999999
 30
0.0
 11
422.10000000000002
 21
197.09999999999999
 31
0.0
  0
ARC
  5
26AA
  8
0
 10
426.89999999999998
 20
194.5
 30
0.0
 40
2.6000000000000059
 50
270.0
 51
90.0
  0
LINE
  5
26AB
  8
0
 10
422.10000000000002
 20
191.90000000000001
 30
0.0
 11
426.89999999999998
 21
191.90000000000001
 31
0.0
  0
LINE
  5
27D6
  8
1
 10
181.49999999999989
 20
200.09999999999999
 30
0.0
 11
181.49999999999989
 21
188.89999999999989
 31
0.0
  0
LINE
  5
27D7
  8
1
 10
208.49999999999989
 20
200.09999999999999
 30
0.0
 11
208.49999999999989
 21
188.89999999999989
 31
0.0
  0
LINE
  5
27D8
  8
1
 10
235.49999999999989
 20
200.09999999999999
 30
0.0
 11
235.49999999999989
 21
188.89999999999989
 31
0.0
  0
LINE
  5
27DD
  8
1
 10
370.49999999999977
 20
200.09999999999999
 30
0.0
 11
370.49999999999977
 21
188.90000000000001
 31
0.0
  0
LINE
  5
27DE
  8
1
 10
397.49999999999977
 20
200.09999999999999
 30
0.0
 11
397.49999999999977
 21
188.90000000000001
 31
0.0
  0
LINE
  5
27DF
  8
1
 10
424.49999999999972
 20
200.09999999999999
 30
0.0
 11
424.49999999999972
 21
188.90000000000001
 31
0.0
  0
ARC
  5
29DC
  8
0
 10
287.09999999999991
 20
194.49999999999989
 30
0.0
 40
2.6000000000000001
 50
90.0
 51
270.0
  0
LINE
  5
29DD
  8
0
 10
291.89999999999992
 20
197.09999999999991
 30
0.0
 11
287.09999999999991
 21
197.09999999999991
 31
0.0
  0
ARC
  5
29DE
  8
0
 10
291.89999999999992
 20
194.49999999999989
 30
0.0
 40
2.6000000000000001
 50
270.0
 51
90.0
  0
LINE
  5
29DF
  8
0
 10
287.09999999999991
 20
191.89999999999989
 30
0.0
 11
291.89999999999992
 21
191.89999999999989
 31
0.0
  0
ARC
  5
29E0
  8
0
 10
260.09999999999991
 20
194.49999999999989
 30
0.0
 40
2.599999999999997
 50
90.0
 51
270.0
  0
LINE
  5
29E1
  8
0
 10
264.89999999999992
 20
197.09999999999991
 30
0.0
 11
260.09999999999991
 21
197.09999999999991
 31
0.0
  0
ARC
  5
29E2
  8
0
 10
264.89999999999992
 20
194.49999999999989
 30
0.0
 40
2.5999999999999961
 50
270.0
 51
90.0
  0
LINE
  5
29E3
  8
0
 10
260.09999999999991
 20
191.89999999999989
 30
0.0
 11
264.89999999999992
 21
191.89999999999989
 31
0.0
  0
LINE
  5
29E4
  8
1
 10
262.49999999999989
 20
200.09999999999999
 30
0.0
 11
262.49999999999989
 21
188.89999999999989
 31
0.0
  0
LINE
  5
29E5
  8
1
 10
289.49999999999989
 20
200.09999999999999
 30
0.0
 11
289.49999999999989
 21
188.89999999999989
 31
0.0
  0
ARC
  5
29E6
  8
0
 10
341.09999999999991
 20
194.5
 30
0.0
 40
2.6000000000000001
 50
90.0
 51
270.0
  0
LINE
  5
29E7
  8
0
 10
345.89999999999992
 20
197.09999999999999
 30
0.0
 11
341.0999999999998
 21
197.09999999999999
 31
0.0
  0
ARC
  5
29E8
  8
0
 10
345.89999999999992
 20
194.5
 30
0.0
 40
2.6000000000000001
 50
270.0
 51
90.0
  0
LINE
  5
29E9
  8
0
 10
341.0999999999998
 20
191.89999999999989
 30
0.0
 11
345.89999999999992
 21
191.89999999999989
 31
0.0
  0
ARC
  5
29EA
  8
0
 10
314.09999999999991
 20
194.5
 30
0.0
 40
2.599999999999997
 50
90.0
 51
270.0
  0
LINE
  5
29EB
  8
0
 10
318.89999999999992
 20
197.09999999999999
 30
0.0
 11
314.0999999999998
 21
197.09999999999999
 31
0.0
  0
ARC
  5
29EC
  8
0
 10
318.89999999999992
 20
194.5
 30
0.0
 40
2.5999999999999961
 50
270.0
 51
90.0
  0
LINE
  5
29ED
  8
0
 10
314.0999999999998
 20
191.89999999999989
 30
0.0
 11
318.89999999999992
 21
191.89999999999989
 31
0.0
  0
LINE
  5
29EE
  8
1
 10
316.49999999999989
 20
200.09999999999999
 30
0.0
 11
316.49999999999989
 21
188.89999999999989
 31
0.0
  0
LINE
  5
29EF
  8
1
 10
343.49999999999977
 20
200.09999999999999
 30
0.0
 11
343.49999999999977
 21
188.89999999999989
 31
0.0
  0
ENDSEC
  0
EOF
