  0
SECTION
  2
HEADER
  9
$ACADVER
  1
AC1009
  9
$INSBASE
 10
0.0
 20
0.0
 30
0.0
  9
$EXTMIN
 10
0.0
 20
-2.960436562073669
 30
0.0
  9
$EXTMAX
 10
241.0797875898871
 20
139.54541670537299
 30
0.0
  9
$LIMMIN
 10
0.0
 20
0.0
  9
$LIMMAX
 10
135.0
 20
87.5
  9
$ORTHOMODE
 70
     1
  9
$REGENMODE
 70
     1
  9
$FILLMODE
 70
     1
  9
$QTEXTMODE
 70
     0
  9
$MIRRTEXT
 70
     1
  9
$DRAGMODE
 70
     2
  9
$LTSCALE
 40
5.0
  9
$OSMODE
 70
    55
  9
$ATTMODE
 70
     1
  9
$TEXTSIZE
 40
4.000000000000048
  9
$TRACEWID
 40
0.05
  9
$TEXTSTYLE
  7
STANDARD
  9
$CLAYER
  8
4
  9
$CELTYPE
  6
BYLAYER
  9
$CECOLOR
 62
   256
  9
$DIMSCALE
 40
1.0
  9
$DIMASZ
 40
3.0
  9
$DIMEXO
 40
2.0
  9
$DIMDLI
 40
0.38
  9
$DIMRND
 40
0.0
  9
$DIMDLE
 40
0.0
  9
$DIMEXE
 40
2.0
  9
$DIMTP
 40
0.0
  9
$DIMTM
 40
0.0
  9
$DIMTXT
 40
3.0
  9
$DIMCEN
 40
0.0
  9
$DIMTSZ
 40
0.0
  9
$DIMTOL
 70
     0
  9
$DIMLIM
 70
     0
  9
$DIMTIH
 70
     0
  9
$DIMTOH
 70
     0
  9
$DIMSE1
 70
     0
  9
$DIMSE2
 70
     0
  9
$DIMTAD
 70
     1
  9
$DIMZIN
 70
     8
  9
$DIMBLK
  1

  9
$DIMASO
 70
     0
  9
$DIMSHO
 70
     0
  9
$DIMPOST
  1

  9
$DIMAPOST
  1

  9
$DIMALT
 70
     0
  9
$DIMALTD
 70
     2
  9
$DIMALTF
 40
25.399999999999999
  9
$DIMLFAC
 40
1.0
  9
$DIMTOFL
 70
     0
  9
$DIMTVP
 40
1.6000000000000001
  9
$DIMTIX
 70
     1
  9
$DIMSOXD
 70
     0
  9
$DIMSAH
 70
     0
  9
$DIMBLK1
  1

  9
$DIMBLK2
  1

  9
$DIMSTYLE
  2
STANDARD
  9
$DIMCLRD
 70
     0
  9
$DIMCLRE
 70
     0
  9
$DIMCLRT
 70
     0
  9
$DIMTFAC
 40
1.0
  9
$DIMGAP
 40
1.1999999999999991
  9
$LUNITS
 70
     2
  9
$LUPREC
 70
     4
  9
$SKETCHINC
 40
0.1
  9
$FILLETRAD
 40
0.0
  9
$AUNITS
 70
     0
  9
$AUPREC
 70
     4
  9
$MENU
  1
ACAD
  9
$ELEVATION
 40
0.0
  9
$PELEVATION
 40
0.0
  9
$THICKNESS
 40
0.0
  9
$LIMCHECK
 70
     0
  9
$BLIPMODE
 70
     0
  9
$CHAMFERA
 40
0.0
  9
$CHAMFERB
 40
0.0
  9
$SKPOLY
 70
     0
  9
$TDCREATE
 40
2448344.4481018521
  9
$TDUPDATE
 40
2456598.5995439012
  9
$TDINDWG
 40
0.1707313773
  9
$TDUSRTIMER
 40
0.1707313773
  9
$USRTIMER
 70
     1
  9
$ANGBASE
 50
0.0
  9
$ANGDIR
 70
     0
  9
$PDMODE
 70
     0
  9
$PDSIZE
 40
0.0
  9
$PLINEWID
 40
0.0
  9
$COORDS
 70
     1
  9
$SPLFRAME
 70
     0
  9
$SPLINETYPE
 70
     6
  9
$SPLINESEGS
 70
     8
  9
$ATTDIA
 70
     0
  9
$ATTREQ
 70
     1
  9
$HANDLING
 70
     1
  9
$HANDSEED
  5
1B32
  9
$SURFTAB1
 70
     6
  9
$SURFTAB2
 70
     6
  9
$SURFTYPE
 70
     6
  9
$SURFU
 70
     6
  9
$SURFV
 70
     6
  9
$UCSNAME
  2

  9
$UCSORG
 10
0.0
 20
0.0
 30
0.0
  9
$UCSXDIR
 10
1.0
 20
0.0
 30
0.0
  9
$UCSYDIR
 10
0.0
 20
1.0
 30
0.0
  9
$PUCSNAME
  2

  9
$PUCSORG
 10
0.0
 20
0.0
 30
0.0
  9
$PUCSXDIR
 10
1.0
 20
0.0
 30
0.0
  9
$PUCSYDIR
 10
0.0
 20
1.0
 30
0.0
  9
$USERI1
 70
     4
  9
$USERI2
 70
     2
  9
$USERI3
 70
     1
  9
$USERI4
 70
     0
  9
$USERI5
 70
     0
  9
$USERR1
 40
0.0
  9
$USERR2
 40
0.0
  9
$USERR3
 40
0.0
  9
$USERR4
 40
0.0
  9
$USERR5
 40
0.0
  9
$WORLDVIEW
 70
     1
  9
$SHADEDGE
 70
     3
  9
$SHADEDIF
 70
    70
  9
$TILEMODE
 70
     1
  9
$MAXACTVP
 70
    16
  9
$PLIMCHECK
 70
     0
  9
$PEXTMIN
 10
1.0000000000000000E+020
 20
1.0000000000000000E+020
 30
1.0000000000000000E+020
  9
$PEXTMAX
 10
-1.0000000000000000E+020
 20
-1.0000000000000000E+020
 30
-1.0000000000000000E+020
  9
$PLIMMIN
 10
0.0
 20
0.0
  9
$PLIMMAX
 10
12.0
 20
9.0
  9
$UNITMODE
 70
     0
  9
$VISRETAIN
 70
     0
  9
$PLINEGEN
 70
     1
  9
$PSLTSCALE
 70
     0
  0
ENDSEC
  0
SECTION
  2
TABLES
  0
TABLE
  2
VPORT
 70
     1
  0
VPORT
  2
*ACTIVE
 70
     0
 10
0.0
 20
0.0
 11
1.0
 21
1.0
 12
120.5398943562511
 22
100.28180565993139
 13
0.0
 23
0.0
 14
2.5
 24
2.5
 15
20.0
 25
20.0
 16
0.0
 26
0.0
 36
1.0
 17
0.0
 27
0.0
 37
0.0
 40
208.48942033425749
 41
1.7807262569832401
 42
50.0
 43
0.0
 44
0.0
 50
0.0
 51
0.0
 71
     0
 72
   500
 73
     1
 74
     1
 75
     0
 76
     0
 77
     0
 78
     2
  0
ENDTAB
  0
TABLE
  2
LTYPE
 70
     4
  0
LTYPE
  2
CONTINUOUS
 70
     0
  3
実線
 72
    65
 73
     0
 40
0.0
  0
LTYPE
  2
CENTER
 70
     0
  3
____ _ ____ _ ____ _ ____ _ ____ _ ____ _ ____
 72
    65
 73
     4
 40
2.0
 49
1.25
 49
-0.25
 49
0.25
 49
-0.25
  0
LTYPE
  2
HIDDEN
 70
     0
  3
_ _ _ _ _ _ _ _ _ _ _ _ _ _ _ _ _ _ _ _ _ _ _
 72
    65
 73
     2
 40
0.375
 49
0.25
 49
-0.125
  0
LTYPE
  2
PHANTOM2
 70
     0
  3
___ _ _ ___ _ _ ___ _ _ ___ _ _
 72
    65
 73
     6
 40
1.25
 49
0.625
 49
-0.125
 49
0.125
 49
-0.125
 49
0.125
 49
-0.125
  0
ENDTAB
  0
TABLE
  2
LAYER
 70
     6
  0
LAYER
  2
0
 70
     0
 62
     7
  6
CONTINUOUS
  0
LAYER
  2
2
 70
     0
 62
     2
  6
HIDDEN
  0
LAYER
  2
3
 70
     0
 62
     3
  6
CONTINUOUS
  0
LAYER
  2
4
 70
     0
 62
     4
  6
CONTINUOUS
  0
LAYER
  2
1
 70
     0
 62
     1
  6
CENTER
  0
LAYER
  2
DEFPOINTS
 70
     0
 62
     7
  6
CONTINUOUS
  0
ENDTAB
  0
TABLE
  2
STYLE
 70
     3
  0
STYLE
  2
STANDARD
 70
     0
 40
0.0
 41
1.0
 50
0.0
 71
     0
 42
4.000000000000048
  3
SIMPLEX
  4
BIGFONT
  0
STYLE
  2
07500
 70
     0
 40
0.0
 41
0.75
 50
0.0
 71
     0
 42
2.5
  3
simplex.shx
  4
BIGFONT.shx
  0
STYLE
  2
STANDARD1
 70
     0
 40
0.0
 41
1.0
 50
0.0
 71
     0
 42
3.0
  3
txt
  4

  0
ENDTAB
  0
TABLE
  2
VIEW
 70
     1
  0
VIEW
  2
ALL
 70
     0
 40
175.0
 10
138.22205882352941
 20
87.5
 41
0.0
 11
0.0
 21
0.0
 31
1.0
 12
0.0
 22
0.0
 32
0.0
 42
0.0
 43
0.0
 44
0.0
 50
0.0
 71
     0
  0
ENDTAB
  0
TABLE
  2
UCS
 70
     0
  0
ENDTAB
  0
TABLE
  2
APPID
 70
    38
  0
APPID
  2
ACAD
 70
     0
  0
APPID
  2
GENIUS_GENODEF_13
 70
     0
  0
APPID
  2
GENIUS_GENOBJ-N-FIL_13
 70
     0
  0
APPID
  2
_CALL_MAC$
 70
     0
  0
APPID
  2
DCO15
 70
     0
  0
APPID
  2
GENIUS_GENOREF_13
 70
     0
  0
APPID
  2
GENIUS_GENOENT_13
 70
     0
  0
APPID
  2
GENIUS_GENBH_13
 70
     0
  0
APPID
  2
GENIUS_GENOBJ_13
 70
     0
  0
APPID
  2
GENIUS_GENOLIS_13
 70
     0
  0
APPID
  2
GENIUS_GENOBJ-NBEHI-BHF_13
 70
     0
  0
APPID
  2
GENIUS_GENOBJ-NBEHI-BHB_13
 70
     0
  0
APPID
  2
GENIUS_GENOBJ-F-PART_13
 70
     0
  0
APPID
  2
GENIUS_GEFSTDP_13
 70
     0
  0
APPID
  2
GENIUS_GENOBJ-N-RSSYM_13
 70
     0
  0
APPID
  2
GENIUS_GENSYMENT_13
 70
     0
  0
APPID
  2
GENIUS_GENOBJ-N-TIT_13
 70
     0
  0
APPID
  2
GENIUS_GENTITLE_13
 70
     0
  0
APPID
  2
GENIUS_GENZVEED_13
 70
     0
  0
APPID
  2
GENIUS_GENOBJ-N-LEADER_13
 70
     0
  0
APPID
  2
GENIUS_GENOBJ-N-SEC_13
 70
     0
  0
APPID
  2
GENIUS_GENOBJ-N-CRS_13
 70
     0
  0
APPID
  2
GENIUS_GENOBJ-N-ZOO_13
 70
     0
  0
APPID
  2
GENIUS_GENZOO_13
 70
     0
  0
APPID
  2
GENIUS_GENOBJ-F-TOL_13
 70
     0
  0
APPID
  2
GENIUS_GENFIL_13
 70
     0
  0
APPID
  2
GENIUS_GENOBJ-N-CHA_13
 70
     0
  0
APPID
  2
ASM_BASE
 70
     0
  0
APPID
  2
ASM_EXPLO_VER_2_00
 70
     0
  0
APPID
  2
ASM_CADM_VER_12_00
 70
     0
  0
APPID
  2
ASM_BASEFORO
 70
     0
  0
APPID
  2
ASM_BASETRAVI
 70
     0
  0
APPID
  2
ASM_BASETRAVI1
 70
     0
  0
APPID
  2
ASM_GRUPPI
 70
     0
  0
APPID
  2
ASM_CADM_ALBERO
 70
     0
  0
APPID
  2
ASM_GOLE
 70
     0
  0
APPID
  2
ACAD_MLEADERVER
 70
     0
  0
APPID
  2
ACAD_NAV_VCDISPLAY
 70
     0
  0
ENDTAB
  0
TABLE
  2
DIMSTYLE
 70
     1
  0
DIMSTYLE
  2
STANDARD
 70
     0
  3

  4

  5

  6

  7

 40
1.0
 41
0.18
 42
0.0625
 43
0.38
 44
0.18
 45
0.0
 46
0.0
 47
0.0
 48
0.0
140
0.18
141
0.09
142
0.0
143
25.399999999999999
144
1.0
145
0.0
146
1.0
147
0.09
 71
     0
 72
     0
 73
     1
 74
     1
 75
     0
 76
     0
 77
     0
 78
     0
170
     0
171
     2
172
     0
173
     0
174
     0
175
     0
176
     0
177
     0
178
     0
  0
ENDTAB
  0
ENDSEC
  0
SECTION
  2
BLOCKS
  0
BLOCK
  8
0
  2
$MODEL_SPACE
 70
     0
 10
0.0
 20
0.0
 30
0.0
  3
$MODEL_SPACE
  1

  0
ENDBLK
  5
181
  8
0
  0
BLOCK
 67
     1
  8
0
  2
$PAPER_SPACE
 70
     0
 10
0.0
 20
0.0
 30
0.0
  3
$PAPER_SPACE
  1

  0
ENDBLK
  5
17F
 67
     1
  8
0
  0
ENDSEC
  0
SECTION
  2
ENTITIES
  0
LINE
  5
1734
  8
0
 10
103.8516873742285
 20
33.287651110275078
 30
0.0
 11
123.4516873742285
 21
33.287651110275078
 31
0.0
  0
LINE
  5
1735
  8
0
 10
124.3516873742285
 20
28.787651110275078
 30
0.0
 11
136.3516873742285
 21
28.787651110275078
 31
0.0
  0
LINE
  5
1736
  8
0
 10
103.8516873742285
 20
33.287651110275078
 30
0.0
 11
103.3516873742285
 21
33.787651110275078
 31
0.0
  0
LINE
  5
1737
  8
0
 10
124.3516873742285
 20
28.787651110275078
 30
0.0
 11
123.8516873742285
 21
29.287651110275078
 31
0.0
  0
LINE
  5
1738
  8
0
 10
136.3516873742285
 20
28.787651110275078
 30
0.0
 11
136.8516873742285
 21
29.287651110275078
 31
0.0
  0
ARC
  5
1739
  8
0
 10
123.4516873742285
 20
32.887651110275051
 30
0.0
 40
0.4
 50
0.0
 51
90.0
  0
ARC
  5
173A
  8
0
 10
123.4516873742285
 20
58.687651110275112
 30
0.0
 40
0.4
 50
270.0
 51
0.0
  0
LINE
  5
173B
  8
0
 10
136.3516873742285
 20
62.787651110275078
 30
0.0
 11
136.8516873742285
 21
62.287651110275078
 31
0.0
  0
LINE
  5
173C
  8
0
 10
124.3516873742285
 20
62.787651110275078
 30
0.0
 11
123.8516873742285
 21
62.287651110275078
 31
0.0
  0
LINE
  5
173D
  8
0
 10
103.8516873742285
 20
58.287651110275071
 30
0.0
 11
103.3516873742285
 21
57.787651110275078
 31
0.0
  0
LINE
  5
173E
  8
0
 10
124.3516873742285
 20
62.787651110275078
 30
0.0
 11
136.3516873742285
 21
62.787651110275078
 31
0.0
  0
LINE
  5
173F
  8
0
 10
103.8516873742285
 20
58.287651110275071
 30
0.0
 11
123.4516873742285
 21
58.287651110275071
 31
0.0
  0
LINE
  5
1740
  8
0
 10
136.8516873742285
 20
62.287651110275078
 30
0.0
 11
136.8516873742285
 21
29.287651110275078
 31
0.0
  0
LINE
  5
1741
  8
0
 10
123.8516873742285
 20
62.287651110275078
 30
0.0
 11
123.8516873742285
 21
29.287651110275078
 31
0.0
  0
LINE
  5
1742
  8
0
 10
103.3516873742285
 20
57.787651110275078
 30
0.0
 11
103.3516873742285
 21
33.787651110275078
 31
0.0
  0
LINE
  5
1754
  8
2
 10
136.8516873742285
 20
53.987651110275067
 30
0.0
 11
103.3516873742285
 21
53.987651110275067
 31
0.0
  0
LINE
  5
1755
  8
2
 10
136.8516873742285
 20
37.58765111027509
 30
0.0
 11
103.3516873742285
 21
37.58765111027509
 31
0.0
  0
LINE
  5
1762
  8
1
 10
88.851687374228504
 20
45.787651110275071
 30
0.0
 11
168.35168737422839
 21
45.787651110275071
 31
0.0
  0
LINE
  5
1763
  8
0
 10
165.8516873742285
 20
57.287651110275931
 30
0.0
 11
165.8516873742285
 21
34.287651110383713
 31
0.0
  0
ARC
  5
1764
  8
0
 10
159.42903764394259
 20
35.39534626486244
 30
0.0
 40
6.1339745957208214
 50
334.38424746986152
 51
34.384247471203182
  0
LINE
  5
1765
  8
0
 10
164.4912154698342
 20
31.931244649702929
 30
0.0
 11
165.8516873742285
 21
34.287651110383713
 31
0.0
  0
LINE
  5
1766
  8
0
 10
164.4912154698342
 20
31.931244649724761
 30
0.0
 11
152.85168737422839
 21
31.931244649724761
 31
0.0
  0
LINE
  5
1767
  8
0
 10
164.4912154698342
 20
38.85944788000058
 30
0.0
 11
152.85168737422839
 21
38.85944788000058
 31
0.0
  0
LINE
  5
1768
  8
0
 10
164.4912154698342
 20
52.715854340551289
 30
0.0
 11
152.85168737422839
 21
52.715854340551289
 31
0.0
  0
LINE
  5
1769
  8
0
 10
164.4912154698342
 20
59.644057570827101
 30
0.0
 11
152.85168737422839
 21
59.644057570827151
 31
0.0
  0
LINE
  5
176A
  8
0
 10
164.4912154698342
 20
59.644057570848929
 30
0.0
 11
165.8516873742285
 21
57.287651110168163
 31
0.0
  0
ARC
  5
176B
  8
0
 10
159.42903764394259
 20
56.179955955689422
 30
0.0
 40
6.1339745957208214
 50
325.6157525287968
 51
25.615752530138479
  0
ARC
  5
176C
  8
0
 10
142.63480901152391
 20
45.787651110275931
 30
0.0
 40
22.928203228139491
 50
342.41204622431462
 51
17.587953775685371
  0
LINE
  5
176D
  8
0
 10
148.85168737422839
 20
45.251752725413724
 30
0.0
 11
152.85168737422839
 21
46.323549495138188
 31
0.0
  0
LINE
  5
176E
  8
0
 10
148.85168737422839
 20
31.787651110275931
 30
0.0
 11
148.85168737422839
 21
59.787651110275981
 31
0.0
  0
LINE
  5
176F
  8
0
 10
152.85168737422839
 20
31.787651110275931
 30
0.0
 11
148.85168737422839
 21
31.787651110275931
 31
0.0
  0
LINE
  5
1770
  8
0
 10
152.85168737422839
 20
59.787651110275981
 30
0.0
 11
152.85168737422839
 21
31.787651110275931
 31
0.0
  0
LINE
  5
1771
  8
0
 10
148.85168737422839
 20
59.787651110275981
 30
0.0
 11
152.85168737422839
 21
59.787651110275981
 31
0.0
  0
LINE
  5
1772
  8
0
 10
98.351687374228973
 20
31.787651110275078
 30
0.0
 11
99.851687374228504
 21
31.787651110275078
 31
0.0
  0
ARC
  5
1773
  8
0
 10
100.9957902379507
 20
41.431753973997388
 30
0.0
 40
10.0
 50
195.33191487119461
 51
254.66808512880689
  0
ARC
  5
1774
  8
0
 10
100.9957902379507
 20
50.143548246552882
 30
0.0
 40
10.0
 50
105.33191487119311
 51
164.66808512880539
  0
LINE
  5
1775
  8
0
 10
91.351687374228504
 20
38.787651110275313
 30
0.0
 11
91.351687374228504
 21
52.78765111027564
 31
0.0
  0
LINE
  5
1776
  8
0
 10
98.351687374228504
 20
31.787651110275078
 30
0.0
 11
98.351687374228504
 21
59.787651110275192
 31
0.0
  0
LINE
  5
1777
  8
0
 10
98.351687374228973
 20
59.787651110275078
 30
0.0
 11
99.851687374228504
 21
59.787651110275078
 31
0.0
  0
LINE
  5
1778
  8
3
 10
103.3516873742285
 20
38.581475975680291
 30
0.0
 11
102.8516873742285
 21
38.292800841085523
 31
0.0
  0
LINE
  5
1779
  8
3
 10
103.3516873742285
 20
52.993826244869979
 30
0.0
 11
102.8516873742285
 21
53.282501379464748
 31
0.0
  0
LINE
  5
177A
  8
0
 10
102.8516873742285
 20
53.787651110275078
 30
0.0
 11
103.3516873742285
 21
53.787651110275078
 31
0.0
  0
LINE
  5
177B
  8
3
 10
136.8516873742285
 20
52.70515111027521
 30
0.0
 11
148.85168737422839
 21
52.70515111027521
 31
0.0
  0
LINE
  5
177C
  8
3
 10
136.8516873742285
 20
38.87015111027506
 30
0.0
 11
148.85168737422839
 21
38.87015111027506
 31
0.0
  0
LINE
  5
177D
  8
0
 10
102.8516873742285
 20
37.787651110275078
 30
0.0
 11
103.3516873742285
 21
37.787651110275078
 31
0.0
  0
LINE
  5
177E
  8
0
 10
99.851687374228504
 20
60.787651110275071
 30
0.0
 11
102.8516873742285
 21
60.787651110275071
 31
0.0
  0
LINE
  5
177F
  8
0
 10
99.851687374228504
 20
30.787651110275078
 30
0.0
 11
102.8516873742284
 21
30.787651110275078
 31
0.0
  0
LINE
  5
1780
  8
0
 10
99.851687374228504
 20
60.787651110275071
 30
0.0
 11
99.851687374228504
 21
30.787651110275078
 31
0.0
  0
LINE
  5
1781
  8
0
 10
102.8516873742285
 20
60.787651110275071
 30
0.0
 11
102.8516873742285
 21
30.787651110275078
 31
0.0
  0
LINE
  5
1793
  8
2
 10
103.8516873742285
 20
52.705151110275153
 30
0.0
 11
136.8516873742285
 21
52.70515111027521
 31
0.0
  0
LINE
  5
1794
  8
2
 10
99.851687374228504
 20
53.787651110275078
 30
0.0
 11
102.8516873742285
 21
53.787651110275078
 31
0.0
  0
LINE
  5
1795
  8
2
 10
99.851687374228504
 20
37.787651110275078
 30
0.0
 11
102.8516873742285
 21
37.787651110275078
 31
0.0
  0
LINE
  5
1796
  8
2
 10
103.8516873742285
 20
38.87015111027506
 30
0.0
 11
136.8516873742285
 21
38.87015111027506
 31
0.0
  0
LINE
  5
1797
  8
2
 10
164.85168737422859
 20
51.787651110275078
 30
0.0
 11
164.85168737422839
 21
39.787651110275128
 31
0.0
  0
LINE
  5
1798
  8
2
 10
162.85168737422839
 20
37.787651110275142
 30
0.0
 11
162.85168737422859
 21
53.787651110275078
 31
0.0
  0
LINE
  5
1799
  8
2
 10
162.85168737422859
 20
53.787651110275078
 30
0.0
 11
164.85168737422859
 21
51.787651110275078
 31
0.0
  0
LINE
  5
179A
  8
2
 10
164.85168737422839
 20
39.787651110275128
 30
0.0
 11
162.85168737422839
 21
37.787651110275142
 31
0.0
  0
LINE
  5
179B
  8
2
 10
103.8516873742285
 20
53.787651110275078
 30
0.0
 11
103.8516873742285
 21
37.787651110275078
 31
0.0
  0
LINE
  5
179C
  8
2
 10
103.8516873742285
 20
52.705151110275153
 30
0.0
 11
103.3516873742285
 21
52.993826244869979
 31
0.0
  0
LINE
  5
179D
  8
2
 10
103.8516873742285
 20
38.870151110275117
 30
0.0
 11
103.3516873742285
 21
38.581475975680291
 31
0.0
  0
LINE
  5
179E
  8
2
 10
148.85168737422839
 20
37.787651110275078
 30
0.0
 11
162.85168737422839
 21
37.787651110275142
 31
0.0
  0
LINE
  5
179F
  8
2
 10
148.85168737422839
 20
38.87015111027506
 30
0.0
 11
163.93418737422829
 21
38.87015111027506
 31
0.0
  0
LINE
  5
17A0
  8
2
 10
148.85168737422839
 20
53.787651110275078
 30
0.0
 11
162.85168737422859
 21
53.787651110275078
 31
0.0
  0
LINE
  5
17A1
  8
2
 10
148.85168737422839
 20
52.70515111027521
 30
0.0
 11
163.93418737422849
 21
52.70515111027521
 31
0.0
  0
LINE
  5
17A2
  8
2
 10
103.3516873742285
 20
53.787651110275078
 30
0.0
 11
136.8516873742285
 21
53.787651110275078
 31
0.0
  0
LINE
  5
17A3
  8
2
 10
102.8516873742285
 20
53.282501379464748
 30
0.0
 11
101.9767423750353
 21
53.787651110275078
 31
0.0
  0
LINE
  5
17A4
  8
2
 10
102.8516873742285
 20
38.292800841085523
 30
0.0
 11
101.9767423750353
 21
37.787651110275192
 31
0.0
  0
LINE
  5
17A5
  8
2
 10
103.3516873742285
 20
37.787651110275078
 30
0.0
 11
136.8516873742285
 21
37.787651110275078
 31
0.0
  0
LINE
  5
17A6
  8
0
 10
136.8516873742285
 20
37.787651110275078
 30
0.0
 11
148.85168737422839
 21
37.787651110275078
 31
0.0
  0
LINE
  5
17A7
  8
0
 10
136.8516873742285
 20
53.787651110275078
 30
0.0
 11
148.85168737422839
 21
53.787651110275078
 31
0.0
  0
LINE
  5
1961
  8
1
 10
34.290957098632191
 20
27.620281170212792
 30
0.0
 11
34.290957098632191
 21
63.955021050337422
 31
0.0
  0
LINE
  5
1962
  8
1
 10
16.123587158569869
 20
45.7876511102751
 30
0.0
 11
52.458327038694499
 21
45.7876511102751
 31
0.0
  0
CIRCLE
  5
1963
  8
0
 10
34.290957098632191
 20
45.7876511102751
 30
0.0
 40
14.99999999999997
  0
CIRCLE
  5
1964
  8
0
 10
34.290957098632191
 20
45.7876511102751
 30
0.0
 40
13.99999999999997
  0
LINE
  5
1965
  8
0
 10
29.290957098632759
 20
42.900899764327413
 30
0.0
 11
34.290957098632759
 21
40.014148418379158
 31
0.0
  0
LINE
  5
1966
  8
0
 10
34.290957098632759
 20
40.014148418379158
 30
0.0
 11
39.290957098632191
 21
42.900899764327413
 31
0.0
  0
LINE
  5
1967
  8
0
 10
39.290957098632191
 20
42.900899764327413
 30
0.0
 11
39.290957098632191
 21
48.674402456224499
 31
0.0
  0
LINE
  5
1968
  8
0
 10
39.290957098632191
 20
48.674402456224499
 30
0.0
 11
34.290957098632191
 21
51.561153802171617
 31
0.0
  0
LINE
  5
1969
  8
0
 10
34.290957098632191
 20
51.561153802171617
 30
0.0
 11
29.290957098631619
 21
48.674402456222801
 31
0.0
  0
LINE
  5
196A
  8
0
 10
29.290957098631619
 20
48.674402456222801
 30
0.0
 11
29.290957098632759
 21
42.900899764327413
 31
0.0
  0
CIRCLE
  5
196B
  8
0
 10
34.290957098632191
 20
45.7876511102751
 30
0.0
 40
7.0000000000001839
  0
CIRCLE
  5
196C
  8
0
 10
222.91241764982479
 20
45.787651110220388
 30
0.0
 40
13.99999999999997
  0
CIRCLE
  5
196D
  8
0
 10
222.91241764982479
 20
45.787651110220388
 30
0.0
 40
14.99999999999997
  0
LINE
  5
196E
  8
1
 10
241.0797875898871
 20
45.787651110220388
 30
0.0
 11
204.7450477097625
 21
45.787651110220388
 31
0.0
  0
LINE
  5
196F
  8
1
 10
222.91241764982479
 20
27.62028117015808
 30
0.0
 11
222.91241764982479
 21
63.955021050282703
 31
0.0
  0
CIRCLE
  5
1970
  8
0
 10
222.91241764982479
 20
45.787651110220388
 30
0.0
 40
11.50000000000079
  0
LINE
  5
1971
  8
0
 10
222.91241764982479
 20
59.644057570771537
 30
0.0
 11
210.74689258922879
 21
52.715854340496541
 31
0.0
  0
LINE
  5
1972
  8
0
 10
222.91241764982479
 20
59.644057570771537
 30
0.0
 11
235.0779427104209
 21
52.715854340496541
 31
0.0
  0
LINE
  5
1973
  8
0
 10
235.0779427104209
 20
52.715854340496541
 30
0.0
 11
235.07794270981441
 21
38.859447877023626
 31
0.0
  0
LINE
  5
1974
  8
0
 10
222.91241764982479
 20
31.931244649669249
 30
0.0
 11
235.0779427104209
 21
38.859447879944241
 31
0.0
  0
LINE
  5
1975
  8
0
 10
222.91241764982479
 20
31.931244649669249
 30
0.0
 11
210.74689258922879
 21
38.859447879944241
 31
0.0
  0
LINE
  5
1976
  8
0
 10
210.74689258922879
 20
52.715854340496541
 30
0.0
 11
210.7468925924872
 21
38.859447878088588
 31
0.0
  0
CIRCLE
  5
1977
  8
0
 10
222.91241764982479
 20
45.787651110220388
 30
0.0
 40
6.9175000000000457
  0
CIRCLE
  5
1978
  8
3
 10
222.91241764982479
 20
45.787651110220388
 30
0.0
 40
7.9999999999999707
  0
LINE
  5
197A
  8
0
 10
136.8516873742285
 20
130.54541670537299
 30
0.0
 11
148.85168737422839
 21
130.54541670537299
 31
0.0
  0
LINE
  5
197B
  8
0
 10
136.8516873742285
 20
114.545416705373
 30
0.0
 11
148.85168737422839
 21
114.545416705373
 31
0.0
  0
LINE
  5
197C
  8
2
 10
103.3516873742285
 20
114.545416705373
 30
0.0
 11
136.8516873742285
 21
114.545416705373
 31
0.0
  0
LINE
  5
197D
  8
2
 10
102.8516873742285
 20
115.0505664361835
 30
0.0
 11
101.9767423750353
 21
114.5454167053731
 31
0.0
  0
LINE
  5
197E
  8
2
 10
102.8516873742285
 20
130.04026697456271
 30
0.0
 11
101.9767423750353
 21
130.54541670537299
 31
0.0
  0
LINE
  5
197F
  8
2
 10
103.3516873742285
 20
130.54541670537299
 30
0.0
 11
136.8516873742285
 21
130.54541670537299
 31
0.0
  0
LINE
  5
1984
  8
2
 10
103.8516873742285
 20
115.6279167053731
 30
0.0
 11
103.3516873742285
 21
115.3392415707782
 31
0.0
  0
LINE
  5
1985
  8
2
 10
103.8516873742285
 20
129.46291670537309
 30
0.0
 11
103.3516873742285
 21
129.75159183996789
 31
0.0
  0
LINE
  5
1986
  8
2
 10
103.8516873742285
 20
130.54541670537299
 30
0.0
 11
103.8516873742285
 21
114.545416705373
 31
0.0
  0
LINE
  5
198B
  8
2
 10
103.8516873742285
 20
115.627916705373
 30
0.0
 11
136.8516873742285
 21
115.627916705373
 31
0.0
  0
LINE
  5
198C
  8
2
 10
99.851687374228504
 20
114.545416705373
 30
0.0
 11
102.8516873742285
 21
114.545416705373
 31
0.0
  0
LINE
  5
198D
  8
2
 10
99.851687374228504
 20
130.54541670537299
 30
0.0
 11
102.8516873742285
 21
130.54541670537299
 31
0.0
  0
LINE
  5
198E
  8
2
 10
103.8516873742285
 20
129.46291670537309
 30
0.0
 11
136.8516873742285
 21
129.46291670537309
 31
0.0
  0
LINE
  5
198F
  8
0
 10
102.8516873742285
 20
137.54541670537299
 30
0.0
 11
102.8516873742285
 21
107.545416705373
 31
0.0
  0
LINE
  5
1990
  8
0
 10
99.851687374228504
 20
137.54541670537299
 30
0.0
 11
99.851687374228504
 21
107.545416705373
 31
0.0
  0
LINE
  5
1991
  8
0
 10
99.851687374228504
 20
107.545416705373
 30
0.0
 11
102.8516873742284
 21
107.545416705373
 31
0.0
  0
LINE
  5
1992
  8
0
 10
99.851687374228504
 20
137.54541670537299
 30
0.0
 11
102.8516873742285
 21
137.54541670537299
 31
0.0
  0
LINE
  5
1993
  8
0
 10
102.8516873742285
 20
114.545416705373
 30
0.0
 11
103.3516873742285
 21
114.545416705373
 31
0.0
  0
LINE
  5
1994
  8
3
 10
136.8516873742285
 20
115.627916705373
 30
0.0
 11
148.85168737422839
 21
115.627916705373
 31
0.0
  0
LINE
  5
1995
  8
3
 10
136.8516873742285
 20
129.46291670537309
 30
0.0
 11
148.85168737422839
 21
129.46291670537309
 31
0.0
  0
LINE
  5
1996
  8
0
 10
102.8516873742285
 20
130.54541670537299
 30
0.0
 11
103.3516873742285
 21
130.54541670537299
 31
0.0
  0
LINE
  5
1997
  8
3
 10
103.3516873742285
 20
129.75159183996789
 30
0.0
 11
102.8516873742285
 21
130.04026697456271
 31
0.0
  0
LINE
  5
1998
  8
3
 10
103.3516873742285
 20
115.3392415707782
 30
0.0
 11
102.8516873742285
 21
115.0505664361835
 31
0.0
  0
LINE
  5
1999
  8
0
 10
98.351687374228973
 20
136.54541670537299
 30
0.0
 11
99.851687374228504
 21
136.54541670537299
 31
0.0
  0
LINE
  5
199A
  8
0
 10
98.351687374228504
 20
108.545416705373
 30
0.0
 11
98.351687374228504
 21
136.5454167053731
 31
0.0
  0
LINE
  5
199B
  8
0
 10
91.351687374228504
 20
115.5454167053733
 30
0.0
 11
91.351687374228504
 21
129.54541670537361
 31
0.0
  0
ARC
  5
199C
  8
0
 10
100.9957902379507
 20
126.9013138416508
 30
0.0
 40
10.0
 50
105.33191487119311
 51
164.66808512880539
  0
ARC
  5
199D
  8
0
 10
100.9957902379507
 20
118.1895195690953
 30
0.0
 40
10.0
 50
195.33191487119461
 51
254.66808512880689
  0
LINE
  5
199E
  8
0
 10
98.351687374228973
 20
108.545416705373
 30
0.0
 11
99.851687374228504
 21
108.545416705373
 31
0.0
  0
LINE
  5
19AE
  8
1
 10
88.851687374228504
 20
122.545416705373
 30
0.0
 11
168.35168737422839
 21
122.545416705373
 31
0.0
  0
LINE
  5
19AF
  8
2
 10
136.8516873742285
 20
114.345416705373
 30
0.0
 11
103.3516873742285
 21
114.345416705373
 31
0.0
  0
LINE
  5
19B0
  8
2
 10
136.8516873742285
 20
130.745416705373
 30
0.0
 11
103.3516873742285
 21
130.745416705373
 31
0.0
  0
LINE
  5
19B1
  8
0
 10
103.3516873742285
 20
134.54541670537299
 30
0.0
 11
103.3516873742285
 21
110.545416705373
 31
0.0
  0
LINE
  5
19B2
  8
0
 10
123.8516873742285
 20
139.04541670537299
 30
0.0
 11
123.8516873742285
 21
106.045416705373
 31
0.0
  0
LINE
  5
19B3
  8
0
 10
136.8516873742285
 20
139.04541670537299
 30
0.0
 11
136.8516873742285
 21
106.045416705373
 31
0.0
  0
LINE
  5
19B4
  8
0
 10
103.8516873742285
 20
135.04541670537299
 30
0.0
 11
123.4516873742285
 21
135.04541670537299
 31
0.0
  0
LINE
  5
19B5
  8
0
 10
124.3516873742285
 20
139.54541670537299
 30
0.0
 11
136.3516873742285
 21
139.54541670537299
 31
0.0
  0
LINE
  5
19B6
  8
0
 10
103.8516873742285
 20
135.04541670537299
 30
0.0
 11
103.3516873742285
 21
134.54541670537299
 31
0.0
  0
LINE
  5
19B7
  8
0
 10
124.3516873742285
 20
139.54541670537299
 30
0.0
 11
123.8516873742285
 21
139.04541670537299
 31
0.0
  0
LINE
  5
19B8
  8
0
 10
136.3516873742285
 20
139.54541670537299
 30
0.0
 11
136.8516873742285
 21
139.04541670537299
 31
0.0
  0
ARC
  5
19B9
  8
0
 10
123.4516873742285
 20
135.44541670537311
 30
0.0
 40
0.4
 50
270.0
 51
0.0
  0
ARC
  5
19BA
  8
0
 10
123.4516873742285
 20
109.64541670537299
 30
0.0
 40
0.4
 50
0.0
 51
90.0
  0
LINE
  5
19BB
  8
0
 10
136.3516873742285
 20
105.545416705373
 30
0.0
 11
136.8516873742285
 21
106.045416705373
 31
0.0
  0
LINE
  5
19BC
  8
0
 10
124.3516873742285
 20
105.545416705373
 30
0.0
 11
123.8516873742285
 21
106.045416705373
 31
0.0
  0
LINE
  5
19BD
  8
0
 10
103.8516873742285
 20
110.045416705373
 30
0.0
 11
103.3516873742285
 21
110.545416705373
 31
0.0
  0
LINE
  5
19BE
  8
0
 10
124.3516873742285
 20
105.545416705373
 30
0.0
 11
136.3516873742285
 21
105.545416705373
 31
0.0
  0
LINE
  5
19BF
  8
0
 10
103.8516873742285
 20
110.045416705373
 30
0.0
 11
123.4516873742285
 21
110.045416705373
 31
0.0
  0
LINE
  5
19C1
  8
0
 10
165.85168737420929
 20
134.04541670543949
 30
0.0
 11
165.85168737424769
 21
111.0454167053731
 31
0.0
  0
ARC
  5
19C2
  8
0
 10
148.23288522231101
 20
128.5454167053731
 30
0.0
 40
17.330127017333279
 50
339.74384199764432
 51
20.256158002355679
  0
LINE
  5
19C3
  8
0
 10
165.56301223964431
 20
134.54541670538811
 30
0.0
 11
165.85168737424769
 21
134.0454167053731
 31
0.0
  0
LINE
  5
19C4
  8
0
 10
165.56301223964431
 20
134.54541670538811
 30
0.0
 11
152.85168737420841
 21
134.5454167053679
 31
0.0
  0
LINE
  5
19C5
  8
0
 10
152.8516873742285
 20
122.5454167053731
 30
0.0
 11
164.4912154698151
 21
122.5454167053731
 31
0.0
  0
LINE
  5
19C6
  8
0
 10
165.56301223964431
 20
110.54541670535809
 30
0.0
 11
152.85168737424851
 21
110.5454167053783
 31
0.0
  0
LINE
  5
19C7
  8
0
 10
165.56301223964431
 20
110.54541670535809
 30
0.0
 11
165.85168737424769
 21
111.0454167053731
 31
0.0
  0
ARC
  5
19C8
  8
0
 10
148.23288522231101
 20
116.5454167053731
 30
0.0
 40
17.330127017333279
 50
339.74384199764432
 51
20.256158002355679
  0
LINE
  5
19C9
  8
0
 10
148.85168737422839
 20
108.545416705373
 30
0.0
 11
148.85168737422839
 21
136.5454167053731
 31
0.0
  0
LINE
  5
19CA
  8
0
 10
152.85168737422839
 20
108.545416705373
 30
0.0
 11
148.85168737422839
 21
108.545416705373
 31
0.0
  0
LINE
  5
19CB
  8
0
 10
152.85168737422839
 20
136.5454167053731
 30
0.0
 11
152.85168737422839
 21
108.545416705373
 31
0.0
  0
LINE
  5
19CC
  8
0
 10
148.85168737422839
 20
136.5454167053731
 30
0.0
 11
152.85168737422839
 21
136.5454167053731
 31
0.0
  0
LINE
  5
19CD
  8
2
 10
164.85168737422859
 20
128.54541670537219
 30
0.0
 11
164.85168737422839
 21
116.5454167053722
 31
0.0
  0
LINE
  5
19CE
  8
2
 10
162.85168737422839
 20
114.5454167053722
 30
0.0
 11
162.85168737422859
 21
130.54541670537219
 31
0.0
  0
LINE
  5
19CF
  8
2
 10
162.85168737422859
 20
130.54541670537219
 30
0.0
 11
164.85168737422859
 21
128.54541670537219
 31
0.0
  0
LINE
  5
19D0
  8
2
 10
164.85168737422839
 20
116.5454167053722
 30
0.0
 11
162.85168737422839
 21
114.5454167053722
 31
0.0
  0
LINE
  5
19D1
  8
2
 10
148.85168737422839
 20
114.5454167053722
 30
0.0
 11
162.85168737422839
 21
114.5454167053722
 31
0.0
  0
LINE
  5
19D2
  8
2
 10
148.85168737422839
 20
115.6279167053721
 30
0.0
 11
163.93418737422829
 21
115.6279167053721
 31
0.0
  0
LINE
  5
19D3
  8
2
 10
148.85168737422839
 20
130.54541670537219
 30
0.0
 11
162.85168737422859
 21
130.54541670537219
 31
0.0
  0
LINE
  5
19D4
  8
2
 10
148.85168737422839
 20
129.46291670537229
 30
0.0
 11
163.93418737422849
 21
129.46291670537229
 31
0.0
  0
TEXT
  5
1A98
  8
0
 62
     3
 10
0.0
 20
0.0
 30
0.0
 40
10.0
  1
RLP2521
  7
STANDARD1
  0
ENDSEC
  0
EOF
