  0
SECTION
  2
HEADER
  9
$ACADVER
  1
AC1009
  9
$INSBASE
 10
0.0
 20
0.0
 30
0.0
  9
$EXTMIN
 10
0.0
 20
-2.960436562073669
 30
0.0
  9
$EXTMAX
 10
249.9601414219413
 20
147.38588014055119
 30
0.0
  9
$LIMMIN
 10
0.0
 20
0.0
  9
$LIMMAX
 10
135.0
 20
87.5
  9
$ORTHOMODE
 70
     1
  9
$REGENMODE
 70
     1
  9
$FILLMODE
 70
     1
  9
$QTEXTMODE
 70
     0
  9
$MIRRTEXT
 70
     1
  9
$DRAGMODE
 70
     2
  9
$LTSCALE
 40
5.0
  9
$OSMODE
 70
    55
  9
$ATTMODE
 70
     1
  9
$TEXTSIZE
 40
4.000000000000048
  9
$TRACEWID
 40
0.05
  9
$TEXTSTYLE
  7
STANDARD
  9
$CLAYER
  8
4
  9
$CELTYPE
  6
BYLAYER
  9
$CECOLOR
 62
   256
  9
$DIMSCALE
 40
1.0
  9
$DIMASZ
 40
3.0
  9
$DIMEXO
 40
2.0
  9
$DIMDLI
 40
0.38
  9
$DIMRND
 40
0.0
  9
$DIMDLE
 40
0.0
  9
$DIMEXE
 40
2.0
  9
$DIMTP
 40
0.0
  9
$DIMTM
 40
0.0
  9
$DIMTXT
 40
3.0
  9
$DIMCEN
 40
0.0
  9
$DIMTSZ
 40
0.0
  9
$DIMTOL
 70
     0
  9
$DIMLIM
 70
     0
  9
$DIMTIH
 70
     0
  9
$DIMTOH
 70
     0
  9
$DIMSE1
 70
     0
  9
$DIMSE2
 70
     0
  9
$DIMTAD
 70
     1
  9
$DIMZIN
 70
     8
  9
$DIMBLK
  1

  9
$DIMASO
 70
     0
  9
$DIMSHO
 70
     0
  9
$DIMPOST
  1

  9
$DIMAPOST
  1

  9
$DIMALT
 70
     0
  9
$DIMALTD
 70
     2
  9
$DIMALTF
 40
25.399999999999999
  9
$DIMLFAC
 40
1.0
  9
$DIMTOFL
 70
     0
  9
$DIMTVP
 40
1.6000000000000001
  9
$DIMTIX
 70
     1
  9
$DIMSOXD
 70
     0
  9
$DIMSAH
 70
     0
  9
$DIMBLK1
  1

  9
$DIMBLK2
  1

  9
$DIMSTYLE
  2
STANDARD
  9
$DIMCLRD
 70
     0
  9
$DIMCLRE
 70
     0
  9
$DIMCLRT
 70
     0
  9
$DIMTFAC
 40
1.0
  9
$DIMGAP
 40
1.1999999999999991
  9
$LUNITS
 70
     2
  9
$LUPREC
 70
     4
  9
$SKETCHINC
 40
0.1
  9
$FILLETRAD
 40
0.0
  9
$AUNITS
 70
     0
  9
$AUPREC
 70
     4
  9
$MENU
  1
ACAD
  9
$ELEVATION
 40
0.0
  9
$PELEVATION
 40
0.0
  9
$THICKNESS
 40
0.0
  9
$LIMCHECK
 70
     0
  9
$BLIPMODE
 70
     0
  9
$CHAMFERA
 40
0.0
  9
$CHAMFERB
 40
0.0
  9
$SKPOLY
 70
     0
  9
$TDCREATE
 40
2448344.4481018521
  9
$TDUPDATE
 40
2456598.5995128471
  9
$TDINDWG
 40
0.151046794
  9
$TDUSRTIMER
 40
0.151046794
  9
$USRTIMER
 70
     1
  9
$ANGBASE
 50
0.0
  9
$ANGDIR
 70
     0
  9
$PDMODE
 70
     0
  9
$PDSIZE
 40
0.0
  9
$PLINEWID
 40
0.0
  9
$COORDS
 70
     1
  9
$SPLFRAME
 70
     0
  9
$SPLINETYPE
 70
     6
  9
$SPLINESEGS
 70
     8
  9
$ATTDIA
 70
     0
  9
$ATTREQ
 70
     1
  9
$HANDLING
 70
     1
  9
$HANDSEED
  5
19F0
  9
$SURFTAB1
 70
     6
  9
$SURFTAB2
 70
     6
  9
$SURFTYPE
 70
     6
  9
$SURFU
 70
     6
  9
$SURFV
 70
     6
  9
$UCSNAME
  2

  9
$UCSORG
 10
0.0
 20
0.0
 30
0.0
  9
$UCSXDIR
 10
1.0
 20
0.0
 30
0.0
  9
$UCSYDIR
 10
0.0
 20
1.0
 30
0.0
  9
$PUCSNAME
  2

  9
$PUCSORG
 10
0.0
 20
0.0
 30
0.0
  9
$PUCSXDIR
 10
1.0
 20
0.0
 30
0.0
  9
$PUCSYDIR
 10
0.0
 20
1.0
 30
0.0
  9
$USERI1
 70
     4
  9
$USERI2
 70
     2
  9
$USERI3
 70
     1
  9
$USERI4
 70
     0
  9
$USERI5
 70
     0
  9
$USERR1
 40
0.0
  9
$USERR2
 40
0.0
  9
$USERR3
 40
0.0
  9
$USERR4
 40
0.0
  9
$USERR5
 40
0.0
  9
$WORLDVIEW
 70
     1
  9
$SHADEDGE
 70
     3
  9
$SHADEDIF
 70
    70
  9
$TILEMODE
 70
     1
  9
$MAXACTVP
 70
    16
  9
$PLIMCHECK
 70
     0
  9
$PEXTMIN
 10
1.0000000000000000E+020
 20
1.0000000000000000E+020
 30
1.0000000000000000E+020
  9
$PEXTMAX
 10
-1.0000000000000000E+020
 20
-1.0000000000000000E+020
 30
-1.0000000000000000E+020
  9
$PLIMMIN
 10
0.0
 20
0.0
  9
$PLIMMAX
 10
12.0
 20
9.0
  9
$UNITMODE
 70
     0
  9
$VISRETAIN
 70
     0
  9
$PLINEGEN
 70
     1
  9
$PSLTSCALE
 70
     0
  0
ENDSEC
  0
SECTION
  2
TABLES
  0
TABLE
  2
VPORT
 70
     1
  0
VPORT
  2
*ACTIVE
 70
     0
 10
0.0
 20
0.0
 11
1.0
 21
1.0
 12
124.98007129295441
 22
105.96268865013811
 13
0.0
 23
0.0
 14
2.5
 24
2.5
 15
20.0
 25
20.0
 16
0.0
 26
0.0
 36
1.0
 17
0.0
 27
0.0
 37
0.0
 40
219.95679977425289
 41
1.7807262569832401
 42
50.0
 43
0.0
 44
0.0
 50
0.0
 51
0.0
 71
     0
 72
   500
 73
     1
 74
     1
 75
     0
 76
     0
 77
     0
 78
     2
  0
ENDTAB
  0
TABLE
  2
LTYPE
 70
     4
  0
LTYPE
  2
CONTINUOUS
 70
     0
  3
実線
 72
    65
 73
     0
 40
0.0
  0
LTYPE
  2
CENTER
 70
     0
  3
____ _ ____ _ ____ _ ____ _ ____ _ ____ _ ____
 72
    65
 73
     4
 40
2.0
 49
1.25
 49
-0.25
 49
0.25
 49
-0.25
  0
LTYPE
  2
HIDDEN
 70
     0
  3
_ _ _ _ _ _ _ _ _ _ _ _ _ _ _ _ _ _ _ _ _ _ _
 72
    65
 73
     2
 40
0.375
 49
0.25
 49
-0.125
  0
LTYPE
  2
PHANTOM2
 70
     0
  3
___ _ _ ___ _ _ ___ _ _ ___ _ _
 72
    65
 73
     6
 40
1.25
 49
0.625
 49
-0.125
 49
0.125
 49
-0.125
 49
0.125
 49
-0.125
  0
ENDTAB
  0
TABLE
  2
LAYER
 70
     6
  0
LAYER
  2
0
 70
     0
 62
     7
  6
CONTINUOUS
  0
LAYER
  2
2
 70
     0
 62
     2
  6
HIDDEN
  0
LAYER
  2
3
 70
     0
 62
     3
  6
CONTINUOUS
  0
LAYER
  2
4
 70
     0
 62
     4
  6
CONTINUOUS
  0
LAYER
  2
1
 70
     0
 62
     1
  6
CENTER
  0
LAYER
  2
DEFPOINTS
 70
     0
 62
     7
  6
CONTINUOUS
  0
ENDTAB
  0
TABLE
  2
STYLE
 70
     3
  0
STYLE
  2
STANDARD
 70
     0
 40
0.0
 41
1.0
 50
0.0
 71
     0
 42
4.000000000000048
  3
SIMPLEX
  4
BIGFONT
  0
STYLE
  2
07500
 70
     0
 40
0.0
 41
0.75
 50
0.0
 71
     0
 42
2.5
  3
simplex.shx
  4
BIGFONT.shx
  0
STYLE
  2
STANDARD1
 70
     0
 40
0.0
 41
1.0
 50
0.0
 71
     0
 42
3.0
  3
txt
  4

  0
ENDTAB
  0
TABLE
  2
VIEW
 70
     1
  0
VIEW
  2
ALL
 70
     0
 40
175.0
 10
138.22205882352941
 20
87.5
 41
0.0
 11
0.0
 21
0.0
 31
1.0
 12
0.0
 22
0.0
 32
0.0
 42
0.0
 43
0.0
 44
0.0
 50
0.0
 71
     0
  0
ENDTAB
  0
TABLE
  2
UCS
 70
     0
  0
ENDTAB
  0
TABLE
  2
APPID
 70
    38
  0
APPID
  2
ACAD
 70
     0
  0
APPID
  2
GENIUS_GENODEF_13
 70
     0
  0
APPID
  2
GENIUS_GENOBJ-N-FIL_13
 70
     0
  0
APPID
  2
_CALL_MAC$
 70
     0
  0
APPID
  2
DCO15
 70
     0
  0
APPID
  2
GENIUS_GENOREF_13
 70
     0
  0
APPID
  2
GENIUS_GENOENT_13
 70
     0
  0
APPID
  2
GENIUS_GENBH_13
 70
     0
  0
APPID
  2
GENIUS_GENOBJ_13
 70
     0
  0
APPID
  2
GENIUS_GENOLIS_13
 70
     0
  0
APPID
  2
GENIUS_GENOBJ-NBEHI-BHF_13
 70
     0
  0
APPID
  2
GENIUS_GENOBJ-NBEHI-BHB_13
 70
     0
  0
APPID
  2
GENIUS_GENOBJ-F-PART_13
 70
     0
  0
APPID
  2
GENIUS_GEFSTDP_13
 70
     0
  0
APPID
  2
GENIUS_GENOBJ-N-RSSYM_13
 70
     0
  0
APPID
  2
GENIUS_GENSYMENT_13
 70
     0
  0
APPID
  2
GENIUS_GENOBJ-N-TIT_13
 70
     0
  0
APPID
  2
GENIUS_GENTITLE_13
 70
     0
  0
APPID
  2
GENIUS_GENZVEED_13
 70
     0
  0
APPID
  2
GENIUS_GENOBJ-N-LEADER_13
 70
     0
  0
APPID
  2
GENIUS_GENOBJ-N-SEC_13
 70
     0
  0
APPID
  2
GENIUS_GENOBJ-N-CRS_13
 70
     0
  0
APPID
  2
GENIUS_GENOBJ-N-ZOO_13
 70
     0
  0
APPID
  2
GENIUS_GENZOO_13
 70
     0
  0
APPID
  2
GENIUS_GENOBJ-F-TOL_13
 70
     0
  0
APPID
  2
GENIUS_GENFIL_13
 70
     0
  0
APPID
  2
GENIUS_GENOBJ-N-CHA_13
 70
     0
  0
APPID
  2
ASM_BASE
 70
     0
  0
APPID
  2
ASM_EXPLO_VER_2_00
 70
     0
  0
APPID
  2
ASM_CADM_VER_12_00
 70
     0
  0
APPID
  2
ASM_BASEFORO
 70
     0
  0
APPID
  2
ASM_BASETRAVI
 70
     0
  0
APPID
  2
ASM_BASETRAVI1
 70
     0
  0
APPID
  2
ASM_GRUPPI
 70
     0
  0
APPID
  2
ASM_CADM_ALBERO
 70
     0
  0
APPID
  2
ASM_GOLE
 70
     0
  0
APPID
  2
ACAD_MLEADERVER
 70
     0
  0
APPID
  2
ACAD_NAV_VCDISPLAY
 70
     0
  0
ENDTAB
  0
TABLE
  2
DIMSTYLE
 70
     1
  0
DIMSTYLE
  2
STANDARD
 70
     0
  3

  4

  5

  6

  7

 40
1.0
 41
0.18
 42
0.0625
 43
0.38
 44
0.18
 45
0.0
 46
0.0
 47
0.0
 48
0.0
140
0.18
141
0.09
142
0.0
143
25.399999999999999
144
1.0
145
0.0
146
1.0
147
0.09
 71
     0
 72
     0
 73
     1
 74
     1
 75
     0
 76
     0
 77
     0
 78
     0
170
     0
171
     2
172
     0
173
     0
174
     0
175
     0
176
     0
177
     0
178
     0
  0
ENDTAB
  0
ENDSEC
  0
SECTION
  2
BLOCKS
  0
BLOCK
  8
0
  2
$MODEL_SPACE
 70
     0
 10
0.0
 20
0.0
 30
0.0
  3
$MODEL_SPACE
  1

  0
ENDBLK
  5
181
  8
0
  0
BLOCK
 67
     1
  8
0
  2
$PAPER_SPACE
 70
     0
 10
0.0
 20
0.0
 30
0.0
  3
$PAPER_SPACE
  1

  0
ENDBLK
  5
17F
 67
     1
  8
0
  0
ENDSEC
  0
SECTION
  2
ENTITIES
  0
LINE
  5
15B2
  8
0
 10
142.7320412062827
 20
55.140705175560242
 30
0.0
 11
157.73204120628259
 21
55.140705175560242
 31
0.0
  0
LINE
  5
15B3
  8
0
 10
142.7320412062827
 20
39.140705175560242
 30
0.0
 11
157.73204120628259
 21
39.140705175560242
 31
0.0
  0
LINE
  5
15B4
  8
2
 10
112.2320412062827
 20
39.140705175560221
 30
0.0
 11
142.7320412062827
 21
39.140705175560242
 31
0.0
  0
LINE
  5
15B5
  8
2
 10
111.7320412062827
 20
39.64585490637063
 30
0.0
 11
110.8570962070895
 21
39.140705175560299
 31
0.0
  0
LINE
  5
15B6
  8
2
 10
111.7320412062827
 20
54.635555444749912
 30
0.0
 11
110.8570962070895
 21
55.140705175560242
 31
0.0
  0
LINE
  5
15B7
  8
2
 10
112.2320412062827
 20
55.140705175560207
 30
0.0
 11
142.7320412062827
 21
55.140705175560242
 31
0.0
  0
LINE
  5
15B8
  8
2
 10
157.73204120628259
 20
54.058205175560317
 30
0.0
 11
172.81454120628271
 21
54.058205175560317
 31
0.0
  0
LINE
  5
15B9
  8
2
 10
157.73204120628259
 20
55.140705175560242
 30
0.0
 11
171.73204120628279
 21
55.140705175560242
 31
0.0
  0
LINE
  5
15BA
  8
2
 10
157.73204120628259
 20
40.223205175560189
 30
0.0
 11
172.81454120628251
 21
40.223205175560189
 31
0.0
  0
LINE
  5
15BB
  8
2
 10
157.73204120628259
 20
39.140705175560242
 30
0.0
 11
171.73204120628259
 21
39.140705175560271
 31
0.0
  0
LINE
  5
15BC
  8
2
 10
112.7320412062827
 20
40.223205175560253
 30
0.0
 11
112.2320412062827
 21
39.934530040965463
 31
0.0
  0
LINE
  5
15BD
  8
2
 10
112.7320412062827
 20
54.058205175560289
 30
0.0
 11
112.2320412062827
 21
54.346880310155107
 31
0.0
  0
LINE
  5
15BE
  8
2
 10
112.7320412062827
 20
55.140705175560242
 30
0.0
 11
112.7320412062827
 21
39.140705175560242
 31
0.0
  0
LINE
  5
15BF
  8
2
 10
173.73204120628259
 20
41.140705175560271
 30
0.0
 11
171.73204120628259
 21
39.140705175560271
 31
0.0
  0
LINE
  5
15C0
  8
2
 10
171.73204120628279
 20
55.140705175560242
 30
0.0
 11
173.73204120628279
 21
53.140705175560242
 31
0.0
  0
LINE
  5
15C1
  8
2
 10
171.73204120628259
 20
39.140705175560271
 30
0.0
 11
171.73204120628279
 21
55.140705175560242
 31
0.0
  0
LINE
  5
15C2
  8
2
 10
173.73204120628279
 20
53.140705175560242
 30
0.0
 11
173.73204120628259
 21
41.140705175560271
 31
0.0
  0
LINE
  5
15C3
  8
2
 10
112.7320412062827
 20
40.223205175560189
 30
0.0
 11
142.7320412062827
 21
40.223205175560189
 31
0.0
  0
LINE
  5
15C4
  8
2
 10
108.7320412062827
 20
39.140705175560221
 30
0.0
 11
111.7320412062827
 21
39.140705175560221
 31
0.0
  0
LINE
  5
15C5
  8
2
 10
108.7320412062827
 20
55.140705175560207
 30
0.0
 11
111.7320412062827
 21
55.140705175560207
 31
0.0
  0
LINE
  5
15C6
  8
2
 10
112.7320412062827
 20
54.058205175560289
 30
0.0
 11
142.7320412062827
 21
54.058205175560317
 31
0.0
  0
LINE
  5
15C7
  8
0
 10
112.2320412062827
 20
56.640705175560242
 30
0.0
 11
112.2320412062827
 21
37.640705175560242
 31
0.0
  0
LINE
  5
15C8
  8
0
 10
129.7320412062827
 20
61.640705175560242
 30
0.0
 11
129.7320412062827
 21
32.640705175560242
 31
0.0
  0
LINE
  5
15C9
  8
0
 10
142.7320412062827
 20
61.640705175560242
 30
0.0
 11
142.7320412062827
 21
32.640705175560242
 31
0.0
  0
LINE
  5
15CA
  8
0
 10
112.7320412062827
 20
57.140705175560242
 30
0.0
 11
129.3320412062827
 21
57.140705175560242
 31
0.0
  0
LINE
  5
15CB
  8
0
 10
130.2320412062827
 20
62.140705175560242
 30
0.0
 11
142.2320412062827
 21
62.140705175560242
 31
0.0
  0
LINE
  5
15CC
  8
0
 10
112.7320412062827
 20
57.140705175560242
 30
0.0
 11
112.2320412062827
 21
56.640705175560242
 31
0.0
  0
LINE
  5
15CD
  8
0
 10
130.2320412062827
 20
62.140705175560242
 30
0.0
 11
129.7320412062827
 21
61.640705175560242
 31
0.0
  0
LINE
  5
15CE
  8
0
 10
142.2320412062827
 20
62.140705175560242
 30
0.0
 11
142.7320412062827
 21
61.640705175560242
 31
0.0
  0
ARC
  5
15CF
  8
0
 10
129.3320412062827
 20
57.540705175560269
 30
0.0
 40
0.4
 50
270.0
 51
0.0
  0
ARC
  5
15D0
  8
0
 10
129.3320412062827
 20
36.740705175560208
 30
0.0
 40
0.4
 50
0.0
 51
90.0
  0
LINE
  5
15D1
  8
0
 10
142.2320412062827
 20
32.140705175560242
 30
0.0
 11
142.7320412062827
 21
32.640705175560242
 31
0.0
  0
LINE
  5
15D2
  8
0
 10
130.2320412062827
 20
32.140705175560242
 30
0.0
 11
129.7320412062827
 21
32.640705175560242
 31
0.0
  0
LINE
  5
15D3
  8
0
 10
112.7320412062827
 20
37.140705175560242
 30
0.0
 11
112.2320412062827
 21
37.640705175560242
 31
0.0
  0
LINE
  5
15D4
  8
0
 10
130.2320412062827
 20
32.140705175560242
 30
0.0
 11
142.2320412062827
 21
32.140705175560242
 31
0.0
  0
LINE
  5
15D5
  8
0
 10
112.7320412062827
 20
37.140705175560242
 30
0.0
 11
129.3320412062827
 21
37.140705175560242
 31
0.0
  0
LINE
  5
15D6
  8
2
 10
142.7320412062827
 20
55.340705175560231
 30
0.0
 11
112.2320412062827
 21
55.340705175560231
 31
0.0
  0
LINE
  5
15D7
  8
2
 10
142.7320412062827
 20
38.940705175560261
 30
0.0
 11
112.2320412062827
 21
38.940705175560261
 31
0.0
  0
LINE
  5
15D8
  8
0
 10
111.7320412062827
 20
62.140705175560242
 30
0.0
 11
111.7320412062827
 21
32.140705175560242
 31
0.0
  0
LINE
  5
15D9
  8
0
 10
108.7320412062827
 20
62.140705175560242
 30
0.0
 11
108.7320412062827
 21
32.140705175560242
 31
0.0
  0
LINE
  5
15DA
  8
0
 10
108.7320412062827
 20
32.140705175560242
 30
0.0
 11
111.7320412062826
 21
32.140705175560242
 31
0.0
  0
LINE
  5
15DB
  8
0
 10
108.7320412062827
 20
62.140705175560242
 30
0.0
 11
111.7320412062827
 21
62.140705175560242
 31
0.0
  0
LINE
  5
15DC
  8
0
 10
111.7320412062827
 20
39.140705175560242
 30
0.0
 11
112.2320412062827
 21
39.140705175560242
 31
0.0
  0
LINE
  5
15DD
  8
3
 10
142.7320412062827
 20
40.223205175560189
 30
0.0
 11
157.73204120628259
 21
40.223205175560189
 31
0.0
  0
LINE
  5
15DE
  8
3
 10
142.7320412062827
 20
54.058205175560317
 30
0.0
 11
157.73204120628259
 21
54.058205175560317
 31
0.0
  0
LINE
  5
15DF
  8
0
 10
111.7320412062827
 20
55.140705175560207
 30
0.0
 11
112.2320412062827
 21
55.140705175560207
 31
0.0
  0
LINE
  5
15E0
  8
3
 10
112.2320412062827
 20
54.346880310155079
 30
0.0
 11
111.7320412062827
 21
54.635555444749912
 31
0.0
  0
LINE
  5
15E1
  8
3
 10
112.2320412062827
 20
39.934530040965427
 30
0.0
 11
111.7320412062827
 21
39.64585490637063
 31
0.0
  0
LINE
  5
15E2
  8
0
 10
107.2320412062831
 20
61.140705175560242
 30
0.0
 11
108.7320412062827
 21
61.140705175560242
 31
0.0
  0
LINE
  5
15E3
  8
0
 10
107.2320412062827
 20
33.140705175560242
 30
0.0
 11
107.2320412062827
 21
61.140705175560292
 31
0.0
  0
LINE
  5
15E4
  8
0
 10
100.2320412062827
 20
40.140705175560413
 30
0.0
 11
100.2320412062827
 21
54.140705175560782
 31
0.0
  0
ARC
  5
15E5
  8
0
 10
109.8761440700049
 20
51.496602311837989
 30
0.0
 40
10.0
 50
105.33191487119311
 51
164.66808512880539
  0
ARC
  5
15E6
  8
0
 10
109.8761440700049
 20
42.784808039282488
 30
0.0
 40
10.0
 50
195.33191487119461
 51
254.66808512880689
  0
LINE
  5
15E7
  8
0
 10
107.2320412062831
 20
33.140705175560242
 30
0.0
 11
108.7320412062827
 21
33.140705175560242
 31
0.0
  0
LINE
  5
15E8
  8
0
 10
157.73204120628259
 20
61.140705175561088
 30
0.0
 11
161.7320412062827
 21
61.140705175561088
 31
0.0
  0
LINE
  5
15E9
  8
0
 10
161.7320412062827
 20
61.140705175561088
 30
0.0
 11
161.7320412062827
 21
33.140705175561067
 31
0.0
  0
LINE
  5
15EA
  8
0
 10
161.7320412062827
 20
33.140705175561067
 30
0.0
 11
157.73204120628259
 21
33.140705175561067
 31
0.0
  0
LINE
  5
15EB
  8
0
 10
157.73204120628259
 20
33.140705175561067
 30
0.0
 11
157.73204120628259
 21
61.140705175561088
 31
0.0
  0
LINE
  5
15EC
  8
0
 10
157.73204120628259
 20
46.604806790698859
 30
0.0
 11
161.7320412062827
 21
47.676603560423359
 31
0.0
  0
ARC
  5
15ED
  8
0
 10
151.51516284357811
 20
47.14070517556106
 30
0.0
 40
22.928203228139491
 50
342.41204622431462
 51
17.587953775685371
  0
ARC
  5
15EE
  8
0
 10
168.3093914759969
 20
57.533010020974551
 30
0.0
 40
6.1339745957208214
 50
325.6157525287968
 51
25.615752530138479
  0
LINE
  5
15EF
  8
0
 10
173.3715693018884
 20
60.997111636134058
 30
0.0
 11
174.73204120628259
 21
58.640705175453292
 31
0.0
  0
LINE
  5
15F0
  8
0
 10
173.3715693018884
 20
60.997111636112237
 30
0.0
 11
161.7320412062827
 21
60.997111636112258
 31
0.0
  0
LINE
  5
15F1
  8
0
 10
173.3715693018884
 20
54.068908405836417
 30
0.0
 11
161.7320412062827
 21
54.068908405836417
 31
0.0
  0
LINE
  5
15F2
  8
0
 10
173.3715693018884
 20
40.212501945285709
 30
0.0
 11
161.7320412062827
 21
40.212501945285709
 31
0.0
  0
LINE
  5
15F3
  8
0
 10
173.3715693018884
 20
33.284298715009903
 30
0.0
 11
161.7320412062827
 21
33.284298715009903
 31
0.0
  0
LINE
  5
15F4
  8
0
 10
173.3715693018884
 20
33.284298714988068
 30
0.0
 11
174.73204120628259
 21
35.640705175668842
 31
0.0
  0
ARC
  5
15F5
  8
0
 10
168.3093914759969
 20
36.748400330147582
 30
0.0
 40
6.1339745957208214
 50
334.38424746986152
 51
34.384247471203182
  0
LINE
  5
15F6
  8
0
 10
174.73204120628259
 20
58.640705175561067
 30
0.0
 11
174.73204120628259
 21
35.640705175668842
 31
0.0
  0
LINE
  5
15F7
  8
1
 10
97.732041206282716
 20
47.140705175560242
 30
0.0
 11
177.2320412062827
 21
47.140705175560242
 31
0.0
  0
LINE
  5
1818
  8
1
 10
43.171310930686381
 20
28.973335235497611
 30
0.0
 11
43.171310930686381
 21
65.308075115622245
 31
0.0
  0
LINE
  5
1819
  8
1
 10
25.003940990624081
 20
47.14070517555993
 30
0.0
 11
61.338680870748703
 21
47.14070517555993
 31
0.0
  0
CIRCLE
  5
181A
  8
0
 10
43.171310930686381
 20
47.14070517555993
 30
0.0
 40
14.99999999999997
  0
CIRCLE
  5
181B
  8
0
 10
43.171310930686381
 20
47.14070517555993
 30
0.0
 40
13.99999999999997
  0
LINE
  5
181C
  8
0
 10
38.171310930686957
 20
44.253953829612243
 30
0.0
 11
43.17131093068695
 21
41.367202483663981
 31
0.0
  0
LINE
  5
181D
  8
0
 10
43.17131093068695
 20
41.367202483663981
 30
0.0
 11
48.171310930686381
 21
44.253953829612243
 31
0.0
  0
LINE
  5
181E
  8
0
 10
48.171310930686381
 20
44.253953829612243
 30
0.0
 11
48.171310930686381
 21
50.027456521509322
 31
0.0
  0
LINE
  5
181F
  8
0
 10
48.171310930686381
 20
50.027456521509322
 30
0.0
 11
43.171310930686381
 21
52.91420786745644
 31
0.0
  0
LINE
  5
1820
  8
0
 10
43.171310930686381
 20
52.91420786745644
 30
0.0
 11
38.17131093068582
 21
50.027456521507609
 31
0.0
  0
LINE
  5
1821
  8
0
 10
38.17131093068582
 20
50.027456521507609
 30
0.0
 11
38.171310930686957
 21
44.253953829612243
 31
0.0
  0
CIRCLE
  5
1822
  8
0
 10
43.171310930686381
 20
47.14070517555993
 30
0.0
 40
7.0000000000001839
  0
CIRCLE
  5
1823
  8
0
 10
231.79277148187899
 20
47.140705175505552
 30
0.0
 40
13.99999999999997
  0
CIRCLE
  5
1824
  8
0
 10
231.79277148187899
 20
47.140705175505552
 30
0.0
 40
14.99999999999997
  0
LINE
  5
1825
  8
1
 10
249.9601414219413
 20
47.140705175505552
 30
0.0
 11
213.6254015418167
 21
47.140705175505552
 31
0.0
  0
LINE
  5
1826
  8
1
 10
231.79277148187899
 20
28.973335235443241
 30
0.0
 11
231.79277148187899
 21
65.308075115567874
 31
0.0
  0
CIRCLE
  5
1827
  8
0
 10
231.79277148187899
 20
47.140705175505552
 30
0.0
 40
11.50000000000079
  0
LINE
  5
1828
  8
0
 10
231.79277148187899
 20
60.997111636056701
 30
0.0
 11
219.6272464212829
 21
54.068908405781713
 31
0.0
  0
LINE
  5
1829
  8
0
 10
231.79277148187899
 20
60.997111636056701
 30
0.0
 11
243.9582965424751
 21
54.068908405781713
 31
0.0
  0
LINE
  5
182A
  8
0
 10
243.9582965424751
 20
54.068908405781713
 30
0.0
 11
243.95829654186861
 21
40.212501942308791
 31
0.0
  0
LINE
  5
182B
  8
0
 10
231.79277148187899
 20
33.284298714954417
 30
0.0
 11
243.9582965424751
 21
40.212501945229413
 31
0.0
  0
LINE
  5
182C
  8
0
 10
231.79277148187899
 20
33.284298714954417
 30
0.0
 11
219.6272464212829
 21
40.212501945229413
 31
0.0
  0
LINE
  5
182D
  8
0
 10
219.6272464212829
 20
54.068908405781713
 30
0.0
 11
219.6272464245414
 21
40.212501943373752
 31
0.0
  0
CIRCLE
  5
182E
  8
0
 10
231.79277148187899
 20
47.140705175505552
 30
0.0
 40
6.9175000000000457
  0
CIRCLE
  5
182F
  8
3
 10
231.79277148187899
 20
47.140705175505552
 30
0.0
 40
7.9999999999999707
  0
LINE
  5
1830
  8
1
 10
97.732041206282716
 20
132.38588014055119
 30
0.0
 11
177.2320412062827
 21
132.38588014055119
 31
0.0
  0
LINE
  5
1840
  8
0
 10
107.2320412062831
 20
118.38588014055119
 30
0.0
 11
108.7320412062827
 21
118.38588014055119
 31
0.0
  0
ARC
  5
1841
  8
0
 10
109.8761440700049
 20
128.0299830042735
 30
0.0
 40
10.0
 50
195.33191487119461
 51
254.66808512880689
  0
ARC
  5
1842
  8
0
 10
109.8761440700049
 20
136.74177727682891
 30
0.0
 40
10.0
 50
105.33191487119311
 51
164.66808512880539
  0
LINE
  5
1843
  8
0
 10
100.2320412062827
 20
125.38588014055139
 30
0.0
 11
100.2320412062827
 21
139.38588014055171
 31
0.0
  0
LINE
  5
1844
  8
0
 10
107.2320412062827
 20
118.38588014055119
 30
0.0
 11
107.2320412062827
 21
146.38588014055119
 31
0.0
  0
LINE
  5
1845
  8
0
 10
107.2320412062831
 20
146.38588014055119
 30
0.0
 11
108.7320412062827
 21
146.38588014055119
 31
0.0
  0
LINE
  5
1846
  8
3
 10
112.2320412062827
 20
125.17970500595639
 30
0.0
 11
111.7320412062827
 21
124.8910298713616
 31
0.0
  0
LINE
  5
1847
  8
3
 10
112.2320412062827
 20
139.59205527514601
 30
0.0
 11
111.7320412062827
 21
139.88073040974089
 31
0.0
  0
LINE
  5
1848
  8
0
 10
111.7320412062827
 20
140.38588014055119
 30
0.0
 11
112.2320412062827
 21
140.38588014055119
 31
0.0
  0
LINE
  5
1849
  8
3
 10
142.7320412062827
 20
139.3033801405513
 30
0.0
 11
157.73204120628259
 21
139.3033801405513
 31
0.0
  0
LINE
  5
184A
  8
3
 10
142.7320412062827
 20
125.4683801405511
 30
0.0
 11
157.73204120628259
 21
125.4683801405511
 31
0.0
  0
LINE
  5
184B
  8
0
 10
111.7320412062827
 20
124.38588014055119
 30
0.0
 11
112.2320412062827
 21
124.38588014055119
 31
0.0
  0
LINE
  5
184C
  8
0
 10
108.7320412062827
 20
147.38588014055119
 30
0.0
 11
111.7320412062827
 21
147.38588014055119
 31
0.0
  0
LINE
  5
184D
  8
0
 10
108.7320412062827
 20
117.38588014055119
 30
0.0
 11
111.7320412062826
 21
117.38588014055119
 31
0.0
  0
LINE
  5
184E
  8
0
 10
108.7320412062827
 20
147.38588014055119
 30
0.0
 11
108.7320412062827
 21
117.38588014055119
 31
0.0
  0
LINE
  5
184F
  8
0
 10
111.7320412062827
 20
147.38588014055119
 30
0.0
 11
111.7320412062827
 21
117.38588014055119
 31
0.0
  0
LINE
  5
1850
  8
2
 10
142.7320412062827
 20
124.18588014055121
 30
0.0
 11
112.2320412062827
 21
124.18588014055121
 31
0.0
  0
LINE
  5
1851
  8
2
 10
142.7320412062827
 20
140.58588014055121
 30
0.0
 11
112.2320412062827
 21
140.58588014055121
 31
0.0
  0
LINE
  5
1852
  8
0
 10
112.7320412062827
 20
122.38588014055119
 30
0.0
 11
129.3320412062827
 21
122.38588014055119
 31
0.0
  0
LINE
  5
1853
  8
0
 10
130.2320412062827
 20
117.38588014055119
 30
0.0
 11
142.2320412062827
 21
117.38588014055119
 31
0.0
  0
LINE
  5
1854
  8
0
 10
112.7320412062827
 20
122.38588014055119
 30
0.0
 11
112.2320412062827
 21
122.88588014055119
 31
0.0
  0
LINE
  5
1855
  8
0
 10
130.2320412062827
 20
117.38588014055119
 30
0.0
 11
129.7320412062827
 21
117.88588014055119
 31
0.0
  0
LINE
  5
1856
  8
0
 10
142.2320412062827
 20
117.38588014055119
 30
0.0
 11
142.7320412062827
 21
117.88588014055119
 31
0.0
  0
ARC
  5
1857
  8
0
 10
129.3320412062827
 20
121.9858801405512
 30
0.0
 40
0.4
 50
0.0
 51
90.0
  0
ARC
  5
1858
  8
0
 10
129.3320412062827
 20
142.7858801405512
 30
0.0
 40
0.4
 50
270.0
 51
0.0
  0
LINE
  5
1859
  8
0
 10
142.2320412062827
 20
147.38588014055119
 30
0.0
 11
142.7320412062827
 21
146.88588014055119
 31
0.0
  0
LINE
  5
185A
  8
0
 10
130.2320412062827
 20
147.38588014055119
 30
0.0
 11
129.7320412062827
 21
146.88588014055119
 31
0.0
  0
LINE
  5
185B
  8
0
 10
112.7320412062827
 20
142.38588014055119
 30
0.0
 11
112.2320412062827
 21
141.88588014055119
 31
0.0
  0
LINE
  5
185C
  8
0
 10
130.2320412062827
 20
147.38588014055119
 30
0.0
 11
142.2320412062827
 21
147.38588014055119
 31
0.0
  0
LINE
  5
185D
  8
0
 10
112.7320412062827
 20
142.38588014055119
 30
0.0
 11
129.3320412062827
 21
142.38588014055119
 31
0.0
  0
LINE
  5
185E
  8
0
 10
142.7320412062827
 20
146.88588014055119
 30
0.0
 11
142.7320412062827
 21
117.88588014055119
 31
0.0
  0
LINE
  5
185F
  8
0
 10
129.7320412062827
 20
146.88588014055119
 30
0.0
 11
129.7320412062827
 21
117.88588014055119
 31
0.0
  0
LINE
  5
1860
  8
0
 10
112.2320412062827
 20
141.88588014055119
 30
0.0
 11
112.2320412062827
 21
122.88588014055119
 31
0.0
  0
LINE
  5
1861
  8
2
 10
112.7320412062827
 20
139.3033801405513
 30
0.0
 11
142.7320412062827
 21
139.3033801405513
 31
0.0
  0
LINE
  5
1862
  8
2
 10
108.7320412062827
 20
140.38588014055119
 30
0.0
 11
111.7320412062827
 21
140.38588014055119
 31
0.0
  0
LINE
  5
1863
  8
2
 10
108.7320412062827
 20
124.38588014055119
 30
0.0
 11
111.7320412062827
 21
124.38588014055119
 31
0.0
  0
LINE
  5
1864
  8
2
 10
112.7320412062827
 20
125.4683801405511
 30
0.0
 11
142.7320412062827
 21
125.4683801405511
 31
0.0
  0
LINE
  5
1869
  8
2
 10
112.7320412062827
 20
140.38588014055119
 30
0.0
 11
112.7320412062827
 21
124.38588014055119
 31
0.0
  0
LINE
  5
186A
  8
2
 10
112.7320412062827
 20
139.3033801405513
 30
0.0
 11
112.2320412062827
 21
139.59205527514609
 31
0.0
  0
LINE
  5
186B
  8
2
 10
112.7320412062827
 20
125.4683801405512
 30
0.0
 11
112.2320412062827
 21
125.17970500595639
 31
0.0
  0
LINE
  5
1870
  8
2
 10
112.2320412062827
 20
140.38588014055119
 30
0.0
 11
142.7320412062827
 21
140.38588014055119
 31
0.0
  0
LINE
  5
1871
  8
2
 10
111.7320412062827
 20
139.88073040974089
 30
0.0
 11
110.8570962070895
 21
140.38588014055119
 31
0.0
  0
LINE
  5
1872
  8
2
 10
111.7320412062827
 20
124.8910298713616
 30
0.0
 11
110.8570962070895
 21
124.38588014055119
 31
0.0
  0
LINE
  5
1873
  8
2
 10
112.2320412062827
 20
124.38588014055119
 30
0.0
 11
142.7320412062827
 21
124.38588014055119
 31
0.0
  0
LINE
  5
1874
  8
0
 10
142.7320412062827
 20
124.38588014055119
 30
0.0
 11
157.73204120628259
 21
124.38588014055119
 31
0.0
  0
LINE
  5
1875
  8
0
 10
142.7320412062827
 20
140.38588014055119
 30
0.0
 11
157.73204120628259
 21
140.38588014055119
 31
0.0
  0
LINE
  5
1877
  8
0
 10
174.73204120626349
 20
143.88588014061679
 30
0.0
 11
174.73204120630189
 21
120.8858801405504
 31
0.0
  0
ARC
  5
1878
  8
0
 10
157.11323905436521
 20
138.3858801405504
 30
0.0
 40
17.330127017333279
 50
339.74384199764432
 51
20.256158002355679
  0
LINE
  5
1879
  8
0
 10
174.44336607169851
 20
144.3858801405654
 30
0.0
 11
174.73204120630189
 21
143.8858801405504
 31
0.0
  0
LINE
  5
187A
  8
0
 10
174.44336607169851
 20
144.3858801405654
 30
0.0
 11
161.73204120626261
 21
144.3858801405452
 31
0.0
  0
LINE
  5
187B
  8
0
 10
161.7320412062827
 20
132.3858801405504
 30
0.0
 11
173.3715693018693
 21
132.3858801405504
 31
0.0
  0
LINE
  5
187C
  8
0
 10
174.44336607169851
 20
120.38588014053541
 30
0.0
 11
161.73204120630271
 21
120.3858801405557
 31
0.0
  0
LINE
  5
187D
  8
0
 10
174.44336607169851
 20
120.38588014053541
 30
0.0
 11
174.73204120630189
 21
120.8858801405504
 31
0.0
  0
ARC
  5
187E
  8
0
 10
157.11323905436521
 20
126.3858801405504
 30
0.0
 40
17.330127017333279
 50
339.74384199764432
 51
20.256158002355679
  0
LINE
  5
187F
  8
0
 10
157.73204120628259
 20
118.3858801405504
 30
0.0
 11
157.73204120628259
 21
146.3858801405504
 31
0.0
  0
LINE
  5
1880
  8
0
 10
161.7320412062827
 20
118.3858801405504
 30
0.0
 11
157.73204120628259
 21
118.3858801405504
 31
0.0
  0
LINE
  5
1881
  8
0
 10
161.7320412062827
 20
146.3858801405504
 30
0.0
 11
161.7320412062827
 21
118.3858801405504
 31
0.0
  0
LINE
  5
1882
  8
0
 10
157.73204120628259
 20
146.3858801405504
 30
0.0
 11
161.7320412062827
 21
146.3858801405504
 31
0.0
  0
LINE
  5
1883
  8
2
 10
173.73204120628279
 20
138.38588014054949
 30
0.0
 11
173.73204120628259
 21
126.3858801405495
 31
0.0
  0
LINE
  5
1884
  8
2
 10
171.73204120628259
 20
124.3858801405496
 30
0.0
 11
171.73204120628279
 21
140.3858801405496
 31
0.0
  0
LINE
  5
1885
  8
2
 10
171.73204120628279
 20
140.3858801405496
 30
0.0
 11
173.73204120628279
 21
138.38588014054949
 31
0.0
  0
LINE
  5
1886
  8
2
 10
173.73204120628259
 20
126.3858801405495
 30
0.0
 11
171.73204120628259
 21
124.3858801405496
 31
0.0
  0
LINE
  5
1887
  8
2
 10
157.73204120628259
 20
124.3858801405496
 30
0.0
 11
171.73204120628259
 21
124.3858801405496
 31
0.0
  0
LINE
  5
1888
  8
2
 10
157.73204120628259
 20
125.4683801405495
 30
0.0
 11
172.81454120628251
 21
125.4683801405495
 31
0.0
  0
LINE
  5
1889
  8
2
 10
157.73204120628259
 20
140.3858801405496
 30
0.0
 11
171.73204120628279
 21
140.3858801405496
 31
0.0
  0
LINE
  5
188A
  8
2
 10
157.73204120628259
 20
139.30338014054959
 30
0.0
 11
172.81454120628271
 21
139.30338014054959
 31
0.0
  0
TEXT
  5
1956
  8
0
 62
     3
 10
0.0
 20
0.0
 30
0.0
 40
10.0
  1
RLP2018
  7
STANDARD1
  0
ENDSEC
  0
EOF
