  0
SECTION
  2
HEADER
  9
$ACADVER
  1
AC1009
  9
$INSBASE
 10
0.0
 20
0.0
 30
0.0
  9
$EXTMIN
 10
0.0
 20
-2.960436562073669
 30
0.0
  9
$EXTMAX
 10
113.5693893135935
 20
67.958849704347415
 30
0.0
  9
$LIMMIN
 10
0.0
 20
0.0
  9
$LIMMAX
 10
137.5
 20
87.5
  9
$ORTHOMODE
 70
     1
  9
$REGENMODE
 70
     1
  9
$FILLMODE
 70
     1
  9
$QTEXTMODE
 70
     0
  9
$MIRRTEXT
 70
     0
  9
$DRAGMODE
 70
     2
  9
$LTSCALE
 40
2.5
  9
$OSMODE
 70
    37
  9
$ATTMODE
 70
     1
  9
$TEXTSIZE
 40
3.0
  9
$TRACEWID
 40
0.05
  9
$TEXTSTYLE
  7
15000
  9
$CLAYER
  8
0
  9
$CELTYPE
  6
BYLAYER
  9
$CECOLOR
 62
   256
  9
$DIMSCALE
 40
0.5
  9
$DIMASZ
 40
3.0
  9
$DIMEXO
 40
2.0
  9
$DIMDLI
 40
10.0
  9
$DIMRND
 40
0.0
  9
$DIMDLE
 40
0.0
  9
$DIMEXE
 40
2.0
  9
$DIMTP
 40
0.0
  9
$DIMTM
 40
0.0
  9
$DIMTXT
 40
3.0
  9
$DIMCEN
 40
0.0
  9
$DIMTSZ
 40
0.0
  9
$DIMTOL
 70
     0
  9
$DIMLIM
 70
     0
  9
$DIMTIH
 70
     0
  9
$DIMTOH
 70
     0
  9
$DIMSE1
 70
     0
  9
$DIMSE2
 70
     0
  9
$DIMTAD
 70
     1
  9
$DIMZIN
 70
     8
  9
$DIMBLK
  1

  9
$DIMASO
 70
     0
  9
$DIMSHO
 70
     0
  9
$DIMPOST
  1

  9
$DIMAPOST
  1

  9
$DIMALT
 70
     0
  9
$DIMALTD
 70
     2
  9
$DIMALTF
 40
25.399999999999999
  9
$DIMLFAC
 40
1.0
  9
$DIMTOFL
 70
     1
  9
$DIMTVP
 40
1.6000000000000001
  9
$DIMTIX
 70
     1
  9
$DIMSOXD
 70
     0
  9
$DIMSAH
 70
     0
  9
$DIMBLK1
  1
ARROW1
  9
$DIMBLK2
  1
ARROW1
  9
$DIMSTYLE
  2
STANDARD
  9
$DIMCLRD
 70
     0
  9
$DIMCLRE
 70
     0
  9
$DIMCLRT
 70
     0
  9
$DIMTFAC
 40
1.0
  9
$DIMGAP
 40
0.09
  9
$LUNITS
 70
     2
  9
$LUPREC
 70
     2
  9
$SKETCHINC
 40
0.1
  9
$FILLETRAD
 40
0.3
  9
$AUNITS
 70
     0
  9
$AUPREC
 70
     2
  9
$MENU
  1
C:\r13\win\SUPPORT\acad-i
  9
$ELEVATION
 40
0.0
  9
$PELEVATION
 40
0.0
  9
$THICKNESS
 40
0.0
  9
$LIMCHECK
 70
     0
  9
$BLIPMODE
 70
     0
  9
$CHAMFERA
 40
0.5
  9
$CHAMFERB
 40
0.5
  9
$SKPOLY
 70
     0
  9
$TDCREATE
 40
2451288.7166848378
  9
$TDUPDATE
 40
2456598.727375695
  9
$TDINDWG
 40
0.7877252431
  9
$TDUSRTIMER
 40
2456598.250511887
  9
$USRTIMER
 70
     1
  9
$ANGBASE
 50
0.0
  9
$ANGDIR
 70
     0
  9
$PDMODE
 70
     0
  9
$PDSIZE
 40
0.0
  9
$PLINEWID
 40
0.0
  9
$COORDS
 70
     1
  9
$SPLFRAME
 70
     0
  9
$SPLINETYPE
 70
     6
  9
$SPLINESEGS
 70
     8
  9
$ATTDIA
 70
     0
  9
$ATTREQ
 70
     1
  9
$HANDLING
 70
     1
  9
$HANDSEED
  5
46D1
  9
$SURFTAB1
 70
     6
  9
$SURFTAB2
 70
     6
  9
$SURFTYPE
 70
     6
  9
$SURFU
 70
     6
  9
$SURFV
 70
     6
  9
$UCSNAME
  2

  9
$UCSORG
 10
0.0
 20
0.0
 30
0.0
  9
$UCSXDIR
 10
1.0
 20
0.0
 30
0.0
  9
$UCSYDIR
 10
0.0
 20
1.0
 30
0.0
  9
$PUCSNAME
  2

  9
$PUCSORG
 10
0.0
 20
0.0
 30
0.0
  9
$PUCSXDIR
 10
1.0
 20
0.0
 30
0.0
  9
$PUCSYDIR
 10
0.0
 20
1.0
 30
0.0
  9
$USERI1
 70
     4
  9
$USERI2
 70
     2
  9
$USERI3
 70
     1
  9
$USERI4
 70
     1
  9
$USERI5
 70
     0
  9
$USERR1
 40
0.5
  9
$USERR2
 40
3.0
  9
$USERR3
 40
3.0
  9
$USERR4
 40
3.0
  9
$USERR5
 40
10.0
  9
$WORLDVIEW
 70
     1
  9
$SHADEDGE
 70
     3
  9
$SHADEDIF
 70
    70
  9
$TILEMODE
 70
     1
  9
$MAXACTVP
 70
    16
  9
$PLIMCHECK
 70
     0
  9
$PEXTMIN
 10
1.0000000000000000E+020
 20
1.0000000000000000E+020
 30
1.0000000000000000E+020
  9
$PEXTMAX
 10
-1.0000000000000000E+020
 20
-1.0000000000000000E+020
 30
-1.0000000000000000E+020
  9
$PLIMMIN
 10
0.0
 20
0.0
  9
$PLIMMAX
 10
12.0
 20
9.0
  9
$UNITMODE
 70
     0
  9
$VISRETAIN
 70
     0
  9
$PLINEGEN
 70
     0
  9
$PSLTSCALE
 70
     0
  0
ENDSEC
  0
SECTION
  2
TABLES
  0
TABLE
  2
VPORT
 70
     1
  0
VPORT
  2
*ACTIVE
 70
     0
 10
0.0
 20
0.0
 11
1.0
 21
1.0
 12
68.747902076572544
 22
63.533693894543511
 13
0.0
 23
0.0
 14
2.5
 24
2.5
 15
10.0
 25
10.0
 16
0.0
 26
0.0
 36
1.0
 17
0.0
 27
0.0
 37
0.0
 40
134.2689921397444
 41
1.755244755244755
 42
50.0
 43
0.0
 44
0.0
 50
0.0
 51
0.0
 71
     0
 72
  1000
 73
     1
 74
     0
 75
     0
 76
     0
 77
     0
 78
     1
  0
ENDTAB
  0
TABLE
  2
LTYPE
 70
     4
  0
LTYPE
  2
CONTINUOUS
 70
     0
  3
実線
 72
    65
 73
     0
 40
0.0
  0
LTYPE
  2
CENTER
 70
     0
  3
____ _ ____ _ ____ _ ____ _ ____ _ ____ _ ____
 72
    65
 73
     4
 40
2.0
 49
1.25
 49
-0.25
 49
0.25
 49
-0.25
  0
LTYPE
  2
HIDDEN
 70
     0
  3
_ _ _ _ _ _ _ _ _ _ _ _ _ _ _ _ _ _ _ _ _ _ _
 72
    65
 73
     2
 40
0.375
 49
0.25
 49
-0.125
  0
LTYPE
  2
PHANTOM2
 70
     0
  3
___ _ _ ___ _ _ ___ _ _ ___ _ _
 72
    65
 73
     6
 40
1.25
 49
0.625
 49
-0.125
 49
0.125
 49
-0.125
 49
0.125
 49
-0.125
  0
ENDTAB
  0
TABLE
  2
LAYER
 70
     7
  0
LAYER
  2
0
 70
     0
 62
     7
  6
CONTINUOUS
  0
LAYER
  2
1
 70
     0
 62
     1
  6
CENTER
  0
LAYER
  2
WAKU
 70
     0
 62
     7
  6
CONTINUOUS
  0
LAYER
  2
ASM-FROZEN
 70
     5
 62
     2
  6
CONTINUOUS
  0
LAYER
  2
3
 70
     0
 62
     3
  6
CONTINUOUS
  0
LAYER
  2
2
 70
     0
 62
     2
  6
HIDDEN
  0
LAYER
  2
DEFPOINTS
 70
     0
 62
     7
  6
CONTINUOUS
  0
ENDTAB
  0
TABLE
  2
STYLE
 70
     3
  0
STYLE
  2
STANDARD
 70
     0
 40
0.0
 41
1.0
 50
0.0
 71
     0
 42
3.0
  3
simplex.shx
  4
bigfont.shx
  0
STYLE
  2
15000
 70
     0
 40
0.0
 41
1.5
 50
0.0
 71
     0
 42
3.0
  3
simplex.shx
  4
bigfont.shx
  0
STYLE
  2
STANDARD1
 70
     0
 40
0.0
 41
1.0
 50
0.0
 71
     0
 42
3.0
  3
txt
  4

  0
ENDTAB
  0
TABLE
  2
VIEW
 70
     0
  0
ENDTAB
  0
TABLE
  2
UCS
 70
     0
  0
ENDTAB
  0
TABLE
  2
APPID
 70
    38
  0
APPID
  2
ACAD
 70
     0
  0
APPID
  2
GENIUS_GENODEF_13
 70
     0
  0
APPID
  2
GENIUS_GENOBJ-N-FIL_13
 70
     0
  0
APPID
  2
ASM_BASE
 70
     0
  0
APPID
  2
ASM_EXPLO_VER_2_00
 70
     0
  0
APPID
  2
ASM_CADM_VER_12_00
 70
     0
  0
APPID
  2
ASM_BASEFORO
 70
     0
  0
APPID
  2
ASM_BASETRAVI
 70
     0
  0
APPID
  2
ASM_BASETRAVI1
 70
     0
  0
APPID
  2
ASM_GRUPPI
 70
     0
  0
APPID
  2
ASM_CADM_ALBERO
 70
     0
  0
APPID
  2
ASM_GOLE
 70
     0
  0
APPID
  2
_CALL_MAC$
 70
     0
  0
APPID
  2
DCO15
 70
     0
  0
APPID
  2
GENIUS_GENOREF_13
 70
     0
  0
APPID
  2
GENIUS_GENOENT_13
 70
     0
  0
APPID
  2
GENIUS_GENBH_13
 70
     0
  0
APPID
  2
GENIUS_GENOBJ_13
 70
     0
  0
APPID
  2
GENIUS_GENOLIS_13
 70
     0
  0
APPID
  2
GENIUS_GENOBJ-NBEHI-BHF_13
 70
     0
  0
APPID
  2
GENIUS_GENOBJ-NBEHI-BHB_13
 70
     0
  0
APPID
  2
GENIUS_GENOBJ-F-PART_13
 70
     0
  0
APPID
  2
GENIUS_GEFSTDP_13
 70
     0
  0
APPID
  2
GENIUS_GENOBJ-N-RSSYM_13
 70
     0
  0
APPID
  2
GENIUS_GENSYMENT_13
 70
     0
  0
APPID
  2
GENIUS_GENOBJ-N-TIT_13
 70
     0
  0
APPID
  2
GENIUS_GENTITLE_13
 70
     0
  0
APPID
  2
GENIUS_GENZVEED_13
 70
     0
  0
APPID
  2
GENIUS_GENOBJ-N-LEADER_13
 70
     0
  0
APPID
  2
GENIUS_GENOBJ-N-SEC_13
 70
     0
  0
APPID
  2
GENIUS_GENOBJ-N-CRS_13
 70
     0
  0
APPID
  2
GENIUS_GENOBJ-N-ZOO_13
 70
     0
  0
APPID
  2
GENIUS_GENZOO_13
 70
     0
  0
APPID
  2
GENIUS_GENOBJ-F-TOL_13
 70
     0
  0
APPID
  2
GENIUS_GENFIL_13
 70
     0
  0
APPID
  2
GENIUS_GENOBJ-N-CHA_13
 70
     0
  0
APPID
  2
ACAD_MLEADERVER
 70
     0
  0
APPID
  2
ACAD_NAV_VCDISPLAY
 70
     0
  0
ENDTAB
  0
TABLE
  2
DIMSTYLE
 70
     1
  0
DIMSTYLE
  2
STANDARD
 70
     0
  3

  4

  5

  6

  7

 40
1.0
 41
0.18
 42
0.0625
 43
0.38
 44
0.18
 45
0.0
 46
0.0
 47
0.0
 48
0.0
140
0.18
141
0.09
142
0.0
143
25.399999999999999
144
1.0
145
0.0
146
1.0
147
0.09
 71
     0
 72
     0
 73
     1
 74
     1
 75
     0
 76
     0
 77
     0
 78
     0
170
     0
171
     2
172
     0
173
     0
174
     0
175
     0
176
     0
177
     0
178
     0
  0
ENDTAB
  0
ENDSEC
  0
SECTION
  2
BLOCKS
  0
BLOCK
  8
0
  2
$MODEL_SPACE
 70
     0
 10
0.0
 20
0.0
 30
0.0
  3
$MODEL_SPACE
  1

  0
ENDBLK
  5
33
  8
0
  0
BLOCK
 67
     1
  8
0
  2
$PAPER_SPACE
 70
     0
 10
0.0
 20
0.0
 30
0.0
  3
$PAPER_SPACE
  1

  0
ENDBLK
  5
31
 67
     1
  8
0
  0
BLOCK
  8
0
  2
ARROW1
 70
     0
 10
0.0
 20
0.0
 30
0.0
  3
ARROW1
  1

  0
SOLID
  5
D5
  8
WAKU
  6
CONTINUOUS
 62
     4
 10
-1.0
 20
0.1666666666666714
 30
0.0
 11
-1.0
 21
-0.1666666666666714
 31
0.0
 12
0.0
 22
0.0
 32
0.0
 13
0.0
 23
0.0
 33
0.0
  0
ENDBLK
  5
D7
  8
0
  0
BLOCK
  8
0
  2
ASM_CONF
 70
     2
 10
0.0
 20
0.0
 30
0.0
  3
ASM_CONF
  1

  0
TEXT
  5
58E
  8
ASM-FROZEN
 62
     2
 10
0.2691493051770522
 20
3.823340699625839
 30
0.0
 40
0.9599999999999999
  1
Configurazione
 41
0.8
  0
TEXT
  5
58F
  8
ASM-FROZEN
 62
     2
 10
3.1079403731114592
 20
0.9470077007992722
 30
0.0
 40
1.1999999999999991
  1
CadMEC 
 41
0.8
  0
LINE
  5
590
  8
ASM-FROZEN
 62
     2
 10
0.0
 20
0.0
 30
0.0
 11
10.0
 21
0.0
 31
0.0
  0
LINE
  5
591
  8
ASM-FROZEN
 62
     2
 10
0.0
 20
5.0
 30
0.0
 11
10.0
 21
5.0
 31
0.0
  0
LINE
  5
592
  8
ASM-FROZEN
 62
     2
 10
2.0
 20
7.0
 30
0.0
 11
12.0
 21
7.0
 31
0.0
  0
LINE
  5
593
  8
ASM-FROZEN
 62
     2
 10
1.0
 20
6.0
 30
0.0
 11
11.0
 21
6.0
 31
0.0
  0
LINE
  5
594
  8
ASM-FROZEN
 62
     2
 10
0.0
 20
0.0
 30
0.0
 11
0.0
 21
5.0
 31
0.0
  0
LINE
  5
595
  8
ASM-FROZEN
 62
     2
 10
0.9999999999999996
 20
5.0
 30
0.0
 11
1.0
 21
6.0
 31
0.0
  0
LINE
  5
596
  8
ASM-FROZEN
 62
     2
 10
2.0
 20
6.0
 30
0.0
 11
2.0
 21
7.0
 31
0.0
  0
LINE
  5
597
  8
ASM-FROZEN
 62
     2
 10
10.0
 20
0.0
 30
0.0
 11
10.0
 21
5.0
 31
0.0
  0
LINE
  5
598
  8
ASM-FROZEN
 62
     2
 10
11.0
 20
1.0
 30
0.0
 11
11.0
 21
6.0
 31
0.0
  0
LINE
  5
599
  8
ASM-FROZEN
 62
     2
 10
10.0
 20
1.0
 30
0.0
 11
11.0
 21
1.0
 31
0.0
  0
LINE
  5
59A
  8
ASM-FROZEN
 62
     2
 10
11.0
 20
2.0
 30
0.0
 11
12.0
 21
2.0
 31
0.0
  0
LINE
  5
59B
  8
ASM-FROZEN
 62
     2
 10
12.0
 20
2.0
 30
0.0
 11
12.0
 21
7.0
 31
0.0
  0
ATTDEF
  5
59C
  8
ASM-FROZEN
 62
     2
 10
12.0
 20
7.0
 30
0.0
 40
0.2
  1
ASSE1|1|ASSI1
  3

  2
ASSE1
 70
     1
  0
ATTDEF
  5
59D
  8
ASM-FROZEN
 62
     2
 10
12.0
 20
6.6666666666666661
 30
0.0
 40
0.2
  1
ASSE2|1|ASSI2
  3

  2
ASSE2
 70
     1
  0
ATTDEF
  5
59E
  8
ASM-FROZEN
 62
     2
 10
12.0
 20
6.3333333333333321
 30
0.0
 40
0.2
  1
ASSE3|1|ASSI3
  3

  2
ASSE3
 70
     1
  0
ATTDEF
  5
59F
  8
ASM-FROZEN
 62
     2
 10
12.0
 20
6.0
 30
0.0
 40
0.2
  1
CONFINE|5|CONFINE
  3

  2
CONFINE
 70
     1
  0
ATTDEF
  5
5A0
  8
ASM-FROZEN
 62
     2
 10
12.0
 20
5.6666666666666661
 30
0.0
 40
0.2
  1
CONTORNO|7|CONTINUOUS
  3

  2
CONTORNO
 70
     1
  0
ATTDEF
  5
5A1
  8
ASM-FROZEN
 62
     2
 10
12.0
 20
5.333333333333333
 30
0.0
 40
0.2
  1
DISTINTA|6|CONTINUOUS
  3

  2
DISTINTA
 70
     1
  0
ATTDEF
  5
5A2
  8
ASM-FROZEN
 62
     2
 10
12.0
 20
5.0
 30
0.0
 40
0.2
  1
GRUPPO1|7|CONTINUOUS
  3

  2
GRUPPO1
 70
     1
  0
ATTDEF
  5
5A3
  8
ASM-FROZEN
 62
     2
 10
12.0
 20
4.6666666666666661
 30
0.0
 40
0.2
  1
GRUPPO2|7|CONTINUOUS
  3

  2
GRUPPO2
 70
     1
  0
ATTDEF
  5
5A4
  8
ASM-FROZEN
 62
     2
 10
12.0
 20
4.333333333333333
 30
0.0
 40
0.2
  1
GRUPPO3|7|CONTINUOUS
  3

  2
GRUPPO3
 70
     1
  0
ATTDEF
  5
5A5
  8
ASM-FROZEN
 62
     2
 10
12.0
 20
3.9999999999999978
 30
0.0
 40
0.2
  1
GRUPPO4|7|CONTINUOUS
  3

  2
GRUPPO4
 70
     1
  0
ATTDEF
  5
5A6
  8
ASM-FROZEN
 62
     2
 10
12.0
 20
3.6666666666666661
 30
0.0
 40
0.2
  1
IMPOST|7|CONTINUOUS
  3

  2
IMPOST
 70
     1
  0
ATTDEF
  5
5A7
  8
ASM-FROZEN
 62
     2
 10
12.0
 20
3.333333333333333
 30
0.0
 40
0.2
  1
LINEAFIN|4|CONTINUOUS
  3

  2
LINEAFINE
 70
     1
  0
ATTDEF
  5
5A8
  8
ASM-FROZEN
 62
     2
 10
12.0
 20
3.0
 30
0.0
 40
0.2
  1
QUOTA|3|CONTINUOUS
  3

  2
QUOTA
 70
     1
  0
ATTDEF
  5
5A9
  8
ASM-FROZEN
 62
     2
 10
12.0
 20
2.666666666666667
 30
0.0
 40
0.2
  1
SALDATUR|3|CONTINUOUS
  3

  2
SALDATURA
 70
     1
  0
ATTDEF
  5
5AA
  8
ASM-FROZEN
  6
BYBLOCK
 62
     2
 10
12.0
 20
2.333333333333333
 30
0.0
 40
0.2
  1
SIMBPNEU|7|CONTINUOUS
  3

  2
SIMBPNEU
 70
     1
  0
ATTDEF
  5
5AB
  8
ASM-FROZEN
 62
     2
 10
12.0
 20
2.0
 30
0.0
 40
0.2
  1
TABELLA|4|CONTINUOUS
  3

  2
TABELLA
 70
     1
  0
ATTDEF
  5
5AC
  8
ASM-FROZEN
 62
     2
 10
12.0
 20
1.6666666666666681
 30
0.0
 40
0.2
  1
TESTO|7|CONTINUOUS
  3

  2
TESTO
 70
     1
  0
ATTDEF
  5
5AD
  8
ASM-FROZEN
 62
     2
 10
12.0
 20
1.3333333333333339
 30
0.0
 40
0.2
  1
TRATTI1|2|TRATTI1
  3

  2
TRATTI1
 70
     1
  0
ATTDEF
  5
5AE
  8
ASM-FROZEN
 62
     2
 10
12.0
 20
1.0
 30
0.0
 40
0.2
  1
TRATTI2|2|TRATTI2
  3

  2
TRATTI2
 70
     1
  0
ATTDEF
  5
5AF
  8
ASM-FROZEN
 62
     2
 10
12.0
 20
0.6666666666666679
 30
0.0
 40
0.2
  1
TRATTI3|2|TRATTI3
  3

  2
TRATTI3
 70
     1
  0
ATTDEF
  5
5B0
  8
ASM-FROZEN
 62
     2
 10
12.0
 20
0.3333333333333357
 30
0.0
 40
0.2
  1
TRATTI1F|4|TRATTI1
  3

  2
TRATTI1F
 70
     1
  0
ATTDEF
  5
5B1
  8
ASM-FROZEN
  6
BYBLOCK
 62
     2
 10
12.0
 20
0.0000000000000027
 30
0.0
 40
0.2
  1
TRATTI2F|4|TRATTI2
  3

  2
TRATTI2F
 70
     1
  0
ATTDEF
  5
5B2
  8
ASM-FROZEN
 62
     2
 10
12.0
 20
-0.3333333333333313
 30
0.0
 40
0.2
  1
TRATTI3F|4|TRATTI3
  3

  2
TRATTI3F
 70
     1
  0
ATTDEF
  5
5B3
  8
ASM-FROZEN
  6
BYBLOCK
 62
     2
 10
12.0
 20
-0.6666666666666652
 30
0.0
 40
0.2
  1
TRATTEGG|4|CONTINUOUS
  3

  2
TRATTEGGIO
 70
     1
  0
ENDBLK
  5
5B5
  8
0
  0
ENDSEC
  0
SECTION
  2
ENTITIES
  0
INSERT
  5
1002
  8
ASM-FROZEN
 66
     1
  2
ASM_CONF
 10
190.04927620519561
 20
89.920542749928359
 30
0.0
1001
ASM_BASE
1002
{
1040
12.0
1070
     1
1010
0.0
1020
0.0
1030
0.0
1000
A
1000
ASM_CADM
1000
Fe37a
1000
null
1070
     0
1040
6.0
1040
6.0
1040
6.0
1070
    13
1040
1.7599999999999989
1000
0
1000
CADMEC_1-1
1002
}
1001
ASM_EXPLO_VER_2_00
1002
{
1040
2.0
1010
-0.57735026919
1020
-0.57735026919
1030
0.57735026919
1010
0.0
1020
0.0
1030
0.0
1002
}
  0
ATTRIB
  5
1003
  8
ASM-FROZEN
 62
     2
 10
202.04927620519561
 20
96.920542749928359
 30
0.0
 40
0.2
  1
ASSE1|1|ASSI1
  2
ASSE1
 70
     1
  0
ATTRIB
  5
1004
  8
ASM-FROZEN
 62
     2
 10
202.04927620519561
 20
96.58720941659503
 30
0.0
 40
0.2
  1
ASSE2|1|ASSI2
  2
ASSE2
 70
     1
  0
ATTRIB
  5
1005
  8
ASM-FROZEN
 62
     2
 10
202.04927620519561
 20
96.253876083261687
 30
0.0
 40
0.2
  1
ASSE3|1|ASSI3
  2
ASSE3
 70
     1
  0
ATTRIB
  5
1006
  8
ASM-FROZEN
 62
     2
 10
202.04927620519561
 20
95.920542749928359
 30
0.0
 40
0.2
  1
CONFINE|5|CONFINE
  2
CONFINE
 70
     1
  0
ATTRIB
  5
1007
  8
ASM-FROZEN
 62
     2
 10
202.04927620519561
 20
95.587209416595016
 30
0.0
 40
0.2
  1
CONTORNO|7|CONTINUOUS
  2
CONTORNO
 70
     1
  0
ATTRIB
  5
1008
  8
ASM-FROZEN
 62
     2
 10
202.04927620519561
 20
95.253876083261702
 30
0.0
 40
0.2
  1
DISTINTA|6|CONTINUOUS
  2
DISTINTA
 70
     1
  0
ATTRIB
  5
1009
  8
ASM-FROZEN
 62
     2
 10
202.04927620519561
 20
94.920542749928359
 30
0.0
 40
0.2
  1
GRUPPO1|7|CONTINUOUS
  2
GRUPPO1
 70
     1
  0
ATTRIB
  5
100A
  8
ASM-FROZEN
 62
     2
 10
202.04927620519561
 20
94.587209416595016
 30
0.0
 40
0.2
  1
GRUPPO2|7|CONTINUOUS
  2
GRUPPO2
 70
     1
  0
ATTRIB
  5
100B
  8
ASM-FROZEN
 62
     2
 10
202.04927620519561
 20
94.253876083261702
 30
0.0
 40
0.2
  1
GRUPPO3|7|CONTINUOUS
  2
GRUPPO3
 70
     1
  0
ATTRIB
  5
100C
  8
ASM-FROZEN
 62
     2
 10
202.04927620519561
 20
93.920542749928345
 30
0.0
 40
0.2
  1
GRUPPO4|7|CONTINUOUS
  2
GRUPPO4
 70
     1
  0
ATTRIB
  5
100D
  8
ASM-FROZEN
 62
     2
 10
202.04927620519561
 20
93.587209416595016
 30
0.0
 40
0.2
  1
IMPOST|7|CONTINUOUS
  2
IMPOST
 70
     1
  0
ATTRIB
  5
100E
  8
ASM-FROZEN
 62
     2
 10
202.04927620519561
 20
93.253876083261702
 30
0.0
 40
0.2
  1
LINEAFIN|4|CONTINUOUS
  2
LINEAFINE
 70
     1
  0
ATTRIB
  5
100F
  8
ASM-FROZEN
 62
     2
 10
202.04927620519561
 20
92.920542749928345
 30
0.0
 40
0.2
  1
QUOTA|3|CONTINUOUS
  2
QUOTA
 70
     1
  0
ATTRIB
  5
1010
  8
ASM-FROZEN
 62
     2
 10
202.04927620519561
 20
92.587209416595016
 30
0.0
 40
0.2
  1
SALDATUR|3|CONTINUOUS
  2
SALDATURA
 70
     1
  0
ATTRIB
  5
1011
  8
ASM-FROZEN
  6
BYBLOCK
 62
     2
 10
202.04927620519561
 20
92.253876083261716
 30
0.0
 40
0.2
  1
SIMBPNEU|7|CONTINUOUS
  2
SIMBPNEU
 70
     1
  0
ATTRIB
  5
1012
  8
ASM-FROZEN
 62
     2
 10
202.04927620519561
 20
91.920542749928359
 30
0.0
 40
0.2
  1
TABELLA|4|CONTINUOUS
  2
TABELLA
 70
     1
  0
ATTRIB
  5
1013
  8
ASM-FROZEN
 62
     2
 10
202.04927620519561
 20
91.58720941659503
 30
0.0
 40
0.2
  1
TESTO|7|CONTINUOUS
  2
TESTO
 70
     1
  0
ATTRIB
  5
1014
  8
ASM-FROZEN
 62
     2
 10
202.04927620519561
 20
91.253876083261687
 30
0.0
 40
0.2
  1
TRATTI1|2|TRATTI1
  2
TRATTI1
 70
     1
  0
ATTRIB
  5
1015
  8
ASM-FROZEN
 62
     2
 10
202.04927620519561
 20
90.920542749928359
 30
0.0
 40
0.2
  1
TRATTI2|2|TRATTI2
  2
TRATTI2
 70
     1
  0
ATTRIB
  5
1016
  8
ASM-FROZEN
 62
     2
 10
202.04927620519561
 20
90.58720941659503
 30
0.0
 40
0.2
  1
TRATTI3|2|TRATTI3
  2
TRATTI3
 70
     1
  0
ATTRIB
  5
1017
  8
ASM-FROZEN
 62
     2
 10
202.04927620519561
 20
90.253876083261702
 30
0.0
 40
0.2
  1
TRATTI1F|4|TRATTI1
  2
TRATTI1F
 70
     1
  0
ATTRIB
  5
1018
  8
ASM-FROZEN
  6
BYBLOCK
 62
     2
 10
202.04927620519561
 20
89.920542749928359
 30
0.0
 40
0.2
  1
TRATTI2F|4|TRATTI2
  2
TRATTI2F
 70
     1
  0
ATTRIB
  5
1019
  8
ASM-FROZEN
 62
     2
 10
202.04927620519561
 20
89.58720941659503
 30
0.0
 40
0.2
  1
TRATTI3F|4|TRATTI3
  2
TRATTI3F
 70
     1
  0
ATTRIB
  5
101A
  8
ASM-FROZEN
  6
BYBLOCK
 62
     2
 10
202.04927620519561
 20
89.253876083261702
 30
0.0
 40
0.2
  1
TRATTEGG|4|CONTINUOUS
  2
TRATTEGGIO
 70
     1
  0
SEQEND
  5
101B
  8
ASM-FROZEN
  0
INSERT
  5
101C
  8
ASM-FROZEN
 66
     1
  2
ASM_CONF
 10
194.6373967033847
 20
98.095457321856543
 30
0.0
1001
ASM_BASE
1002
{
1040
12.0
1070
     1
1010
0.0
1020
0.0
1030
0.0
1000
A
1000
ASM_CADM
1000
Fe37a
1000
null
1070
     0
1040
6.0
1040
6.0
1040
6.0
1070
    13
1040
1.7599999999999989
1000
0
1000
CADMEC_1-1
1002
}
1001
ASM_EXPLO_VER_2_00
1002
{
1040
2.0
1010
-0.57735026919
1020
-0.57735026919
1030
0.57735026919
1010
0.0
1020
0.0
1030
0.0
1002
}
  0
ATTRIB
  5
101D
  8
ASM-FROZEN
 62
     2
 10
206.63739670338481
 20
105.0954573218565
 30
0.0
 40
0.2
  1
ASSE1|1|ASSI1
  2
ASSE1
 70
     1
  0
ATTRIB
  5
101E
  8
ASM-FROZEN
 62
     2
 10
206.63739670338481
 20
104.7621239885232
 30
0.0
 40
0.2
  1
ASSE2|1|ASSI2
  2
ASSE2
 70
     1
  0
ATTRIB
  5
101F
  8
ASM-FROZEN
 62
     2
 10
206.63739670338481
 20
104.4287906551898
 30
0.0
 40
0.2
  1
ASSE3|1|ASSI3
  2
ASSE3
 70
     1
  0
ATTRIB
  5
1020
  8
ASM-FROZEN
 62
     2
 10
206.63739670338481
 20
104.0954573218565
 30
0.0
 40
0.2
  1
CONFINE|5|CONFINE
  2
CONFINE
 70
     1
  0
ATTRIB
  5
1021
  8
ASM-FROZEN
 62
     2
 10
206.63739670338481
 20
103.7621239885232
 30
0.0
 40
0.2
  1
CONTORNO|7|CONTINUOUS
  2
CONTORNO
 70
     1
  0
ATTRIB
  5
1022
  8
ASM-FROZEN
 62
     2
 10
206.63739670338481
 20
103.4287906551899
 30
0.0
 40
0.2
  1
DISTINTA|6|CONTINUOUS
  2
DISTINTA
 70
     1
  0
ATTRIB
  5
1023
  8
ASM-FROZEN
 62
     2
 10
206.63739670338481
 20
103.0954573218565
 30
0.0
 40
0.2
  1
GRUPPO1|7|CONTINUOUS
  2
GRUPPO1
 70
     1
  0
ATTRIB
  5
1024
  8
ASM-FROZEN
 62
     2
 10
206.63739670338481
 20
102.7621239885232
 30
0.0
 40
0.2
  1
GRUPPO2|7|CONTINUOUS
  2
GRUPPO2
 70
     1
  0
ATTRIB
  5
1025
  8
ASM-FROZEN
 62
     2
 10
206.63739670338481
 20
102.4287906551899
 30
0.0
 40
0.2
  1
GRUPPO3|7|CONTINUOUS
  2
GRUPPO3
 70
     1
  0
ATTRIB
  5
1026
  8
ASM-FROZEN
 62
     2
 10
206.63739670338481
 20
102.0954573218565
 30
0.0
 40
0.2
  1
GRUPPO4|7|CONTINUOUS
  2
GRUPPO4
 70
     1
  0
ATTRIB
  5
1027
  8
ASM-FROZEN
 62
     2
 10
206.63739670338481
 20
101.7621239885232
 30
0.0
 40
0.2
  1
IMPOST|7|CONTINUOUS
  2
IMPOST
 70
     1
  0
ATTRIB
  5
1028
  8
ASM-FROZEN
 62
     2
 10
206.63739670338481
 20
101.4287906551899
 30
0.0
 40
0.2
  1
LINEAFIN|4|CONTINUOUS
  2
LINEAFINE
 70
     1
  0
ATTRIB
  5
1029
  8
ASM-FROZEN
 62
     2
 10
206.63739670338481
 20
101.0954573218565
 30
0.0
 40
0.2
  1
QUOTA|3|CONTINUOUS
  2
QUOTA
 70
     1
  0
ATTRIB
  5
102A
  8
ASM-FROZEN
 62
     2
 10
206.63739670338481
 20
100.7621239885232
 30
0.0
 40
0.2
  1
SALDATUR|3|CONTINUOUS
  2
SALDATURA
 70
     1
  0
ATTRIB
  5
102B
  8
ASM-FROZEN
  6
BYBLOCK
 62
     2
 10
206.63739670338481
 20
100.4287906551899
 30
0.0
 40
0.2
  1
SIMBPNEU|7|CONTINUOUS
  2
SIMBPNEU
 70
     1
  0
ATTRIB
  5
102C
  8
ASM-FROZEN
 62
     2
 10
206.63739670338481
 20
100.0954573218565
 30
0.0
 40
0.2
  1
TABELLA|4|CONTINUOUS
  2
TABELLA
 70
     1
  0
ATTRIB
  5
102D
  8
ASM-FROZEN
 62
     2
 10
206.63739670338481
 20
99.762123988523214
 30
0.0
 40
0.2
  1
TESTO|7|CONTINUOUS
  2
TESTO
 70
     1
  0
ATTRIB
  5
102E
  8
ASM-FROZEN
 62
     2
 10
206.63739670338481
 20
99.428790655189886
 30
0.0
 40
0.2
  1
TRATTI1|2|TRATTI1
  2
TRATTI1
 70
     1
  0
ATTRIB
  5
102F
  8
ASM-FROZEN
 62
     2
 10
206.63739670338481
 20
99.095457321856557
 30
0.0
 40
0.2
  1
TRATTI2|2|TRATTI2
  2
TRATTI2
 70
     1
  0
ATTRIB
  5
1030
  8
ASM-FROZEN
 62
     2
 10
206.63739670338481
 20
98.762123988523214
 30
0.0
 40
0.2
  1
TRATTI3|2|TRATTI3
  2
TRATTI3
 70
     1
  0
ATTRIB
  5
1031
  8
ASM-FROZEN
 62
     2
 10
206.63739670338481
 20
98.428790655189886
 30
0.0
 40
0.2
  1
TRATTI1F|4|TRATTI1
  2
TRATTI1F
 70
     1
  0
ATTRIB
  5
1032
  8
ASM-FROZEN
  6
BYBLOCK
 62
     2
 10
206.63739670338481
 20
98.095457321856543
 30
0.0
 40
0.2
  1
TRATTI2F|4|TRATTI2
  2
TRATTI2F
 70
     1
  0
ATTRIB
  5
1033
  8
ASM-FROZEN
 62
     2
 10
206.63739670338481
 20
97.762123988523214
 30
0.0
 40
0.2
  1
TRATTI3F|4|TRATTI3
  2
TRATTI3F
 70
     1
  0
ATTRIB
  5
1034
  8
ASM-FROZEN
  6
BYBLOCK
 62
     2
 10
206.63739670338481
 20
97.428790655189886
 30
0.0
 40
0.2
  1
TRATTEGG|4|CONTINUOUS
  2
TRATTEGGIO
 70
     1
  0
SEQEND
  5
1035
  8
ASM-FROZEN
  0
INSERT
  5
1036
  8
ASM-FROZEN
 66
     1
  2
ASM_CONF
 10
182.84128137116579
 20
87.738314129437526
 30
0.0
1001
ASM_BASE
1002
{
1040
12.0
1070
     1
1010
0.0
1020
0.0
1030
0.0
1000
A
1000
ASM_CADM
1000
Fe37a
1000
null
1070
     0
1040
6.0
1040
6.0
1040
6.0
1070
    13
1040
1.7599999999999989
1000
0
1000
CADMEC_1-1
1002
}
1001
ASM_EXPLO_VER_2_00
1002
{
1040
2.0
1010
-0.57735026919
1020
-0.57735026919
1030
0.57735026919
1010
0.0
1020
0.0
1030
0.0
1002
}
  0
ATTRIB
  5
1037
  8
ASM-FROZEN
 62
     2
 10
194.84128137116579
 20
94.738314129437526
 30
0.0
 40
0.2
  1
ASSE1|1|ASSI1
  2
ASSE1
 70
     1
  0
ATTRIB
  5
1038
  8
ASM-FROZEN
 62
     2
 10
194.84128137116579
 20
94.404980796104184
 30
0.0
 40
0.2
  1
ASSE2|1|ASSI2
  2
ASSE2
 70
     1
  0
ATTRIB
  5
1039
  8
ASM-FROZEN
 62
     2
 10
194.84128137116579
 20
94.071647462770855
 30
0.0
 40
0.2
  1
ASSE3|1|ASSI3
  2
ASSE3
 70
     1
  0
ATTRIB
  5
103A
  8
ASM-FROZEN
 62
     2
 10
194.84128137116579
 20
93.738314129437526
 30
0.0
 40
0.2
  1
CONFINE|5|CONFINE
  2
CONFINE
 70
     1
  0
ATTRIB
  5
103B
  8
ASM-FROZEN
 62
     2
 10
194.84128137116579
 20
93.404980796104184
 30
0.0
 40
0.2
  1
CONTORNO|7|CONTINUOUS
  2
CONTORNO
 70
     1
  0
ATTRIB
  5
103C
  8
ASM-FROZEN
 62
     2
 10
194.84128137116579
 20
93.071647462770855
 30
0.0
 40
0.2
  1
DISTINTA|6|CONTINUOUS
  2
DISTINTA
 70
     1
  0
ATTRIB
  5
103D
  8
ASM-FROZEN
 62
     2
 10
194.84128137116579
 20
92.738314129437526
 30
0.0
 40
0.2
  1
GRUPPO1|7|CONTINUOUS
  2
GRUPPO1
 70
     1
  0
ATTRIB
  5
103E
  8
ASM-FROZEN
 62
     2
 10
194.84128137116579
 20
92.404980796104184
 30
0.0
 40
0.2
  1
GRUPPO2|7|CONTINUOUS
  2
GRUPPO2
 70
     1
  0
ATTRIB
  5
103F
  8
ASM-FROZEN
 62
     2
 10
194.84128137116579
 20
92.071647462770855
 30
0.0
 40
0.2
  1
GRUPPO3|7|CONTINUOUS
  2
GRUPPO3
 70
     1
  0
ATTRIB
  5
1040
  8
ASM-FROZEN
 62
     2
 10
194.84128137116579
 20
91.738314129437526
 30
0.0
 40
0.2
  1
GRUPPO4|7|CONTINUOUS
  2
GRUPPO4
 70
     1
  0
ATTRIB
  5
1041
  8
ASM-FROZEN
 62
     2
 10
194.84128137116579
 20
91.404980796104184
 30
0.0
 40
0.2
  1
IMPOST|7|CONTINUOUS
  2
IMPOST
 70
     1
  0
ATTRIB
  5
1042
  8
ASM-FROZEN
 62
     2
 10
194.84128137116579
 20
91.071647462770869
 30
0.0
 40
0.2
  1
LINEAFIN|4|CONTINUOUS
  2
LINEAFINE
 70
     1
  0
ATTRIB
  5
1043
  8
ASM-FROZEN
 62
     2
 10
194.84128137116579
 20
90.738314129437526
 30
0.0
 40
0.2
  1
QUOTA|3|CONTINUOUS
  2
QUOTA
 70
     1
  0
ATTRIB
  5
1044
  8
ASM-FROZEN
 62
     2
 10
194.84128137116579
 20
90.404980796104198
 30
0.0
 40
0.2
  1
SALDATUR|3|CONTINUOUS
  2
SALDATURA
 70
     1
  0
ATTRIB
  5
1045
  8
ASM-FROZEN
  6
BYBLOCK
 62
     2
 10
194.84128137116579
 20
90.071647462770869
 30
0.0
 40
0.2
  1
SIMBPNEU|7|CONTINUOUS
  2
SIMBPNEU
 70
     1
  0
ATTRIB
  5
1046
  8
ASM-FROZEN
 62
     2
 10
194.84128137116579
 20
89.738314129437526
 30
0.0
 40
0.2
  1
TABELLA|4|CONTINUOUS
  2
TABELLA
 70
     1
  0
ATTRIB
  5
1047
  8
ASM-FROZEN
 62
     2
 10
194.84128137116579
 20
89.404980796104184
 30
0.0
 40
0.2
  1
TESTO|7|CONTINUOUS
  2
TESTO
 70
     1
  0
ATTRIB
  5
1048
  8
ASM-FROZEN
 62
     2
 10
194.84128137116579
 20
89.071647462770869
 30
0.0
 40
0.2
  1
TRATTI1|2|TRATTI1
  2
TRATTI1
 70
     1
  0
ATTRIB
  5
1049
  8
ASM-FROZEN
 62
     2
 10
194.84128137116579
 20
88.738314129437526
 30
0.0
 40
0.2
  1
TRATTI2|2|TRATTI2
  2
TRATTI2
 70
     1
  0
ATTRIB
  5
104A
  8
ASM-FROZEN
 62
     2
 10
194.84128137116579
 20
88.404980796104184
 30
0.0
 40
0.2
  1
TRATTI3|2|TRATTI3
  2
TRATTI3
 70
     1
  0
ATTRIB
  5
104B
  8
ASM-FROZEN
 62
     2
 10
194.84128137116579
 20
88.071647462770855
 30
0.0
 40
0.2
  1
TRATTI1F|4|TRATTI1
  2
TRATTI1F
 70
     1
  0
ATTRIB
  5
104C
  8
ASM-FROZEN
  6
BYBLOCK
 62
     2
 10
194.84128137116579
 20
87.738314129437526
 30
0.0
 40
0.2
  1
TRATTI2F|4|TRATTI2
  2
TRATTI2F
 70
     1
  0
ATTRIB
  5
104D
  8
ASM-FROZEN
 62
     2
 10
194.84128137116579
 20
87.404980796104198
 30
0.0
 40
0.2
  1
TRATTI3F|4|TRATTI3
  2
TRATTI3F
 70
     1
  0
ATTRIB
  5
104E
  8
ASM-FROZEN
  6
BYBLOCK
 62
     2
 10
194.84128137116579
 20
87.071647462770855
 30
0.0
 40
0.2
  1
TRATTEGG|4|CONTINUOUS
  2
TRATTEGGIO
 70
     1
  0
SEQEND
  5
104F
  8
ASM-FROZEN
  0
INSERT
  5
1050
  8
ASM-FROZEN
 66
     1
  2
ASM_CONF
 10
222.1616660510351
 20
104.5240283965254
 30
0.0
1001
ASM_BASE
1002
{
1040
12.0
1070
     1
1010
0.0
1020
0.0
1030
0.0
1000
A
1000
ASM_CADM
1000
Fe37a
1000
null
1070
     0
1040
6.0
1040
6.0
1040
6.0
1070
    13
1040
1.7599999999999989
1000
0
1000
CADMEC_1-1
1002
}
1001
ASM_EXPLO_VER_2_00
1002
{
1040
2.0
1010
-0.57735026919
1020
-0.57735026919
1030
0.57735026919
1010
0.0
1020
0.0
1030
0.0
1002
}
  0
ATTRIB
  5
1051
  8
ASM-FROZEN
 62
     2
 10
234.1616660510351
 20
111.5240283965254
 30
0.0
 40
0.2
  1
ASSE1|1|ASSI1
  2
ASSE1
 70
     1
  0
ATTRIB
  5
1052
  8
ASM-FROZEN
 62
     2
 10
234.1616660510351
 20
111.19069506319209
 30
0.0
 40
0.2
  1
ASSE2|1|ASSI2
  2
ASSE2
 70
     1
  0
ATTRIB
  5
1053
  8
ASM-FROZEN
 62
     2
 10
234.1616660510351
 20
110.8573617298587
 30
0.0
 40
0.2
  1
ASSE3|1|ASSI3
  2
ASSE3
 70
     1
  0
ATTRIB
  5
1054
  8
ASM-FROZEN
 62
     2
 10
234.1616660510351
 20
110.5240283965254
 30
0.0
 40
0.2
  1
CONFINE|5|CONFINE
  2
CONFINE
 70
     1
  0
ATTRIB
  5
1055
  8
ASM-FROZEN
 62
     2
 10
234.1616660510351
 20
110.19069506319209
 30
0.0
 40
0.2
  1
CONTORNO|7|CONTINUOUS
  2
CONTORNO
 70
     1
  0
ATTRIB
  5
1056
  8
ASM-FROZEN
 62
     2
 10
234.1616660510351
 20
109.8573617298587
 30
0.0
 40
0.2
  1
DISTINTA|6|CONTINUOUS
  2
DISTINTA
 70
     1
  0
ATTRIB
  5
1057
  8
ASM-FROZEN
 62
     2
 10
234.1616660510351
 20
109.5240283965254
 30
0.0
 40
0.2
  1
GRUPPO1|7|CONTINUOUS
  2
GRUPPO1
 70
     1
  0
ATTRIB
  5
1058
  8
ASM-FROZEN
 62
     2
 10
234.1616660510351
 20
109.19069506319209
 30
0.0
 40
0.2
  1
GRUPPO2|7|CONTINUOUS
  2
GRUPPO2
 70
     1
  0
ATTRIB
  5
1059
  8
ASM-FROZEN
 62
     2
 10
234.1616660510351
 20
108.8573617298587
 30
0.0
 40
0.2
  1
GRUPPO3|7|CONTINUOUS
  2
GRUPPO3
 70
     1
  0
ATTRIB
  5
105A
  8
ASM-FROZEN
 62
     2
 10
234.1616660510351
 20
108.5240283965254
 30
0.0
 40
0.2
  1
GRUPPO4|7|CONTINUOUS
  2
GRUPPO4
 70
     1
  0
ATTRIB
  5
105B
  8
ASM-FROZEN
 62
     2
 10
234.1616660510351
 20
108.190695063192
 30
0.0
 40
0.2
  1
IMPOST|7|CONTINUOUS
  2
IMPOST
 70
     1
  0
ATTRIB
  5
105C
  8
ASM-FROZEN
 62
     2
 10
234.1616660510351
 20
107.8573617298587
 30
0.0
 40
0.2
  1
LINEAFIN|4|CONTINUOUS
  2
LINEAFINE
 70
     1
  0
ATTRIB
  5
105D
  8
ASM-FROZEN
 62
     2
 10
234.1616660510351
 20
107.5240283965254
 30
0.0
 40
0.2
  1
QUOTA|3|CONTINUOUS
  2
QUOTA
 70
     1
  0
ATTRIB
  5
105E
  8
ASM-FROZEN
 62
     2
 10
234.1616660510351
 20
107.19069506319209
 30
0.0
 40
0.2
  1
SALDATUR|3|CONTINUOUS
  2
SALDATURA
 70
     1
  0
ATTRIB
  5
105F
  8
ASM-FROZEN
  6
BYBLOCK
 62
     2
 10
234.1616660510351
 20
106.8573617298587
 30
0.0
 40
0.2
  1
SIMBPNEU|7|CONTINUOUS
  2
SIMBPNEU
 70
     1
  0
ATTRIB
  5
1060
  8
ASM-FROZEN
 62
     2
 10
234.1616660510351
 20
106.5240283965254
 30
0.0
 40
0.2
  1
TABELLA|4|CONTINUOUS
  2
TABELLA
 70
     1
  0
ATTRIB
  5
1061
  8
ASM-FROZEN
 62
     2
 10
234.1616660510351
 20
106.19069506319209
 30
0.0
 40
0.2
  1
TESTO|7|CONTINUOUS
  2
TESTO
 70
     1
  0
ATTRIB
  5
1062
  8
ASM-FROZEN
 62
     2
 10
234.1616660510351
 20
105.8573617298587
 30
0.0
 40
0.2
  1
TRATTI1|2|TRATTI1
  2
TRATTI1
 70
     1
  0
ATTRIB
  5
1063
  8
ASM-FROZEN
 62
     2
 10
234.1616660510351
 20
105.5240283965254
 30
0.0
 40
0.2
  1
TRATTI2|2|TRATTI2
  2
TRATTI2
 70
     1
  0
ATTRIB
  5
1064
  8
ASM-FROZEN
 62
     2
 10
234.1616660510351
 20
105.19069506319209
 30
0.0
 40
0.2
  1
TRATTI3|2|TRATTI3
  2
TRATTI3
 70
     1
  0
ATTRIB
  5
1065
  8
ASM-FROZEN
 62
     2
 10
234.1616660510351
 20
104.8573617298587
 30
0.0
 40
0.2
  1
TRATTI1F|4|TRATTI1
  2
TRATTI1F
 70
     1
  0
ATTRIB
  5
1066
  8
ASM-FROZEN
  6
BYBLOCK
 62
     2
 10
234.1616660510351
 20
104.5240283965254
 30
0.0
 40
0.2
  1
TRATTI2F|4|TRATTI2
  2
TRATTI2F
 70
     1
  0
ATTRIB
  5
1067
  8
ASM-FROZEN
 62
     2
 10
234.1616660510351
 20
104.190695063192
 30
0.0
 40
0.2
  1
TRATTI3F|4|TRATTI3
  2
TRATTI3F
 70
     1
  0
ATTRIB
  5
1068
  8
ASM-FROZEN
  6
BYBLOCK
 62
     2
 10
234.1616660510351
 20
103.8573617298587
 30
0.0
 40
0.2
  1
TRATTEGG|4|CONTINUOUS
  2
TRATTEGGIO
 70
     1
  0
SEQEND
  5
1069
  8
ASM-FROZEN
  0
INSERT
  5
1386
  8
ASM-FROZEN
 66
     1
  2
ASM_CONF
 10
109.890945258991
 20
80.112890289491347
 30
0.0
 41
0.1
 42
0.1
 43
0.1
1001
ASM_BASE
1002
{
1040
12.0
1070
     1
1010
0.0
1020
0.0
1030
0.0
1000
A
1000
ASM_CADM
1000
Fe37a
1000
null
1070
     0
1040
6.0
1040
6.0
1040
6.0
1070
    13
1040
1.7599999999999989
1000
0
1000
CADMEC_1-1
1002
}
1001
ASM_EXPLO_VER_2_00
1002
{
1040
2.0
1010
-0.57735026919
1020
-0.57735026919
1030
0.57735026919
1010
0.0
1020
0.0
1030
0.0
1002
}
  0
ATTRIB
  5
1387
  8
ASM-FROZEN
 62
     2
 10
111.090945258991
 20
80.812890289491335
 30
0.0
 40
0.02
  1
ASSE1|1|ASSI1
  2
ASSE1
 70
     1
  0
ATTRIB
  5
1388
  8
ASM-FROZEN
 62
     2
 10
111.090945258991
 20
80.779556956158004
 30
0.0
 40
0.02
  1
ASSE2|1|ASSI2
  2
ASSE2
 70
     1
  0
ATTRIB
  5
1389
  8
ASM-FROZEN
 62
     2
 10
111.090945258991
 20
80.746223622824658
 30
0.0
 40
0.02
  1
ASSE3|1|ASSI3
  2
ASSE3
 70
     1
  0
ATTRIB
  5
138A
  8
ASM-FROZEN
 62
     2
 10
111.090945258991
 20
80.712890289491341
 30
0.0
 40
0.02
  1
CONFINE|5|CONFINE
  2
CONFINE
 70
     1
  0
ATTRIB
  5
138B
  8
ASM-FROZEN
 62
     2
 10
111.090945258991
 20
80.679556956157995
 30
0.0
 40
0.02
  1
CONTORNO|7|CONTINUOUS
  2
CONTORNO
 70
     1
  0
ATTRIB
  5
138C
  8
ASM-FROZEN
 62
     2
 10
111.090945258991
 20
80.646223622824678
 30
0.0
 40
0.02
  1
DISTINTA|6|CONTINUOUS
  2
DISTINTA
 70
     1
  0
ATTRIB
  5
138D
  8
ASM-FROZEN
 62
     2
 10
111.090945258991
 20
80.612890289491332
 30
0.0
 40
0.02
  1
GRUPPO1|7|CONTINUOUS
  2
GRUPPO1
 70
     1
  0
ATTRIB
  5
138E
  8
ASM-FROZEN
 62
     2
 10
111.090945258991
 20
80.579556956158015
 30
0.0
 40
0.02
  1
GRUPPO2|7|CONTINUOUS
  2
GRUPPO2
 70
     1
  0
ATTRIB
  5
138F
  8
ASM-FROZEN
 62
     2
 10
111.090945258991
 20
80.54622362282467
 30
0.0
 40
0.02
  1
GRUPPO3|7|CONTINUOUS
  2
GRUPPO3
 70
     1
  0
ATTRIB
  5
1390
  8
ASM-FROZEN
 62
     2
 10
111.090945258991
 20
80.512890289491324
 30
0.0
 40
0.02
  1
GRUPPO4|7|CONTINUOUS
  2
GRUPPO4
 70
     1
  0
ATTRIB
  5
1391
  8
ASM-FROZEN
 62
     2
 10
111.090945258991
 20
80.479556956158007
 30
0.0
 40
0.02
  1
IMPOST|7|CONTINUOUS
  2
IMPOST
 70
     1
  0
ATTRIB
  5
1392
  8
ASM-FROZEN
 62
     2
 10
111.090945258991
 20
80.446223622824675
 30
0.0
 40
0.02
  1
LINEAFIN|4|CONTINUOUS
  2
LINEAFINE
 70
     1
  0
ATTRIB
  5
1393
  8
ASM-FROZEN
 62
     2
 10
111.090945258991
 20
80.412890289491344
 30
0.0
 40
0.02
  1
QUOTA|3|CONTINUOUS
  2
QUOTA
 70
     1
  0
ATTRIB
  5
1394
  8
ASM-FROZEN
 62
     2
 10
111.090945258991
 20
80.379556956158012
 30
0.0
 40
0.02
  1
SALDATUR|3|CONTINUOUS
  2
SALDATURA
 70
     1
  0
ATTRIB
  5
1395
  8
ASM-FROZEN
  6
BYBLOCK
 62
     2
 10
111.090945258991
 20
80.346223622824667
 30
0.0
 40
0.02
  1
SIMBPNEU|7|CONTINUOUS
  2
SIMBPNEU
 70
     1
  0
ATTRIB
  5
1396
  8
ASM-FROZEN
 62
     2
 10
111.090945258991
 20
80.312890289491335
 30
0.0
 40
0.02
  1
TABELLA|4|CONTINUOUS
  2
TABELLA
 70
     1
  0
ATTRIB
  5
1397
  8
ASM-FROZEN
 62
     2
 10
111.090945258991
 20
80.279556956158004
 30
0.0
 40
0.02
  1
TESTO|7|CONTINUOUS
  2
TESTO
 70
     1
  0
ATTRIB
  5
1398
  8
ASM-FROZEN
 62
     2
 10
111.090945258991
 20
80.246223622824672
 30
0.0
 40
0.02
  1
TRATTI1|2|TRATTI1
  2
TRATTI1
 70
     1
  0
ATTRIB
  5
1399
  8
ASM-FROZEN
 62
     2
 10
111.090945258991
 20
80.212890289491341
 30
0.0
 40
0.02
  1
TRATTI2|2|TRATTI2
  2
TRATTI2
 70
     1
  0
ATTRIB
  5
139A
  8
ASM-FROZEN
 62
     2
 10
111.090945258991
 20
80.179556956158024
 30
0.0
 40
0.02
  1
TRATTI3|2|TRATTI3
  2
TRATTI3
 70
     1
  0
ATTRIB
  5
139B
  8
ASM-FROZEN
 62
     2
 10
111.090945258991
 20
80.146223622824678
 30
0.0
 40
0.02
  1
TRATTI1F|4|TRATTI1
  2
TRATTI1F
 70
     1
  0
ATTRIB
  5
139C
  8
ASM-FROZEN
  6
BYBLOCK
 62
     2
 10
111.090945258991
 20
80.112890289491347
 30
0.0
 40
0.02
  1
TRATTI2F|4|TRATTI2
  2
TRATTI2F
 70
     1
  0
ATTRIB
  5
139D
  8
ASM-FROZEN
 62
     2
 10
111.090945258991
 20
80.079556956158001
 30
0.0
 40
0.02
  1
TRATTI3F|4|TRATTI3
  2
TRATTI3F
 70
     1
  0
ATTRIB
  5
139E
  8
ASM-FROZEN
  6
BYBLOCK
 62
     2
 10
111.090945258991
 20
80.046223622824655
 30
0.0
 40
0.02
  1
TRATTEGG|4|CONTINUOUS
  2
TRATTEGGIO
 70
     1
  0
SEQEND
  5
139F
  8
ASM-FROZEN
  0
INSERT
  5
13A0
  8
ASM-FROZEN
 66
     1
  2
ASM_CONF
 10
110.3497573088099
 20
80.930381746684162
 30
0.0
 41
0.1
 42
0.1
 43
0.1
1001
ASM_BASE
1002
{
1040
12.0
1070
     1
1010
0.0
1020
0.0
1030
0.0
1000
A
1000
ASM_CADM
1000
Fe37a
1000
null
1070
     0
1040
6.0
1040
6.0
1040
6.0
1070
    13
1040
1.7599999999999989
1000
0
1000
CADMEC_1-1
1002
}
1001
ASM_EXPLO_VER_2_00
1002
{
1040
2.0
1010
-0.57735026919
1020
-0.57735026919
1030
0.57735026919
1010
0.0
1020
0.0
1030
0.0
1002
}
  0
ATTRIB
  5
13A1
  8
ASM-FROZEN
 62
     2
 10
111.5497573088099
 20
81.630381746684151
 30
0.0
 40
0.02
  1
ASSE1|1|ASSI1
  2
ASSE1
 70
     1
  0
ATTRIB
  5
13A2
  8
ASM-FROZEN
 62
     2
 10
111.5497573088099
 20
81.597048413350834
 30
0.0
 40
0.02
  1
ASSE2|1|ASSI2
  2
ASSE2
 70
     1
  0
ATTRIB
  5
13A3
  8
ASM-FROZEN
 62
     2
 10
111.5497573088099
 20
81.563715080017488
 30
0.0
 40
0.02
  1
ASSE3|1|ASSI3
  2
ASSE3
 70
     1
  0
ATTRIB
  5
13A4
  8
ASM-FROZEN
 62
     2
 10
111.5497573088099
 20
81.530381746684156
 30
0.0
 40
0.02
  1
CONFINE|5|CONFINE
  2
CONFINE
 70
     1
  0
ATTRIB
  5
13A5
  8
ASM-FROZEN
 62
     2
 10
111.5497573088099
 20
81.497048413350825
 30
0.0
 40
0.02
  1
CONTORNO|7|CONTINUOUS
  2
CONTORNO
 70
     1
  0
ATTRIB
  5
13A6
  8
ASM-FROZEN
 62
     2
 10
111.5497573088099
 20
81.463715080017494
 30
0.0
 40
0.02
  1
DISTINTA|6|CONTINUOUS
  2
DISTINTA
 70
     1
  0
ATTRIB
  5
13A7
  8
ASM-FROZEN
 62
     2
 10
111.5497573088099
 20
81.430381746684176
 30
0.0
 40
0.02
  1
GRUPPO1|7|CONTINUOUS
  2
GRUPPO1
 70
     1
  0
ATTRIB
  5
13A8
  8
ASM-FROZEN
 62
     2
 10
111.5497573088099
 20
81.397048413350831
 30
0.0
 40
0.02
  1
GRUPPO2|7|CONTINUOUS
  2
GRUPPO2
 70
     1
  0
ATTRIB
  5
13A9
  8
ASM-FROZEN
 62
     2
 10
111.5497573088099
 20
81.363715080017485
 30
0.0
 40
0.02
  1
GRUPPO3|7|CONTINUOUS
  2
GRUPPO3
 70
     1
  0
ATTRIB
  5
13AA
  8
ASM-FROZEN
 62
     2
 10
111.5497573088099
 20
81.330381746684154
 30
0.0
 40
0.02
  1
GRUPPO4|7|CONTINUOUS
  2
GRUPPO4
 70
     1
  0
ATTRIB
  5
13AB
  8
ASM-FROZEN
 62
     2
 10
111.5497573088099
 20
81.297048413350808
 30
0.0
 40
0.02
  1
IMPOST|7|CONTINUOUS
  2
IMPOST
 70
     1
  0
ATTRIB
  5
13AC
  8
ASM-FROZEN
 62
     2
 10
111.5497573088099
 20
81.263715080017491
 30
0.0
 40
0.02
  1
LINEAFIN|4|CONTINUOUS
  2
LINEAFINE
 70
     1
  0
ATTRIB
  5
13AD
  8
ASM-FROZEN
 62
     2
 10
111.5497573088099
 20
81.230381746684145
 30
0.0
 40
0.02
  1
QUOTA|3|CONTINUOUS
  2
QUOTA
 70
     1
  0
ATTRIB
  5
13AE
  8
ASM-FROZEN
 62
     2
 10
111.5497573088099
 20
81.197048413350828
 30
0.0
 40
0.02
  1
SALDATUR|3|CONTINUOUS
  2
SALDATURA
 70
     1
  0
ATTRIB
  5
13AF
  8
ASM-FROZEN
  6
BYBLOCK
 62
     2
 10
111.5497573088099
 20
81.163715080017496
 30
0.0
 40
0.02
  1
SIMBPNEU|7|CONTINUOUS
  2
SIMBPNEU
 70
     1
  0
ATTRIB
  5
13B0
  8
ASM-FROZEN
 62
     2
 10
111.5497573088099
 20
81.130381746684165
 30
0.0
 40
0.02
  1
TABELLA|4|CONTINUOUS
  2
TABELLA
 70
     1
  0
ATTRIB
  5
13B1
  8
ASM-FROZEN
 62
     2
 10
111.5497573088099
 20
81.097048413350819
 30
0.0
 40
0.02
  1
TESTO|7|CONTINUOUS
  2
TESTO
 70
     1
  0
ATTRIB
  5
13B2
  8
ASM-FROZEN
 62
     2
 10
111.5497573088099
 20
81.063715080017474
 30
0.0
 40
0.02
  1
TRATTI1|2|TRATTI1
  2
TRATTI1
 70
     1
  0
ATTRIB
  5
13B3
  8
ASM-FROZEN
 62
     2
 10
111.5497573088099
 20
81.030381746684156
 30
0.0
 40
0.02
  1
TRATTI2|2|TRATTI2
  2
TRATTI2
 70
     1
  0
ATTRIB
  5
13B4
  8
ASM-FROZEN
 62
     2
 10
111.5497573088099
 20
80.997048413350825
 30
0.0
 40
0.02
  1
TRATTI3|2|TRATTI3
  2
TRATTI3
 70
     1
  0
ATTRIB
  5
13B5
  8
ASM-FROZEN
 62
     2
 10
111.5497573088099
 20
80.963715080017494
 30
0.0
 40
0.02
  1
TRATTI1F|4|TRATTI1
  2
TRATTI1F
 70
     1
  0
ATTRIB
  5
13B6
  8
ASM-FROZEN
  6
BYBLOCK
 62
     2
 10
111.5497573088099
 20
80.930381746684162
 30
0.0
 40
0.02
  1
TRATTI2F|4|TRATTI2
  2
TRATTI2F
 70
     1
  0
ATTRIB
  5
13B7
  8
ASM-FROZEN
 62
     2
 10
111.5497573088099
 20
80.897048413350817
 30
0.0
 40
0.02
  1
TRATTI3F|4|TRATTI3
  2
TRATTI3F
 70
     1
  0
ATTRIB
  5
13B8
  8
ASM-FROZEN
  6
BYBLOCK
 62
     2
 10
111.5497573088099
 20
80.863715080017499
 30
0.0
 40
0.02
  1
TRATTEGG|4|CONTINUOUS
  2
TRATTEGGIO
 70
     1
  0
SEQEND
  5
13B9
  8
ASM-FROZEN
  0
INSERT
  5
13BA
  8
ASM-FROZEN
 66
     1
  2
ASM_CONF
 10
109.170145775588
 20
79.894667427442258
 30
0.0
 41
0.1
 42
0.1
 43
0.1
1001
ASM_BASE
1002
{
1040
12.0
1070
     1
1010
0.0
1020
0.0
1030
0.0
1000
A
1000
ASM_CADM
1000
Fe37a
1000
null
1070
     0
1040
6.0
1040
6.0
1040
6.0
1070
    13
1040
1.7599999999999989
1000
0
1000
CADMEC_1-1
1002
}
1001
ASM_EXPLO_VER_2_00
1002
{
1040
2.0
1010
-0.57735026919
1020
-0.57735026919
1030
0.57735026919
1010
0.0
1020
0.0
1030
0.0
1002
}
  0
ATTRIB
  5
13BB
  8
ASM-FROZEN
 62
     2
 10
110.370145775588
 20
80.594667427442246
 30
0.0
 40
0.02
  1
ASSE1|1|ASSI1
  2
ASSE1
 70
     1
  0
ATTRIB
  5
13BC
  8
ASM-FROZEN
 62
     2
 10
110.370145775588
 20
80.561334094108929
 30
0.0
 40
0.02
  1
ASSE2|1|ASSI2
  2
ASSE2
 70
     1
  0
ATTRIB
  5
13BD
  8
ASM-FROZEN
 62
     2
 10
110.370145775588
 20
80.528000760775569
 30
0.0
 40
0.02
  1
ASSE3|1|ASSI3
  2
ASSE3
 70
     1
  0
ATTRIB
  5
13BE
  8
ASM-FROZEN
 62
     2
 10
110.370145775588
 20
80.494667427442252
 30
0.0
 40
0.02
  1
CONFINE|5|CONFINE
  2
CONFINE
 70
     1
  0
ATTRIB
  5
13BF
  8
ASM-FROZEN
 62
     2
 10
110.370145775588
 20
80.461334094108921
 30
0.0
 40
0.02
  1
CONTORNO|7|CONTINUOUS
  2
CONTORNO
 70
     1
  0
ATTRIB
  5
13C0
  8
ASM-FROZEN
 62
     2
 10
110.370145775588
 20
80.428000760775589
 30
0.0
 40
0.02
  1
DISTINTA|6|CONTINUOUS
  2
DISTINTA
 70
     1
  0
ATTRIB
  5
13C1
  8
ASM-FROZEN
 62
     2
 10
110.370145775588
 20
80.394667427442258
 30
0.0
 40
0.02
  1
GRUPPO1|7|CONTINUOUS
  2
GRUPPO1
 70
     1
  0
ATTRIB
  5
13C2
  8
ASM-FROZEN
 62
     2
 10
110.370145775588
 20
80.361334094108926
 30
0.0
 40
0.02
  1
GRUPPO2|7|CONTINUOUS
  2
GRUPPO2
 70
     1
  0
ATTRIB
  5
13C3
  8
ASM-FROZEN
 62
     2
 10
110.370145775588
 20
80.328000760775595
 30
0.0
 40
0.02
  1
GRUPPO3|7|CONTINUOUS
  2
GRUPPO3
 70
     1
  0
ATTRIB
  5
13C4
  8
ASM-FROZEN
 62
     2
 10
110.370145775588
 20
80.294667427442235
 30
0.0
 40
0.02
  1
GRUPPO4|7|CONTINUOUS
  2
GRUPPO4
 70
     1
  0
ATTRIB
  5
13C5
  8
ASM-FROZEN
 62
     2
 10
110.370145775588
 20
80.261334094108918
 30
0.0
 40
0.02
  1
IMPOST|7|CONTINUOUS
  2
IMPOST
 70
     1
  0
ATTRIB
  5
13C6
  8
ASM-FROZEN
 62
     2
 10
110.370145775588
 20
80.228000760775586
 30
0.0
 40
0.02
  1
LINEAFIN|4|CONTINUOUS
  2
LINEAFINE
 70
     1
  0
ATTRIB
  5
13C7
  8
ASM-FROZEN
 62
     2
 10
110.370145775588
 20
80.194667427442255
 30
0.0
 40
0.02
  1
QUOTA|3|CONTINUOUS
  2
QUOTA
 70
     1
  0
ATTRIB
  5
13C8
  8
ASM-FROZEN
 62
     2
 10
110.370145775588
 20
80.161334094108923
 30
0.0
 40
0.02
  1
SALDATUR|3|CONTINUOUS
  2
SALDATURA
 70
     1
  0
ATTRIB
  5
13C9
  8
ASM-FROZEN
  6
BYBLOCK
 62
     2
 10
110.370145775588
 20
80.128000760775578
 30
0.0
 40
0.02
  1
SIMBPNEU|7|CONTINUOUS
  2
SIMBPNEU
 70
     1
  0
ATTRIB
  5
13CA
  8
ASM-FROZEN
 62
     2
 10
110.370145775588
 20
80.094667427442261
 30
0.0
 40
0.02
  1
TABELLA|4|CONTINUOUS
  2
TABELLA
 70
     1
  0
ATTRIB
  5
13CB
  8
ASM-FROZEN
 62
     2
 10
110.370145775588
 20
80.061334094108915
 30
0.0
 40
0.02
  1
TESTO|7|CONTINUOUS
  2
TESTO
 70
     1
  0
ATTRIB
  5
13CC
  8
ASM-FROZEN
 62
     2
 10
110.370145775588
 20
80.028000760775598
 30
0.0
 40
0.02
  1
TRATTI1|2|TRATTI1
  2
TRATTI1
 70
     1
  0
ATTRIB
  5
13CD
  8
ASM-FROZEN
 62
     2
 10
110.370145775588
 20
79.994667427442252
 30
0.0
 40
0.02
  1
TRATTI2|2|TRATTI2
  2
TRATTI2
 70
     1
  0
ATTRIB
  5
13CE
  8
ASM-FROZEN
 62
     2
 10
110.370145775588
 20
79.961334094108921
 30
0.0
 40
0.02
  1
TRATTI3|2|TRATTI3
  2
TRATTI3
 70
     1
  0
ATTRIB
  5
13CF
  8
ASM-FROZEN
 62
     2
 10
110.370145775588
 20
79.928000760775589
 30
0.0
 40
0.02
  1
TRATTI1F|4|TRATTI1
  2
TRATTI1F
 70
     1
  0
ATTRIB
  5
13D0
  8
ASM-FROZEN
  6
BYBLOCK
 62
     2
 10
110.370145775588
 20
79.894667427442258
 30
0.0
 40
0.02
  1
TRATTI2F|4|TRATTI2
  2
TRATTI2F
 70
     1
  0
ATTRIB
  5
13D1
  8
ASM-FROZEN
 62
     2
 10
110.370145775588
 20
79.861334094108926
 30
0.0
 40
0.02
  1
TRATTI3F|4|TRATTI3
  2
TRATTI3F
 70
     1
  0
ATTRIB
  5
13D2
  8
ASM-FROZEN
  6
BYBLOCK
 62
     2
 10
110.370145775588
 20
79.828000760775595
 30
0.0
 40
0.02
  1
TRATTEGG|4|CONTINUOUS
  2
TRATTEGGIO
 70
     1
  0
SEQEND
  5
13D3
  8
ASM-FROZEN
  0
INSERT
  5
13D4
  8
ASM-FROZEN
 66
     1
  2
ASM_CONF
 10
113.1021842435749
 20
81.573238854151043
 30
0.0
 41
0.1
 42
0.1
 43
0.1
1001
ASM_BASE
1002
{
1040
12.0
1070
     1
1010
0.0
1020
0.0
1030
0.0
1000
A
1000
ASM_CADM
1000
Fe37a
1000
null
1070
     0
1040
6.0
1040
6.0
1040
6.0
1070
    13
1040
1.7599999999999989
1000
0
1000
CADMEC_1-1
1002
}
1001
ASM_EXPLO_VER_2_00
1002
{
1040
2.0
1010
-0.57735026919
1020
-0.57735026919
1030
0.57735026919
1010
0.0
1020
0.0
1030
0.0
1002
}
  0
ATTRIB
  5
13D5
  8
ASM-FROZEN
 62
     2
 10
114.3021842435749
 20
82.273238854151046
 30
0.0
 40
0.02
  1
ASSE1|1|ASSI1
  2
ASSE1
 70
     1
  0
ATTRIB
  5
13D6
  8
ASM-FROZEN
 62
     2
 10
114.3021842435749
 20
82.239905520817715
 30
0.0
 40
0.02
  1
ASSE2|1|ASSI2
  2
ASSE2
 70
     1
  0
ATTRIB
  5
13D7
  8
ASM-FROZEN
 62
     2
 10
114.3021842435749
 20
82.206572187484369
 30
0.0
 40
0.02
  1
ASSE3|1|ASSI3
  2
ASSE3
 70
     1
  0
ATTRIB
  5
13D8
  8
ASM-FROZEN
 62
     2
 10
114.3021842435749
 20
82.173238854151023
 30
0.0
 40
0.02
  1
CONFINE|5|CONFINE
  2
CONFINE
 70
     1
  0
ATTRIB
  5
13D9
  8
ASM-FROZEN
 62
     2
 10
114.3021842435749
 20
82.139905520817706
 30
0.0
 40
0.02
  1
CONTORNO|7|CONTINUOUS
  2
CONTORNO
 70
     1
  0
ATTRIB
  5
13DA
  8
ASM-FROZEN
 62
     2
 10
114.3021842435749
 20
82.106572187484375
 30
0.0
 40
0.02
  1
DISTINTA|6|CONTINUOUS
  2
DISTINTA
 70
     1
  0
ATTRIB
  5
13DB
  8
ASM-FROZEN
 62
     2
 10
114.3021842435749
 20
82.073238854151043
 30
0.0
 40
0.02
  1
GRUPPO1|7|CONTINUOUS
  2
GRUPPO1
 70
     1
  0
ATTRIB
  5
13DC
  8
ASM-FROZEN
 62
     2
 10
114.3021842435749
 20
82.039905520817712
 30
0.0
 40
0.02
  1
GRUPPO2|7|CONTINUOUS
  2
GRUPPO2
 70
     1
  0
ATTRIB
  5
13DD
  8
ASM-FROZEN
 62
     2
 10
114.3021842435749
 20
82.006572187484366
 30
0.0
 40
0.02
  1
GRUPPO3|7|CONTINUOUS
  2
GRUPPO3
 70
     1
  0
ATTRIB
  5
13DE
  8
ASM-FROZEN
 62
     2
 10
114.3021842435749
 20
81.973238854151049
 30
0.0
 40
0.02
  1
GRUPPO4|7|CONTINUOUS
  2
GRUPPO4
 70
     1
  0
ATTRIB
  5
13DF
  8
ASM-FROZEN
 62
     2
 10
114.3021842435749
 20
81.939905520817703
 30
0.0
 40
0.02
  1
IMPOST|7|CONTINUOUS
  2
IMPOST
 70
     1
  0
ATTRIB
  5
13E0
  8
ASM-FROZEN
 62
     2
 10
114.3021842435749
 20
81.906572187484386
 30
0.0
 40
0.02
  1
LINEAFIN|4|CONTINUOUS
  2
LINEAFINE
 70
     1
  0
ATTRIB
  5
13E1
  8
ASM-FROZEN
 62
     2
 10
114.3021842435749
 20
81.87323885415104
 30
0.0
 40
0.02
  1
QUOTA|3|CONTINUOUS
  2
QUOTA
 70
     1
  0
ATTRIB
  5
13E2
  8
ASM-FROZEN
 62
     2
 10
114.3021842435749
 20
81.839905520817709
 30
0.0
 40
0.02
  1
SALDATUR|3|CONTINUOUS
  2
SALDATURA
 70
     1
  0
ATTRIB
  5
13E3
  8
ASM-FROZEN
  6
BYBLOCK
 62
     2
 10
114.3021842435749
 20
81.806572187484377
 30
0.0
 40
0.02
  1
SIMBPNEU|7|CONTINUOUS
  2
SIMBPNEU
 70
     1
  0
ATTRIB
  5
13E4
  8
ASM-FROZEN
 62
     2
 10
114.3021842435749
 20
81.773238854151046
 30
0.0
 40
0.02
  1
TABELLA|4|CONTINUOUS
  2
TABELLA
 70
     1
  0
ATTRIB
  5
13E5
  8
ASM-FROZEN
 62
     2
 10
114.3021842435749
 20
81.739905520817715
 30
0.0
 40
0.02
  1
TESTO|7|CONTINUOUS
  2
TESTO
 70
     1
  0
ATTRIB
  5
13E6
  8
ASM-FROZEN
 62
     2
 10
114.3021842435749
 20
81.706572187484383
 30
0.0
 40
0.02
  1
TRATTI1|2|TRATTI1
  2
TRATTI1
 70
     1
  0
ATTRIB
  5
13E7
  8
ASM-FROZEN
 62
     2
 10
114.3021842435749
 20
81.673238854151037
 30
0.0
 40
0.02
  1
TRATTI2|2|TRATTI2
  2
TRATTI2
 70
     1
  0
ATTRIB
  5
13E8
  8
ASM-FROZEN
 62
     2
 10
114.3021842435749
 20
81.639905520817706
 30
0.0
 40
0.02
  1
TRATTI3|2|TRATTI3
  2
TRATTI3
 70
     1
  0
ATTRIB
  5
13E9
  8
ASM-FROZEN
 62
     2
 10
114.3021842435749
 20
81.606572187484375
 30
0.0
 40
0.02
  1
TRATTI1F|4|TRATTI1
  2
TRATTI1F
 70
     1
  0
ATTRIB
  5
13EA
  8
ASM-FROZEN
  6
BYBLOCK
 62
     2
 10
114.3021842435749
 20
81.573238854151043
 30
0.0
 40
0.02
  1
TRATTI2F|4|TRATTI2
  2
TRATTI2F
 70
     1
  0
ATTRIB
  5
13EB
  8
ASM-FROZEN
 62
     2
 10
114.3021842435749
 20
81.539905520817697
 30
0.0
 40
0.02
  1
TRATTI3F|4|TRATTI3
  2
TRATTI3F
 70
     1
  0
ATTRIB
  5
13EC
  8
ASM-FROZEN
  6
BYBLOCK
 62
     2
 10
114.3021842435749
 20
81.50657218748438
 30
0.0
 40
0.02
  1
TRATTEGG|4|CONTINUOUS
  2
TRATTEGGIO
 70
     1
  0
SEQEND
  5
13ED
  8
ASM-FROZEN
  0
INSERT
  5
1EEE
  8
ASM-FROZEN
 66
     1
  2
ASM_CONF
 10
118.3586479200499
 20
85.058764442102031
 30
0.0
 41
0.1
 42
0.1
 43
0.1
1001
ASM_BASE
1002
{
1040
12.0
1070
     1
1010
0.0
1020
0.0
1030
0.0
1000
A
1000
ASM_CADM
1000
Fe37a
1000
null
1070
     0
1040
6.0
1040
6.0
1040
6.0
1070
    13
1040
1.7599999999999989
1000
0
1000
CADMEC_1-1
1002
}
1001
ASM_EXPLO_VER_2_00
1002
{
1040
2.0
1010
-0.57735026919
1020
-0.57735026919
1030
0.57735026919
1010
0.0
1020
0.0
1030
0.0
1002
}
  0
ATTRIB
  5
1EEF
  8
ASM-FROZEN
 62
     2
 10
119.55864792004991
 20
85.758764442102034
 30
0.0
 40
0.02
  1
ASSE1|1|ASSI1
  2
ASSE1
 70
     1
  0
ATTRIB
  5
1EF0
  8
ASM-FROZEN
 62
     2
 10
119.55864792004991
 20
85.725431108768689
 30
0.0
 40
0.02
  1
ASSE2|1|ASSI2
  2
ASSE2
 70
     1
  0
ATTRIB
  5
1EF1
  8
ASM-FROZEN
 62
     2
 10
119.55864792004991
 20
85.692097775435357
 30
0.0
 40
0.02
  1
ASSE3|1|ASSI3
  2
ASSE3
 70
     1
  0
ATTRIB
  5
1EF2
  8
ASM-FROZEN
 62
     2
 10
119.55864792004991
 20
85.658764442102026
 30
0.0
 40
0.02
  1
CONFINE|5|CONFINE
  2
CONFINE
 70
     1
  0
ATTRIB
  5
1EF3
  8
ASM-FROZEN
 62
     2
 10
119.55864792004991
 20
85.625431108768694
 30
0.0
 40
0.02
  1
CONTORNO|7|CONTINUOUS
  2
CONTORNO
 70
     1
  0
ATTRIB
  5
1EF4
  8
ASM-FROZEN
 62
     2
 10
119.55864792004991
 20
85.592097775435363
 30
0.0
 40
0.02
  1
DISTINTA|6|CONTINUOUS
  2
DISTINTA
 70
     1
  0
ATTRIB
  5
1EF5
  8
ASM-FROZEN
 62
     2
 10
119.55864792004991
 20
85.558764442102046
 30
0.0
 40
0.02
  1
GRUPPO1|7|CONTINUOUS
  2
GRUPPO1
 70
     1
  0
ATTRIB
  5
1EF6
  8
ASM-FROZEN
 62
     2
 10
119.55864792004991
 20
85.5254311087687
 30
0.0
 40
0.02
  1
GRUPPO2|7|CONTINUOUS
  2
GRUPPO2
 70
     1
  0
ATTRIB
  5
1EF7
  8
ASM-FROZEN
 62
     2
 10
119.55864792004991
 20
85.492097775435354
 30
0.0
 40
0.02
  1
GRUPPO3|7|CONTINUOUS
  2
GRUPPO3
 70
     1
  0
ATTRIB
  5
1EF8
  8
ASM-FROZEN
 62
     2
 10
119.55864792004991
 20
85.458764442102023
 30
0.0
 40
0.02
  1
GRUPPO4|7|CONTINUOUS
  2
GRUPPO4
 70
     1
  0
ATTRIB
  5
1EF9
  8
ASM-FROZEN
 62
     2
 10
119.55864792004991
 20
85.425431108768677
 30
0.0
 40
0.02
  1
IMPOST|7|CONTINUOUS
  2
IMPOST
 70
     1
  0
ATTRIB
  5
1EFA
  8
ASM-FROZEN
 62
     2
 10
119.55864792004991
 20
85.39209777543536
 30
0.0
 40
0.02
  1
LINEAFIN|4|CONTINUOUS
  2
LINEAFINE
 70
     1
  0
ATTRIB
  5
1EFB
  8
ASM-FROZEN
 62
     2
 10
119.55864792004991
 20
85.358764442102014
 30
0.0
 40
0.02
  1
QUOTA|3|CONTINUOUS
  2
QUOTA
 70
     1
  0
ATTRIB
  5
1EFC
  8
ASM-FROZEN
 62
     2
 10
119.55864792004991
 20
85.325431108768697
 30
0.0
 40
0.02
  1
SALDATUR|3|CONTINUOUS
  2
SALDATURA
 70
     1
  0
ATTRIB
  5
1EFD
  8
ASM-FROZEN
  6
BYBLOCK
 62
     2
 10
119.55864792004991
 20
85.292097775435366
 30
0.0
 40
0.02
  1
SIMBPNEU|7|CONTINUOUS
  2
SIMBPNEU
 70
     1
  0
ATTRIB
  5
1EFE
  8
ASM-FROZEN
 62
     2
 10
119.55864792004991
 20
85.258764442102034
 30
0.0
 40
0.02
  1
TABELLA|4|CONTINUOUS
  2
TABELLA
 70
     1
  0
ATTRIB
  5
1EFF
  8
ASM-FROZEN
 62
     2
 10
119.55864792004991
 20
85.225431108768703
 30
0.0
 40
0.02
  1
TESTO|7|CONTINUOUS
  2
TESTO
 70
     1
  0
ATTRIB
  5
1F00
  8
ASM-FROZEN
 62
     2
 10
119.55864792004991
 20
85.192097775435343
 30
0.0
 40
0.02
  1
TRATTI1|2|TRATTI1
  2
TRATTI1
 70
     1
  0
ATTRIB
  5
1F01
  8
ASM-FROZEN
 62
     2
 10
119.55864792004991
 20
85.158764442102026
 30
0.0
 40
0.02
  1
TRATTI2|2|TRATTI2
  2
TRATTI2
 70
     1
  0
ATTRIB
  5
1F02
  8
ASM-FROZEN
 62
     2
 10
119.55864792004991
 20
85.125431108768694
 30
0.0
 40
0.02
  1
TRATTI3|2|TRATTI3
  2
TRATTI3
 70
     1
  0
ATTRIB
  5
1F03
  8
ASM-FROZEN
 62
     2
 10
119.55864792004991
 20
85.092097775435363
 30
0.0
 40
0.02
  1
TRATTI1F|4|TRATTI1
  2
TRATTI1F
 70
     1
  0
ATTRIB
  5
1F04
  8
ASM-FROZEN
  6
BYBLOCK
 62
     2
 10
119.55864792004991
 20
85.058764442102031
 30
0.0
 40
0.02
  1
TRATTI2F|4|TRATTI2
  2
TRATTI2F
 70
     1
  0
ATTRIB
  5
1F05
  8
ASM-FROZEN
 62
     2
 10
119.55864792004991
 20
85.025431108768686
 30
0.0
 40
0.02
  1
TRATTI3F|4|TRATTI3
  2
TRATTI3F
 70
     1
  0
ATTRIB
  5
1F06
  8
ASM-FROZEN
  6
BYBLOCK
 62
     2
 10
119.55864792004991
 20
84.992097775435369
 30
0.0
 40
0.02
  1
TRATTEGG|4|CONTINUOUS
  2
TRATTEGGIO
 70
     1
  0
SEQEND
  5
1F07
  8
ASM-FROZEN
  0
INSERT
  5
1F08
  8
ASM-FROZEN
 66
     1
  2
ASM_CONF
 10
118.81745996986881
 20
85.876255899294847
 30
0.0
 41
0.1
 42
0.1
 43
0.1
1001
ASM_BASE
1002
{
1040
12.0
1070
     1
1010
0.0
1020
0.0
1030
0.0
1000
A
1000
ASM_CADM
1000
Fe37a
1000
null
1070
     0
1040
6.0
1040
6.0
1040
6.0
1070
    13
1040
1.7599999999999989
1000
0
1000
CADMEC_1-1
1002
}
1001
ASM_EXPLO_VER_2_00
1002
{
1040
2.0
1010
-0.57735026919
1020
-0.57735026919
1030
0.57735026919
1010
0.0
1020
0.0
1030
0.0
1002
}
  0
ATTRIB
  5
1F09
  8
ASM-FROZEN
 62
     2
 10
120.0174599698688
 20
86.576255899294864
 30
0.0
 40
0.02
  1
ASSE1|1|ASSI1
  2
ASSE1
 70
     1
  0
ATTRIB
  5
1F0A
  8
ASM-FROZEN
 62
     2
 10
120.0174599698688
 20
86.542922565961518
 30
0.0
 40
0.02
  1
ASSE2|1|ASSI2
  2
ASSE2
 70
     1
  0
ATTRIB
  5
1F0B
  8
ASM-FROZEN
 62
     2
 10
120.0174599698688
 20
86.509589232628187
 30
0.0
 40
0.02
  1
ASSE3|1|ASSI3
  2
ASSE3
 70
     1
  0
ATTRIB
  5
1F0C
  8
ASM-FROZEN
 62
     2
 10
120.0174599698688
 20
86.476255899294841
 30
0.0
 40
0.02
  1
CONFINE|5|CONFINE
  2
CONFINE
 70
     1
  0
ATTRIB
  5
1F0D
  8
ASM-FROZEN
 62
     2
 10
120.0174599698688
 20
86.442922565961496
 30
0.0
 40
0.02
  1
CONTORNO|7|CONTINUOUS
  2
CONTORNO
 70
     1
  0
ATTRIB
  5
1F0E
  8
ASM-FROZEN
 62
     2
 10
120.0174599698688
 20
86.409589232628178
 30
0.0
 40
0.02
  1
DISTINTA|6|CONTINUOUS
  2
DISTINTA
 70
     1
  0
ATTRIB
  5
1F0F
  8
ASM-FROZEN
 62
     2
 10
120.0174599698688
 20
86.376255899294847
 30
0.0
 40
0.02
  1
GRUPPO1|7|CONTINUOUS
  2
GRUPPO1
 70
     1
  0
ATTRIB
  5
1F10
  8
ASM-FROZEN
 62
     2
 10
120.0174599698688
 20
86.342922565961516
 30
0.0
 40
0.02
  1
GRUPPO2|7|CONTINUOUS
  2
GRUPPO2
 70
     1
  0
ATTRIB
  5
1F11
  8
ASM-FROZEN
 62
     2
 10
120.0174599698688
 20
86.309589232628184
 30
0.0
 40
0.02
  1
GRUPPO3|7|CONTINUOUS
  2
GRUPPO3
 70
     1
  0
ATTRIB
  5
1F12
  8
ASM-FROZEN
 62
     2
 10
120.0174599698688
 20
86.276255899294839
 30
0.0
 40
0.02
  1
GRUPPO4|7|CONTINUOUS
  2
GRUPPO4
 70
     1
  0
ATTRIB
  5
1F13
  8
ASM-FROZEN
 62
     2
 10
120.0174599698688
 20
86.242922565961521
 30
0.0
 40
0.02
  1
IMPOST|7|CONTINUOUS
  2
IMPOST
 70
     1
  0
ATTRIB
  5
1F14
  8
ASM-FROZEN
 62
     2
 10
120.0174599698688
 20
86.209589232628176
 30
0.0
 40
0.02
  1
LINEAFIN|4|CONTINUOUS
  2
LINEAFINE
 70
     1
  0
ATTRIB
  5
1F15
  8
ASM-FROZEN
 62
     2
 10
120.0174599698688
 20
86.176255899294844
 30
0.0
 40
0.02
  1
QUOTA|3|CONTINUOUS
  2
QUOTA
 70
     1
  0
ATTRIB
  5
1F16
  8
ASM-FROZEN
 62
     2
 10
120.0174599698688
 20
86.142922565961513
 30
0.0
 40
0.02
  1
SALDATUR|3|CONTINUOUS
  2
SALDATURA
 70
     1
  0
ATTRIB
  5
1F17
  8
ASM-FROZEN
  6
BYBLOCK
 62
     2
 10
120.0174599698688
 20
86.109589232628196
 30
0.0
 40
0.02
  1
SIMBPNEU|7|CONTINUOUS
  2
SIMBPNEU
 70
     1
  0
ATTRIB
  5
1F18
  8
ASM-FROZEN
 62
     2
 10
120.0174599698688
 20
86.07625589929485
 30
0.0
 40
0.02
  1
TABELLA|4|CONTINUOUS
  2
TABELLA
 70
     1
  0
ATTRIB
  5
1F19
  8
ASM-FROZEN
 62
     2
 10
120.0174599698688
 20
86.042922565961504
 30
0.0
 40
0.02
  1
TESTO|7|CONTINUOUS
  2
TESTO
 70
     1
  0
ATTRIB
  5
1F1A
  8
ASM-FROZEN
 62
     2
 10
120.0174599698688
 20
86.009589232628187
 30
0.0
 40
0.02
  1
TRATTI1|2|TRATTI1
  2
TRATTI1
 70
     1
  0
ATTRIB
  5
1F1B
  8
ASM-FROZEN
 62
     2
 10
120.0174599698688
 20
85.976255899294827
 30
0.0
 40
0.02
  1
TRATTI2|2|TRATTI2
  2
TRATTI2
 70
     1
  0
ATTRIB
  5
1F1C
  8
ASM-FROZEN
 62
     2
 10
120.0174599698688
 20
85.94292256596151
 30
0.0
 40
0.02
  1
TRATTI3|2|TRATTI3
  2
TRATTI3
 70
     1
  0
ATTRIB
  5
1F1D
  8
ASM-FROZEN
 62
     2
 10
120.0174599698688
 20
85.909589232628164
 30
0.0
 40
0.02
  1
TRATTI1F|4|TRATTI1
  2
TRATTI1F
 70
     1
  0
ATTRIB
  5
1F1E
  8
ASM-FROZEN
  6
BYBLOCK
 62
     2
 10
120.0174599698688
 20
85.876255899294847
 30
0.0
 40
0.02
  1
TRATTI2F|4|TRATTI2
  2
TRATTI2F
 70
     1
  0
ATTRIB
  5
1F1F
  8
ASM-FROZEN
 62
     2
 10
120.0174599698688
 20
85.842922565961516
 30
0.0
 40
0.02
  1
TRATTI3F|4|TRATTI3
  2
TRATTI3F
 70
     1
  0
ATTRIB
  5
1F20
  8
ASM-FROZEN
  6
BYBLOCK
 62
     2
 10
120.0174599698688
 20
85.809589232628184
 30
0.0
 40
0.02
  1
TRATTEGG|4|CONTINUOUS
  2
TRATTEGGIO
 70
     1
  0
SEQEND
  5
1F21
  8
ASM-FROZEN
  0
INSERT
  5
1F22
  8
ASM-FROZEN
 66
     1
  2
ASM_CONF
 10
117.63784843664691
 20
84.840541580052943
 30
0.0
 41
0.1
 42
0.1
 43
0.1
1001
ASM_BASE
1002
{
1040
12.0
1070
     1
1010
0.0
1020
0.0
1030
0.0
1000
A
1000
ASM_CADM
1000
Fe37a
1000
null
1070
     0
1040
6.0
1040
6.0
1040
6.0
1070
    13
1040
1.7599999999999989
1000
0
1000
CADMEC_1-1
1002
}
1001
ASM_EXPLO_VER_2_00
1002
{
1040
2.0
1010
-0.57735026919
1020
-0.57735026919
1030
0.57735026919
1010
0.0
1020
0.0
1030
0.0
1002
}
  0
ATTRIB
  5
1F23
  8
ASM-FROZEN
 62
     2
 10
118.83784843664689
 20
85.540541580052945
 30
0.0
 40
0.02
  1
ASSE1|1|ASSI1
  2
ASSE1
 70
     1
  0
ATTRIB
  5
1F24
  8
ASM-FROZEN
 62
     2
 10
118.83784843664689
 20
85.507208246719614
 30
0.0
 40
0.02
  1
ASSE2|1|ASSI2
  2
ASSE2
 70
     1
  0
ATTRIB
  5
1F25
  8
ASM-FROZEN
 62
     2
 10
118.83784843664689
 20
85.473874913386283
 30
0.0
 40
0.02
  1
ASSE3|1|ASSI3
  2
ASSE3
 70
     1
  0
ATTRIB
  5
1F26
  8
ASM-FROZEN
 62
     2
 10
118.83784843664689
 20
85.440541580052951
 30
0.0
 40
0.02
  1
CONFINE|5|CONFINE
  2
CONFINE
 70
     1
  0
ATTRIB
  5
1F27
  8
ASM-FROZEN
 62
     2
 10
118.83784843664689
 20
85.407208246719605
 30
0.0
 40
0.02
  1
CONTORNO|7|CONTINUOUS
  2
CONTORNO
 70
     1
  0
ATTRIB
  5
1F28
  8
ASM-FROZEN
 62
     2
 10
118.83784843664689
 20
85.373874913386274
 30
0.0
 40
0.02
  1
DISTINTA|6|CONTINUOUS
  2
DISTINTA
 70
     1
  0
ATTRIB
  5
1F29
  8
ASM-FROZEN
 62
     2
 10
118.83784843664689
 20
85.340541580052957
 30
0.0
 40
0.02
  1
GRUPPO1|7|CONTINUOUS
  2
GRUPPO1
 70
     1
  0
ATTRIB
  5
1F2A
  8
ASM-FROZEN
 62
     2
 10
118.83784843664689
 20
85.307208246719611
 30
0.0
 40
0.02
  1
GRUPPO2|7|CONTINUOUS
  2
GRUPPO2
 70
     1
  0
ATTRIB
  5
1F2B
  8
ASM-FROZEN
 62
     2
 10
118.83784843664689
 20
85.273874913386265
 30
0.0
 40
0.02
  1
GRUPPO3|7|CONTINUOUS
  2
GRUPPO3
 70
     1
  0
ATTRIB
  5
1F2C
  8
ASM-FROZEN
 62
     2
 10
118.83784843664689
 20
85.240541580052948
 30
0.0
 40
0.02
  1
GRUPPO4|7|CONTINUOUS
  2
GRUPPO4
 70
     1
  0
ATTRIB
  5
1F2D
  8
ASM-FROZEN
 62
     2
 10
118.83784843664689
 20
85.207208246719617
 30
0.0
 40
0.02
  1
IMPOST|7|CONTINUOUS
  2
IMPOST
 70
     1
  0
ATTRIB
  5
1F2E
  8
ASM-FROZEN
 62
     2
 10
118.83784843664689
 20
85.173874913386285
 30
0.0
 40
0.02
  1
LINEAFIN|4|CONTINUOUS
  2
LINEAFINE
 70
     1
  0
ATTRIB
  5
1F2F
  8
ASM-FROZEN
 62
     2
 10
118.83784843664689
 20
85.140541580052925
 30
0.0
 40
0.02
  1
QUOTA|3|CONTINUOUS
  2
QUOTA
 70
     1
  0
ATTRIB
  5
1F30
  8
ASM-FROZEN
 62
     2
 10
118.83784843664689
 20
85.107208246719608
 30
0.0
 40
0.02
  1
SALDATUR|3|CONTINUOUS
  2
SALDATURA
 70
     1
  0
ATTRIB
  5
1F31
  8
ASM-FROZEN
  6
BYBLOCK
 62
     2
 10
118.83784843664689
 20
85.073874913386277
 30
0.0
 40
0.02
  1
SIMBPNEU|7|CONTINUOUS
  2
SIMBPNEU
 70
     1
  0
ATTRIB
  5
1F32
  8
ASM-FROZEN
 62
     2
 10
118.83784843664689
 20
85.040541580052945
 30
0.0
 40
0.02
  1
TABELLA|4|CONTINUOUS
  2
TABELLA
 70
     1
  0
ATTRIB
  5
1F33
  8
ASM-FROZEN
 62
     2
 10
118.83784843664689
 20
85.007208246719614
 30
0.0
 40
0.02
  1
TESTO|7|CONTINUOUS
  2
TESTO
 70
     1
  0
ATTRIB
  5
1F34
  8
ASM-FROZEN
 62
     2
 10
118.83784843664689
 20
84.973874913386283
 30
0.0
 40
0.02
  1
TRATTI1|2|TRATTI1
  2
TRATTI1
 70
     1
  0
ATTRIB
  5
1F35
  8
ASM-FROZEN
 62
     2
 10
118.83784843664689
 20
84.940541580052965
 30
0.0
 40
0.02
  1
TRATTI2|2|TRATTI2
  2
TRATTI2
 70
     1
  0
ATTRIB
  5
1F36
  8
ASM-FROZEN
 62
     2
 10
118.83784843664689
 20
84.90720824671962
 30
0.0
 40
0.02
  1
TRATTI3|2|TRATTI3
  2
TRATTI3
 70
     1
  0
ATTRIB
  5
1F37
  8
ASM-FROZEN
 62
     2
 10
118.83784843664689
 20
84.873874913386274
 30
0.0
 40
0.02
  1
TRATTI1F|4|TRATTI1
  2
TRATTI1F
 70
     1
  0
ATTRIB
  5
1F38
  8
ASM-FROZEN
  6
BYBLOCK
 62
     2
 10
118.83784843664689
 20
84.840541580052943
 30
0.0
 40
0.02
  1
TRATTI2F|4|TRATTI2
  2
TRATTI2F
 70
     1
  0
ATTRIB
  5
1F39
  8
ASM-FROZEN
 62
     2
 10
118.83784843664689
 20
84.807208246719597
 30
0.0
 40
0.02
  1
TRATTI3F|4|TRATTI3
  2
TRATTI3F
 70
     1
  0
ATTRIB
  5
1F3A
  8
ASM-FROZEN
  6
BYBLOCK
 62
     2
 10
118.83784843664689
 20
84.77387491338628
 30
0.0
 40
0.02
  1
TRATTEGG|4|CONTINUOUS
  2
TRATTEGGIO
 70
     1
  0
SEQEND
  5
1F3B
  8
ASM-FROZEN
  0
INSERT
  5
1F3C
  8
ASM-FROZEN
 66
     1
  2
ASM_CONF
 10
121.5698869046338
 20
86.519113006761728
 30
0.0
 41
0.1
 42
0.1
 43
0.1
1001
ASM_BASE
1002
{
1040
12.0
1070
     1
1010
0.0
1020
0.0
1030
0.0
1000
A
1000
ASM_CADM
1000
Fe37a
1000
null
1070
     0
1040
6.0
1040
6.0
1040
6.0
1070
    13
1040
1.7599999999999989
1000
0
1000
CADMEC_1-1
1002
}
1001
ASM_EXPLO_VER_2_00
1002
{
1040
2.0
1010
-0.57735026919
1020
-0.57735026919
1030
0.57735026919
1010
0.0
1020
0.0
1030
0.0
1002
}
  0
ATTRIB
  5
1F3D
  8
ASM-FROZEN
 62
     2
 10
122.76988690463379
 20
87.219113006761745
 30
0.0
 40
0.02
  1
ASSE1|1|ASSI1
  2
ASSE1
 70
     1
  0
ATTRIB
  5
1F3E
  8
ASM-FROZEN
 62
     2
 10
122.76988690463379
 20
87.185779673428399
 30
0.0
 40
0.02
  1
ASSE2|1|ASSI2
  2
ASSE2
 70
     1
  0
ATTRIB
  5
1F3F
  8
ASM-FROZEN
 62
     2
 10
122.76988690463379
 20
87.152446340095054
 30
0.0
 40
0.02
  1
ASSE3|1|ASSI3
  2
ASSE3
 70
     1
  0
ATTRIB
  5
1F40
  8
ASM-FROZEN
 62
     2
 10
122.76988690463379
 20
87.119113006761737
 30
0.0
 40
0.02
  1
CONFINE|5|CONFINE
  2
CONFINE
 70
     1
  0
ATTRIB
  5
1F41
  8
ASM-FROZEN
 62
     2
 10
122.76988690463379
 20
87.085779673428405
 30
0.0
 40
0.02
  1
CONTORNO|7|CONTINUOUS
  2
CONTORNO
 70
     1
  0
ATTRIB
  5
1F42
  8
ASM-FROZEN
 62
     2
 10
122.76988690463379
 20
87.052446340095074
 30
0.0
 40
0.02
  1
DISTINTA|6|CONTINUOUS
  2
DISTINTA
 70
     1
  0
ATTRIB
  5
1F43
  8
ASM-FROZEN
 62
     2
 10
122.76988690463379
 20
87.019113006761714
 30
0.0
 40
0.02
  1
GRUPPO1|7|CONTINUOUS
  2
GRUPPO1
 70
     1
  0
ATTRIB
  5
1F44
  8
ASM-FROZEN
 62
     2
 10
122.76988690463379
 20
86.985779673428397
 30
0.0
 40
0.02
  1
GRUPPO2|7|CONTINUOUS
  2
GRUPPO2
 70
     1
  0
ATTRIB
  5
1F45
  8
ASM-FROZEN
 62
     2
 10
122.76988690463379
 20
86.952446340095065
 30
0.0
 40
0.02
  1
GRUPPO3|7|CONTINUOUS
  2
GRUPPO3
 70
     1
  0
ATTRIB
  5
1F46
  8
ASM-FROZEN
 62
     2
 10
122.76988690463379
 20
86.919113006761734
 30
0.0
 40
0.02
  1
GRUPPO4|7|CONTINUOUS
  2
GRUPPO4
 70
     1
  0
ATTRIB
  5
1F47
  8
ASM-FROZEN
 62
     2
 10
122.76988690463379
 20
86.885779673428402
 30
0.0
 40
0.02
  1
IMPOST|7|CONTINUOUS
  2
IMPOST
 70
     1
  0
ATTRIB
  5
1F48
  8
ASM-FROZEN
 62
     2
 10
122.76988690463379
 20
86.852446340095071
 30
0.0
 40
0.02
  1
LINEAFIN|4|CONTINUOUS
  2
LINEAFINE
 70
     1
  0
ATTRIB
  5
1F49
  8
ASM-FROZEN
 62
     2
 10
122.76988690463379
 20
86.819113006761754
 30
0.0
 40
0.02
  1
QUOTA|3|CONTINUOUS
  2
QUOTA
 70
     1
  0
ATTRIB
  5
1F4A
  8
ASM-FROZEN
 62
     2
 10
122.76988690463379
 20
86.785779673428408
 30
0.0
 40
0.02
  1
SALDATUR|3|CONTINUOUS
  2
SALDATURA
 70
     1
  0
ATTRIB
  5
1F4B
  8
ASM-FROZEN
  6
BYBLOCK
 62
     2
 10
122.76988690463379
 20
86.752446340095076
 30
0.0
 40
0.02
  1
SIMBPNEU|7|CONTINUOUS
  2
SIMBPNEU
 70
     1
  0
ATTRIB
  5
1F4C
  8
ASM-FROZEN
 62
     2
 10
122.76988690463379
 20
86.719113006761731
 30
0.0
 40
0.02
  1
TABELLA|4|CONTINUOUS
  2
TABELLA
 70
     1
  0
ATTRIB
  5
1F4D
  8
ASM-FROZEN
 62
     2
 10
122.76988690463379
 20
86.685779673428385
 30
0.0
 40
0.02
  1
TESTO|7|CONTINUOUS
  2
TESTO
 70
     1
  0
ATTRIB
  5
1F4E
  8
ASM-FROZEN
 62
     2
 10
122.76988690463379
 20
86.652446340095068
 30
0.0
 40
0.02
  1
TRATTI1|2|TRATTI1
  2
TRATTI1
 70
     1
  0
ATTRIB
  5
1F4F
  8
ASM-FROZEN
 62
     2
 10
122.76988690463379
 20
86.619113006761737
 30
0.0
 40
0.02
  1
TRATTI2|2|TRATTI2
  2
TRATTI2
 70
     1
  0
ATTRIB
  5
1F50
  8
ASM-FROZEN
 62
     2
 10
122.76988690463379
 20
86.585779673428405
 30
0.0
 40
0.02
  1
TRATTI3|2|TRATTI3
  2
TRATTI3
 70
     1
  0
ATTRIB
  5
1F51
  8
ASM-FROZEN
 62
     2
 10
122.76988690463379
 20
86.552446340095074
 30
0.0
 40
0.02
  1
TRATTI1F|4|TRATTI1
  2
TRATTI1F
 70
     1
  0
ATTRIB
  5
1F52
  8
ASM-FROZEN
  6
BYBLOCK
 62
     2
 10
122.76988690463379
 20
86.519113006761728
 30
0.0
 40
0.02
  1
TRATTI2F|4|TRATTI2
  2
TRATTI2F
 70
     1
  0
ATTRIB
  5
1F53
  8
ASM-FROZEN
 62
     2
 10
122.76988690463379
 20
86.485779673428397
 30
0.0
 40
0.02
  1
TRATTI3F|4|TRATTI3
  2
TRATTI3F
 70
     1
  0
ATTRIB
  5
1F54
  8
ASM-FROZEN
  6
BYBLOCK
 62
     2
 10
122.76988690463379
 20
86.452446340095065
 30
0.0
 40
0.02
  1
TRATTEGG|4|CONTINUOUS
  2
TRATTEGGIO
 70
     1
  0
SEQEND
  5
1F55
  8
ASM-FROZEN
  0
INSERT
  5
2008
  8
ASM-FROZEN
 66
     1
  2
ASM_CONF
 10
110.3428148254294
 20
84.077999196058329
 30
0.0
 41
0.01
 42
0.01
 43
0.01
1001
ASM_BASE
1002
{
1040
12.0
1070
     1
1010
0.0
1020
0.0
1030
0.0
1000
A
1000
ASM_CADM
1000
Fe37a
1000
null
1070
     0
1040
6.0
1040
6.0
1040
6.0
1070
    13
1040
1.7599999999999989
1000
0
1000
CADMEC_1-1
1002
}
1001
ASM_EXPLO_VER_2_00
1002
{
1040
2.0
1010
-0.57735026919
1020
-0.57735026919
1030
0.57735026919
1010
0.0
1020
0.0
1030
0.0
1002
}
  0
ATTRIB
  5
2009
  8
ASM-FROZEN
 62
     2
 10
110.4628148254294
 20
84.147999196058308
 30
0.0
 40
0.002
  1
ASSE1|1|ASSI1
  2
ASSE1
 70
     1
  0
ATTRIB
  5
200A
  8
ASM-FROZEN
 62
     2
 10
110.4628148254294
 20
84.144665862724992
 30
0.0
 40
0.002
  1
ASSE2|1|ASSI2
  2
ASSE2
 70
     1
  0
ATTRIB
  5
200B
  8
ASM-FROZEN
 62
     2
 10
110.4628148254294
 20
84.141332529391661
 30
0.0
 40
0.002
  1
ASSE3|1|ASSI3
  2
ASSE3
 70
     1
  0
ATTRIB
  5
200C
  8
ASM-FROZEN
 62
     2
 10
110.4628148254294
 20
84.137999196058345
 30
0.0
 40
0.002
  1
CONFINE|5|CONFINE
  2
CONFINE
 70
     1
  0
ATTRIB
  5
200D
  8
ASM-FROZEN
 62
     2
 10
110.4628148254294
 20
84.134665862725001
 30
0.0
 40
0.002
  1
CONTORNO|7|CONTINUOUS
  2
CONTORNO
 70
     1
  0
ATTRIB
  5
200E
  8
ASM-FROZEN
 62
     2
 10
110.4628148254294
 20
84.131332529391656
 30
0.0
 40
0.002
  1
DISTINTA|6|CONTINUOUS
  2
DISTINTA
 70
     1
  0
ATTRIB
  5
200F
  8
ASM-FROZEN
 62
     2
 10
110.4628148254294
 20
84.127999196058326
 30
0.0
 40
0.002
  1
GRUPPO1|7|CONTINUOUS
  2
GRUPPO1
 70
     1
  0
ATTRIB
  5
2010
  8
ASM-FROZEN
 62
     2
 10
110.4628148254294
 20
84.124665862724996
 30
0.0
 40
0.002
  1
GRUPPO2|7|CONTINUOUS
  2
GRUPPO2
 70
     1
  0
ATTRIB
  5
2011
  8
ASM-FROZEN
 62
     2
 10
110.4628148254294
 20
84.121332529391665
 30
0.0
 40
0.002
  1
GRUPPO3|7|CONTINUOUS
  2
GRUPPO3
 70
     1
  0
ATTRIB
  5
2012
  8
ASM-FROZEN
 62
     2
 10
110.4628148254294
 20
84.117999196058307
 30
0.0
 40
0.002
  1
GRUPPO4|7|CONTINUOUS
  2
GRUPPO4
 70
     1
  0
ATTRIB
  5
2013
  8
ASM-FROZEN
 62
     2
 10
110.4628148254294
 20
84.114665862724991
 30
0.0
 40
0.002
  1
IMPOST|7|CONTINUOUS
  2
IMPOST
 70
     1
  0
ATTRIB
  5
2014
  8
ASM-FROZEN
 62
     2
 10
110.4628148254294
 20
84.11133252939166
 30
0.0
 40
0.002
  1
LINEAFIN|4|CONTINUOUS
  2
LINEAFINE
 70
     1
  0
ATTRIB
  5
2015
  8
ASM-FROZEN
 62
     2
 10
110.4628148254294
 20
84.107999196058344
 30
0.0
 40
0.002
  1
QUOTA|3|CONTINUOUS
  2
QUOTA
 70
     1
  0
ATTRIB
  5
2016
  8
ASM-FROZEN
 62
     2
 10
110.4628148254294
 20
84.104665862725
 30
0.0
 40
0.002
  1
SALDATUR|3|CONTINUOUS
  2
SALDATURA
 70
     1
  0
ATTRIB
  5
2017
  8
ASM-FROZEN
  6
BYBLOCK
 62
     2
 10
110.4628148254294
 20
84.101332529391655
 30
0.0
 40
0.002
  1
SIMBPNEU|7|CONTINUOUS
  2
SIMBPNEU
 70
     1
  0
ATTRIB
  5
2018
  8
ASM-FROZEN
 62
     2
 10
110.4628148254294
 20
84.097999196058325
 30
0.0
 40
0.002
  1
TABELLA|4|CONTINUOUS
  2
TABELLA
 70
     1
  0
ATTRIB
  5
2019
  8
ASM-FROZEN
 62
     2
 10
110.4628148254294
 20
84.094665862724995
 30
0.0
 40
0.002
  1
TESTO|7|CONTINUOUS
  2
TESTO
 70
     1
  0
ATTRIB
  5
201A
  8
ASM-FROZEN
 62
     2
 10
110.4628148254294
 20
84.091332529391664
 30
0.0
 40
0.002
  1
TRATTI1|2|TRATTI1
  2
TRATTI1
 70
     1
  0
ATTRIB
  5
201B
  8
ASM-FROZEN
 62
     2
 10
110.4628148254294
 20
84.087999196058306
 30
0.0
 40
0.002
  1
TRATTI2|2|TRATTI2
  2
TRATTI2
 70
     1
  0
ATTRIB
  5
201C
  8
ASM-FROZEN
 62
     2
 10
110.4628148254294
 20
84.084665862724989
 30
0.0
 40
0.002
  1
TRATTI3|2|TRATTI3
  2
TRATTI3
 70
     1
  0
ATTRIB
  5
201D
  8
ASM-FROZEN
 62
     2
 10
110.4628148254294
 20
84.081332529391645
 30
0.0
 40
0.002
  1
TRATTI1F|4|TRATTI1
  2
TRATTI1F
 70
     1
  0
ATTRIB
  5
201E
  8
ASM-FROZEN
  6
BYBLOCK
 62
     2
 10
110.4628148254294
 20
84.077999196058329
 30
0.0
 40
0.002
  1
TRATTI2F|4|TRATTI2
  2
TRATTI2F
 70
     1
  0
ATTRIB
  5
201F
  8
ASM-FROZEN
 62
     2
 10
110.4628148254294
 20
84.074665862724999
 30
0.0
 40
0.002
  1
TRATTI3F|4|TRATTI3
  2
TRATTI3F
 70
     1
  0
ATTRIB
  5
2020
  8
ASM-FROZEN
  6
BYBLOCK
 62
     2
 10
110.4628148254294
 20
84.071332529391654
 30
0.0
 40
0.002
  1
TRATTEGG|4|CONTINUOUS
  2
TRATTEGGIO
 70
     1
  0
SEQEND
  5
2021
  8
ASM-FROZEN
  0
INSERT
  5
2022
  8
ASM-FROZEN
 66
     1
  2
ASM_CONF
 10
110.3886960304113
 20
84.159748341777615
 30
0.0
 41
0.01
 42
0.01
 43
0.01
1001
ASM_BASE
1002
{
1040
12.0
1070
     1
1010
0.0
1020
0.0
1030
0.0
1000
A
1000
ASM_CADM
1000
Fe37a
1000
null
1070
     0
1040
6.0
1040
6.0
1040
6.0
1070
    13
1040
1.7599999999999989
1000
0
1000
CADMEC_1-1
1002
}
1001
ASM_EXPLO_VER_2_00
1002
{
1040
2.0
1010
-0.57735026919
1020
-0.57735026919
1030
0.57735026919
1010
0.0
1020
0.0
1030
0.0
1002
}
  0
ATTRIB
  5
2023
  8
ASM-FROZEN
 62
     2
 10
110.5086960304113
 20
84.229748341777608
 30
0.0
 40
0.002
  1
ASSE1|1|ASSI1
  2
ASSE1
 70
     1
  0
ATTRIB
  5
2024
  8
ASM-FROZEN
 62
     2
 10
110.5086960304113
 20
84.226415008444263
 30
0.0
 40
0.002
  1
ASSE2|1|ASSI2
  2
ASSE2
 70
     1
  0
ATTRIB
  5
2025
  8
ASM-FROZEN
 62
     2
 10
110.5086960304113
 20
84.223081675110947
 30
0.0
 40
0.002
  1
ASSE3|1|ASSI3
  2
ASSE3
 70
     1
  0
ATTRIB
  5
2026
  8
ASM-FROZEN
 62
     2
 10
110.5086960304113
 20
84.219748341777603
 30
0.0
 40
0.002
  1
CONFINE|5|CONFINE
  2
CONFINE
 70
     1
  0
ATTRIB
  5
2027
  8
ASM-FROZEN
 62
     2
 10
110.5086960304113
 20
84.216415008444287
 30
0.0
 40
0.002
  1
CONTORNO|7|CONTINUOUS
  2
CONTORNO
 70
     1
  0
ATTRIB
  5
2028
  8
ASM-FROZEN
 62
     2
 10
110.5086960304113
 20
84.213081675110942
 30
0.0
 40
0.002
  1
DISTINTA|6|CONTINUOUS
  2
DISTINTA
 70
     1
  0
ATTRIB
  5
2029
  8
ASM-FROZEN
 62
     2
 10
110.5086960304113
 20
84.209748341777598
 30
0.0
 40
0.002
  1
GRUPPO1|7|CONTINUOUS
  2
GRUPPO1
 70
     1
  0
ATTRIB
  5
202A
  8
ASM-FROZEN
 62
     2
 10
110.5086960304113
 20
84.206415008444282
 30
0.0
 40
0.002
  1
GRUPPO2|7|CONTINUOUS
  2
GRUPPO2
 70
     1
  0
ATTRIB
  5
202B
  8
ASM-FROZEN
 62
     2
 10
110.5086960304113
 20
84.203081675110937
 30
0.0
 40
0.002
  1
GRUPPO3|7|CONTINUOUS
  2
GRUPPO3
 70
     1
  0
ATTRIB
  5
202C
  8
ASM-FROZEN
 62
     2
 10
110.5086960304113
 20
84.199748341777607
 30
0.0
 40
0.002
  1
GRUPPO4|7|CONTINUOUS
  2
GRUPPO4
 70
     1
  0
ATTRIB
  5
202D
  8
ASM-FROZEN
 62
     2
 10
110.5086960304113
 20
84.196415008444276
 30
0.0
 40
0.002
  1
IMPOST|7|CONTINUOUS
  2
IMPOST
 70
     1
  0
ATTRIB
  5
202E
  8
ASM-FROZEN
 62
     2
 10
110.5086960304113
 20
84.193081675110946
 30
0.0
 40
0.002
  1
LINEAFIN|4|CONTINUOUS
  2
LINEAFINE
 70
     1
  0
ATTRIB
  5
202F
  8
ASM-FROZEN
 62
     2
 10
110.5086960304113
 20
84.189748341777602
 30
0.0
 40
0.002
  1
QUOTA|3|CONTINUOUS
  2
QUOTA
 70
     1
  0
ATTRIB
  5
2030
  8
ASM-FROZEN
 62
     2
 10
110.5086960304113
 20
84.186415008444285
 30
0.0
 40
0.002
  1
SALDATUR|3|CONTINUOUS
  2
SALDATURA
 70
     1
  0
ATTRIB
  5
2031
  8
ASM-FROZEN
  6
BYBLOCK
 62
     2
 10
110.5086960304113
 20
84.183081675110941
 30
0.0
 40
0.002
  1
SIMBPNEU|7|CONTINUOUS
  2
SIMBPNEU
 70
     1
  0
ATTRIB
  5
2032
  8
ASM-FROZEN
 62
     2
 10
110.5086960304113
 20
84.179748341777596
 30
0.0
 40
0.002
  1
TABELLA|4|CONTINUOUS
  2
TABELLA
 70
     1
  0
ATTRIB
  5
2033
  8
ASM-FROZEN
 62
     2
 10
110.5086960304113
 20
84.17641500844428
 30
0.0
 40
0.002
  1
TESTO|7|CONTINUOUS
  2
TESTO
 70
     1
  0
ATTRIB
  5
2034
  8
ASM-FROZEN
 62
     2
 10
110.5086960304113
 20
84.173081675110936
 30
0.0
 40
0.002
  1
TRATTI1|2|TRATTI1
  2
TRATTI1
 70
     1
  0
ATTRIB
  5
2035
  8
ASM-FROZEN
 62
     2
 10
110.5086960304113
 20
84.169748341777606
 30
0.0
 40
0.002
  1
TRATTI2|2|TRATTI2
  2
TRATTI2
 70
     1
  0
ATTRIB
  5
2036
  8
ASM-FROZEN
 62
     2
 10
110.5086960304113
 20
84.166415008444275
 30
0.0
 40
0.002
  1
TRATTI3|2|TRATTI3
  2
TRATTI3
 70
     1
  0
ATTRIB
  5
2037
  8
ASM-FROZEN
 62
     2
 10
110.5086960304113
 20
84.163081675110945
 30
0.0
 40
0.002
  1
TRATTI1F|4|TRATTI1
  2
TRATTI1F
 70
     1
  0
ATTRIB
  5
2038
  8
ASM-FROZEN
  6
BYBLOCK
 62
     2
 10
110.5086960304113
 20
84.159748341777615
 30
0.0
 40
0.002
  1
TRATTI2F|4|TRATTI2
  2
TRATTI2F
 70
     1
  0
ATTRIB
  5
2039
  8
ASM-FROZEN
 62
     2
 10
110.5086960304113
 20
84.156415008444284
 30
0.0
 40
0.002
  1
TRATTI3F|4|TRATTI3
  2
TRATTI3F
 70
     1
  0
ATTRIB
  5
203A
  8
ASM-FROZEN
  6
BYBLOCK
 62
     2
 10
110.5086960304113
 20
84.15308167511094
 30
0.0
 40
0.002
  1
TRATTEGG|4|CONTINUOUS
  2
TRATTEGGIO
 70
     1
  0
SEQEND
  5
203B
  8
ASM-FROZEN
  0
INSERT
  5
203C
  8
ASM-FROZEN
 66
     1
  2
ASM_CONF
 10
110.2707348770891
 20
84.056176909853434
 30
0.0
 41
0.01
 42
0.01
 43
0.01
1001
ASM_BASE
1002
{
1040
12.0
1070
     1
1010
0.0
1020
0.0
1030
0.0
1000
A
1000
ASM_CADM
1000
Fe37a
1000
null
1070
     0
1040
6.0
1040
6.0
1040
6.0
1070
    13
1040
1.7599999999999989
1000
0
1000
CADMEC_1-1
1002
}
1001
ASM_EXPLO_VER_2_00
1002
{
1040
2.0
1010
-0.57735026919
1020
-0.57735026919
1030
0.57735026919
1010
0.0
1020
0.0
1030
0.0
1002
}
  0
ATTRIB
  5
203D
  8
ASM-FROZEN
 62
     2
 10
110.3907348770891
 20
84.126176909853399
 30
0.0
 40
0.002
  1
ASSE1|1|ASSI1
  2
ASSE1
 70
     1
  0
ATTRIB
  5
203E
  8
ASM-FROZEN
 62
     2
 10
110.3907348770891
 20
84.122843576520083
 30
0.0
 40
0.002
  1
ASSE2|1|ASSI2
  2
ASSE2
 70
     1
  0
ATTRIB
  5
203F
  8
ASM-FROZEN
 62
     2
 10
110.3907348770891
 20
84.119510243186753
 30
0.0
 40
0.002
  1
ASSE3|1|ASSI3
  2
ASSE3
 70
     1
  0
ATTRIB
  5
2040
  8
ASM-FROZEN
 62
     2
 10
110.3907348770891
 20
84.116176909853436
 30
0.0
 40
0.002
  1
CONFINE|5|CONFINE
  2
CONFINE
 70
     1
  0
ATTRIB
  5
2041
  8
ASM-FROZEN
 62
     2
 10
110.3907348770891
 20
84.112843576520063
 30
0.0
 40
0.002
  1
CONTORNO|7|CONTINUOUS
  2
CONTORNO
 70
     1
  0
ATTRIB
  5
2042
  8
ASM-FROZEN
 62
     2
 10
110.3907348770891
 20
84.109510243186747
 30
0.0
 40
0.002
  1
DISTINTA|6|CONTINUOUS
  2
DISTINTA
 70
     1
  0
ATTRIB
  5
2043
  8
ASM-FROZEN
 62
     2
 10
110.3907348770891
 20
84.106176909853417
 30
0.0
 40
0.002
  1
GRUPPO1|7|CONTINUOUS
  2
GRUPPO1
 70
     1
  0
ATTRIB
  5
2044
  8
ASM-FROZEN
 62
     2
 10
110.3907348770891
 20
84.102843576520087
 30
0.0
 40
0.002
  1
GRUPPO2|7|CONTINUOUS
  2
GRUPPO2
 70
     1
  0
ATTRIB
  5
2045
  8
ASM-FROZEN
 62
     2
 10
110.3907348770891
 20
84.099510243186756
 30
0.0
 40
0.002
  1
GRUPPO3|7|CONTINUOUS
  2
GRUPPO3
 70
     1
  0
ATTRIB
  5
2046
  8
ASM-FROZEN
 62
     2
 10
110.3907348770891
 20
84.096176909853398
 30
0.0
 40
0.002
  1
GRUPPO4|7|CONTINUOUS
  2
GRUPPO4
 70
     1
  0
ATTRIB
  5
2047
  8
ASM-FROZEN
 62
     2
 10
110.3907348770891
 20
84.092843576520082
 30
0.0
 40
0.002
  1
IMPOST|7|CONTINUOUS
  2
IMPOST
 70
     1
  0
ATTRIB
  5
2048
  8
ASM-FROZEN
 62
     2
 10
110.3907348770891
 20
84.089510243186751
 30
0.0
 40
0.002
  1
LINEAFIN|4|CONTINUOUS
  2
LINEAFINE
 70
     1
  0
ATTRIB
  5
2049
  8
ASM-FROZEN
 62
     2
 10
110.3907348770891
 20
84.086176909853435
 30
0.0
 40
0.002
  1
QUOTA|3|CONTINUOUS
  2
QUOTA
 70
     1
  0
ATTRIB
  5
204A
  8
ASM-FROZEN
 62
     2
 10
110.3907348770891
 20
84.082843576520091
 30
0.0
 40
0.002
  1
SALDATUR|3|CONTINUOUS
  2
SALDATURA
 70
     1
  0
ATTRIB
  5
204B
  8
ASM-FROZEN
  6
BYBLOCK
 62
     2
 10
110.3907348770891
 20
84.079510243186746
 30
0.0
 40
0.002
  1
SIMBPNEU|7|CONTINUOUS
  2
SIMBPNEU
 70
     1
  0
ATTRIB
  5
204C
  8
ASM-FROZEN
 62
     2
 10
110.3907348770891
 20
84.076176909853416
 30
0.0
 40
0.002
  1
TABELLA|4|CONTINUOUS
  2
TABELLA
 70
     1
  0
ATTRIB
  5
204D
  8
ASM-FROZEN
 62
     2
 10
110.3907348770891
 20
84.072843576520086
 30
0.0
 40
0.002
  1
TESTO|7|CONTINUOUS
  2
TESTO
 70
     1
  0
ATTRIB
  5
204E
  8
ASM-FROZEN
 62
     2
 10
110.3907348770891
 20
84.069510243186755
 30
0.0
 40
0.002
  1
TRATTI1|2|TRATTI1
  2
TRATTI1
 70
     1
  0
ATTRIB
  5
204F
  8
ASM-FROZEN
 62
     2
 10
110.3907348770891
 20
84.066176909853425
 30
0.0
 40
0.002
  1
TRATTI2|2|TRATTI2
  2
TRATTI2
 70
     1
  0
ATTRIB
  5
2050
  8
ASM-FROZEN
 62
     2
 10
110.3907348770891
 20
84.062843576520081
 30
0.0
 40
0.002
  1
TRATTI3|2|TRATTI3
  2
TRATTI3
 70
     1
  0
ATTRIB
  5
2051
  8
ASM-FROZEN
 62
     2
 10
110.3907348770891
 20
84.05951024318675
 30
0.0
 40
0.002
  1
TRATTI1F|4|TRATTI1
  2
TRATTI1F
 70
     1
  0
ATTRIB
  5
2052
  8
ASM-FROZEN
  6
BYBLOCK
 62
     2
 10
110.3907348770891
 20
84.056176909853434
 30
0.0
 40
0.002
  1
TRATTI2F|4|TRATTI2
  2
TRATTI2F
 70
     1
  0
ATTRIB
  5
2053
  8
ASM-FROZEN
 62
     2
 10
110.3907348770891
 20
84.05284357652009
 30
0.0
 40
0.002
  1
TRATTI3F|4|TRATTI3
  2
TRATTI3F
 70
     1
  0
ATTRIB
  5
2054
  8
ASM-FROZEN
  6
BYBLOCK
 62
     2
 10
110.3907348770891
 20
84.049510243186745
 30
0.0
 40
0.002
  1
TRATTEGG|4|CONTINUOUS
  2
TRATTEGGIO
 70
     1
  0
SEQEND
  5
2055
  8
ASM-FROZEN
  0
INSERT
  5
2056
  8
ASM-FROZEN
 66
     1
  2
ASM_CONF
 10
110.6639387238878
 20
84.224034052524289
 30
0.0
 41
0.01
 42
0.01
 43
0.01
1001
ASM_BASE
1002
{
1040
12.0
1070
     1
1010
0.0
1020
0.0
1030
0.0
1000
A
1000
ASM_CADM
1000
Fe37a
1000
null
1070
     0
1040
6.0
1040
6.0
1040
6.0
1070
    13
1040
1.7599999999999989
1000
0
1000
CADMEC_1-1
1002
}
1001
ASM_EXPLO_VER_2_00
1002
{
1040
2.0
1010
-0.57735026919
1020
-0.57735026919
1030
0.57735026919
1010
0.0
1020
0.0
1030
0.0
1002
}
  0
ATTRIB
  5
2057
  8
ASM-FROZEN
 62
     2
 10
110.7839387238878
 20
84.294034052524296
 30
0.0
 40
0.002
  1
ASSE1|1|ASSI1
  2
ASSE1
 70
     1
  0
ATTRIB
  5
2058
  8
ASM-FROZEN
 62
     2
 10
110.7839387238878
 20
84.290700719190966
 30
0.0
 40
0.002
  1
ASSE2|1|ASSI2
  2
ASSE2
 70
     1
  0
ATTRIB
  5
2059
  8
ASM-FROZEN
 62
     2
 10
110.7839387238878
 20
84.287367385857635
 30
0.0
 40
0.002
  1
ASSE3|1|ASSI3
  2
ASSE3
 70
     1
  0
ATTRIB
  5
205A
  8
ASM-FROZEN
 62
     2
 10
110.7839387238878
 20
84.284034052524305
 30
0.0
 40
0.002
  1
CONFINE|5|CONFINE
  2
CONFINE
 70
     1
  0
ATTRIB
  5
205B
  8
ASM-FROZEN
 62
     2
 10
110.7839387238878
 20
84.280700719190961
 30
0.0
 40
0.002
  1
CONTORNO|7|CONTINUOUS
  2
CONTORNO
 70
     1
  0
ATTRIB
  5
205C
  8
ASM-FROZEN
 62
     2
 10
110.7839387238878
 20
84.277367385857616
 30
0.0
 40
0.002
  1
DISTINTA|6|CONTINUOUS
  2
DISTINTA
 70
     1
  0
ATTRIB
  5
205D
  8
ASM-FROZEN
 62
     2
 10
110.7839387238878
 20
84.2740340525243
 30
0.0
 40
0.002
  1
GRUPPO1|7|CONTINUOUS
  2
GRUPPO1
 70
     1
  0
ATTRIB
  5
205E
  8
ASM-FROZEN
 62
     2
 10
110.7839387238878
 20
84.270700719190955
 30
0.0
 40
0.002
  1
GRUPPO2|7|CONTINUOUS
  2
GRUPPO2
 70
     1
  0
ATTRIB
  5
205F
  8
ASM-FROZEN
 62
     2
 10
110.7839387238878
 20
84.267367385857625
 30
0.0
 40
0.002
  1
GRUPPO3|7|CONTINUOUS
  2
GRUPPO3
 70
     1
  0
ATTRIB
  5
2060
  8
ASM-FROZEN
 62
     2
 10
110.7839387238878
 20
84.264034052524295
 30
0.0
 40
0.002
  1
GRUPPO4|7|CONTINUOUS
  2
GRUPPO4
 70
     1
  0
ATTRIB
  5
2061
  8
ASM-FROZEN
 62
     2
 10
110.7839387238878
 20
84.260700719190964
 30
0.0
 40
0.002
  1
IMPOST|7|CONTINUOUS
  2
IMPOST
 70
     1
  0
ATTRIB
  5
2062
  8
ASM-FROZEN
 62
     2
 10
110.7839387238878
 20
84.257367385857634
 30
0.0
 40
0.002
  1
LINEAFIN|4|CONTINUOUS
  2
LINEAFINE
 70
     1
  0
ATTRIB
  5
2063
  8
ASM-FROZEN
 62
     2
 10
110.7839387238878
 20
84.254034052524304
 30
0.0
 40
0.002
  1
QUOTA|3|CONTINUOUS
  2
QUOTA
 70
     1
  0
ATTRIB
  5
2064
  8
ASM-FROZEN
 62
     2
 10
110.7839387238878
 20
84.250700719190959
 30
0.0
 40
0.002
  1
SALDATUR|3|CONTINUOUS
  2
SALDATURA
 70
     1
  0
ATTRIB
  5
2065
  8
ASM-FROZEN
  6
BYBLOCK
 62
     2
 10
110.7839387238878
 20
84.247367385857615
 30
0.0
 40
0.002
  1
SIMBPNEU|7|CONTINUOUS
  2
SIMBPNEU
 70
     1
  0
ATTRIB
  5
2066
  8
ASM-FROZEN
 62
     2
 10
110.7839387238878
 20
84.244034052524299
 30
0.0
 40
0.002
  1
TABELLA|4|CONTINUOUS
  2
TABELLA
 70
     1
  0
ATTRIB
  5
2067
  8
ASM-FROZEN
 62
     2
 10
110.7839387238878
 20
84.240700719190954
 30
0.0
 40
0.002
  1
TESTO|7|CONTINUOUS
  2
TESTO
 70
     1
  0
ATTRIB
  5
2068
  8
ASM-FROZEN
 62
     2
 10
110.7839387238878
 20
84.237367385857624
 30
0.0
 40
0.002
  1
TRATTI1|2|TRATTI1
  2
TRATTI1
 70
     1
  0
ATTRIB
  5
2069
  8
ASM-FROZEN
 62
     2
 10
110.7839387238878
 20
84.234034052524294
 30
0.0
 40
0.002
  1
TRATTI2|2|TRATTI2
  2
TRATTI2
 70
     1
  0
ATTRIB
  5
206A
  8
ASM-FROZEN
 62
     2
 10
110.7839387238878
 20
84.230700719190963
 30
0.0
 40
0.002
  1
TRATTI3|2|TRATTI3
  2
TRATTI3
 70
     1
  0
ATTRIB
  5
206B
  8
ASM-FROZEN
 62
     2
 10
110.7839387238878
 20
84.227367385857633
 30
0.0
 40
0.002
  1
TRATTI1F|4|TRATTI1
  2
TRATTI1F
 70
     1
  0
ATTRIB
  5
206C
  8
ASM-FROZEN
  6
BYBLOCK
 62
     2
 10
110.7839387238878
 20
84.224034052524289
 30
0.0
 40
0.002
  1
TRATTI2F|4|TRATTI2
  2
TRATTI2F
 70
     1
  0
ATTRIB
  5
206D
  8
ASM-FROZEN
 62
     2
 10
110.7839387238878
 20
84.220700719190958
 30
0.0
 40
0.002
  1
TRATTI3F|4|TRATTI3
  2
TRATTI3F
 70
     1
  0
ATTRIB
  5
206E
  8
ASM-FROZEN
  6
BYBLOCK
 62
     2
 10
110.7839387238878
 20
84.217367385857614
 30
0.0
 40
0.002
  1
TRATTEGG|4|CONTINUOUS
  2
TRATTEGGIO
 70
     1
  0
SEQEND
  5
206F
  8
ASM-FROZEN
  0
INSERT
  5
218B
  8
ASM-FROZEN
 66
     1
  2
ASM_CONF
 10
110.37749326181179
 20
84.285926439829069
 30
0.0
 41
0.01
 42
0.01
 43
0.01
1001
ASM_BASE
1002
{
1040
12.0
1070
     1
1010
0.0
1020
0.0
1030
0.0
1000
A
1000
ASM_CADM
1000
Fe37a
1000
null
1070
     0
1040
6.0
1040
6.0
1040
6.0
1070
    13
1040
1.7599999999999989
1000
0
1000
CADMEC_1-1
1002
}
1001
ASM_EXPLO_VER_2_00
1002
{
1040
2.0
1010
-0.57735026919
1020
-0.57735026919
1030
0.57735026919
1010
0.0
1020
0.0
1030
0.0
1002
}
  0
ATTRIB
  5
218C
  8
ASM-FROZEN
 62
     2
 10
110.4974932618118
 20
84.355926439829091
 30
0.0
 40
0.002
  1
ASSE1|1|ASSI1
  2
ASSE1
 70
     1
  0
ATTRIB
  5
218D
  8
ASM-FROZEN
 62
     2
 10
110.4974932618118
 20
84.352593106495746
 30
0.0
 40
0.002
  1
ASSE2|1|ASSI2
  2
ASSE2
 70
     1
  0
ATTRIB
  5
218E
  8
ASM-FROZEN
 62
     2
 10
110.4974932618118
 20
84.349259773162416
 30
0.0
 40
0.002
  1
ASSE3|1|ASSI3
  2
ASSE3
 70
     1
  0
ATTRIB
  5
218F
  8
ASM-FROZEN
 62
     2
 10
110.4974932618118
 20
84.345926439829086
 30
0.0
 40
0.002
  1
CONFINE|5|CONFINE
  2
CONFINE
 70
     1
  0
ATTRIB
  5
2190
  8
ASM-FROZEN
 62
     2
 10
110.4974932618118
 20
84.342593106495755
 30
0.0
 40
0.002
  1
CONTORNO|7|CONTINUOUS
  2
CONTORNO
 70
     1
  0
ATTRIB
  5
2191
  8
ASM-FROZEN
 62
     2
 10
110.4974932618118
 20
84.339259773162397
 30
0.0
 40
0.002
  1
DISTINTA|6|CONTINUOUS
  2
DISTINTA
 70
     1
  0
ATTRIB
  5
2192
  8
ASM-FROZEN
 62
     2
 10
110.4974932618118
 20
84.33592643982908
 30
0.0
 40
0.002
  1
GRUPPO1|7|CONTINUOUS
  2
GRUPPO1
 70
     1
  0
ATTRIB
  5
2193
  8
ASM-FROZEN
 62
     2
 10
110.4974932618118
 20
84.33259310649575
 30
0.0
 40
0.002
  1
GRUPPO2|7|CONTINUOUS
  2
GRUPPO2
 70
     1
  0
ATTRIB
  5
2194
  8
ASM-FROZEN
 62
     2
 10
110.4974932618118
 20
84.329259773162434
 30
0.0
 40
0.002
  1
GRUPPO3|7|CONTINUOUS
  2
GRUPPO3
 70
     1
  0
ATTRIB
  5
2195
  8
ASM-FROZEN
 62
     2
 10
110.4974932618118
 20
84.32592643982909
 30
0.0
 40
0.002
  1
GRUPPO4|7|CONTINUOUS
  2
GRUPPO4
 70
     1
  0
ATTRIB
  5
2196
  8
ASM-FROZEN
 62
     2
 10
110.4974932618118
 20
84.322593106495745
 30
0.0
 40
0.002
  1
IMPOST|7|CONTINUOUS
  2
IMPOST
 70
     1
  0
ATTRIB
  5
2197
  8
ASM-FROZEN
 62
     2
 10
110.4974932618118
 20
84.319259773162415
 30
0.0
 40
0.002
  1
LINEAFIN|4|CONTINUOUS
  2
LINEAFINE
 70
     1
  0
ATTRIB
  5
2198
  8
ASM-FROZEN
 62
     2
 10
110.4974932618118
 20
84.315926439829084
 30
0.0
 40
0.002
  1
QUOTA|3|CONTINUOUS
  2
QUOTA
 70
     1
  0
ATTRIB
  5
2199
  8
ASM-FROZEN
 62
     2
 10
110.4974932618118
 20
84.312593106495754
 30
0.0
 40
0.002
  1
SALDATUR|3|CONTINUOUS
  2
SALDATURA
 70
     1
  0
ATTRIB
  5
219A
  8
ASM-FROZEN
  6
BYBLOCK
 62
     2
 10
110.4974932618118
 20
84.309259773162424
 30
0.0
 40
0.002
  1
SIMBPNEU|7|CONTINUOUS
  2
SIMBPNEU
 70
     1
  0
ATTRIB
  5
219B
  8
ASM-FROZEN
 62
     2
 10
110.4974932618118
 20
84.305926439829079
 30
0.0
 40
0.002
  1
TABELLA|4|CONTINUOUS
  2
TABELLA
 70
     1
  0
ATTRIB
  5
219C
  8
ASM-FROZEN
 62
     2
 10
110.4974932618118
 20
84.302593106495735
 30
0.0
 40
0.002
  1
TESTO|7|CONTINUOUS
  2
TESTO
 70
     1
  0
ATTRIB
  5
219D
  8
ASM-FROZEN
 62
     2
 10
110.4974932618118
 20
84.299259773162419
 30
0.0
 40
0.002
  1
TRATTI1|2|TRATTI1
  2
TRATTI1
 70
     1
  0
ATTRIB
  5
219E
  8
ASM-FROZEN
 62
     2
 10
110.4974932618118
 20
84.295926439829088
 30
0.0
 40
0.002
  1
TRATTI2|2|TRATTI2
  2
TRATTI2
 70
     1
  0
ATTRIB
  5
219F
  8
ASM-FROZEN
 62
     2
 10
110.4974932618118
 20
84.292593106495744
 30
0.0
 40
0.002
  1
TRATTI3|2|TRATTI3
  2
TRATTI3
 70
     1
  0
ATTRIB
  5
21A0
  8
ASM-FROZEN
 62
     2
 10
110.4974932618118
 20
84.289259773162414
 30
0.0
 40
0.002
  1
TRATTI1F|4|TRATTI1
  2
TRATTI1F
 70
     1
  0
ATTRIB
  5
21A1
  8
ASM-FROZEN
  6
BYBLOCK
 62
     2
 10
110.4974932618118
 20
84.285926439829069
 30
0.0
 40
0.002
  1
TRATTI2F|4|TRATTI2
  2
TRATTI2F
 70
     1
  0
ATTRIB
  5
21A2
  8
ASM-FROZEN
 62
     2
 10
110.4974932618118
 20
84.282593106495753
 30
0.0
 40
0.002
  1
TRATTI3F|4|TRATTI3
  2
TRATTI3F
 70
     1
  0
ATTRIB
  5
21A3
  8
ASM-FROZEN
  6
BYBLOCK
 62
     2
 10
110.4974932618118
 20
84.279259773162423
 30
0.0
 40
0.002
  1
TRATTEGG|4|CONTINUOUS
  2
TRATTEGGIO
 70
     1
  0
SEQEND
  5
21A4
  8
ASM-FROZEN
  0
INSERT
  5
21A5
  8
ASM-FROZEN
 66
     1
  2
ASM_CONF
 10
110.4233744667937
 20
84.367675585548369
 30
0.0
 41
0.01
 42
0.01
 43
0.01
1001
ASM_BASE
1002
{
1040
12.0
1070
     1
1010
0.0
1020
0.0
1030
0.0
1000
A
1000
ASM_CADM
1000
Fe37a
1000
null
1070
     0
1040
6.0
1040
6.0
1040
6.0
1070
    13
1040
1.7599999999999989
1000
0
1000
CADMEC_1-1
1002
}
1001
ASM_EXPLO_VER_2_00
1002
{
1040
2.0
1010
-0.57735026919
1020
-0.57735026919
1030
0.57735026919
1010
0.0
1020
0.0
1030
0.0
1002
}
  0
ATTRIB
  5
21A6
  8
ASM-FROZEN
 62
     2
 10
110.54337446679369
 20
84.437675585548376
 30
0.0
 40
0.002
  1
ASSE1|1|ASSI1
  2
ASSE1
 70
     1
  0
ATTRIB
  5
21A7
  8
ASM-FROZEN
 62
     2
 10
110.54337446679369
 20
84.434342252215032
 30
0.0
 40
0.002
  1
ASSE2|1|ASSI2
  2
ASSE2
 70
     1
  0
ATTRIB
  5
21A8
  8
ASM-FROZEN
 62
     2
 10
110.54337446679369
 20
84.431008918881687
 30
0.0
 40
0.002
  1
ASSE3|1|ASSI3
  2
ASSE3
 70
     1
  0
ATTRIB
  5
21A9
  8
ASM-FROZEN
 62
     2
 10
110.54337446679369
 20
84.427675585548371
 30
0.0
 40
0.002
  1
CONFINE|5|CONFINE
  2
CONFINE
 70
     1
  0
ATTRIB
  5
21AA
  8
ASM-FROZEN
 62
     2
 10
110.54337446679369
 20
84.424342252215027
 30
0.0
 40
0.002
  1
CONTORNO|7|CONTINUOUS
  2
CONTORNO
 70
     1
  0
ATTRIB
  5
21AB
  8
ASM-FROZEN
 62
     2
 10
110.54337446679369
 20
84.421008918881697
 30
0.0
 40
0.002
  1
DISTINTA|6|CONTINUOUS
  2
DISTINTA
 70
     1
  0
ATTRIB
  5
21AC
  8
ASM-FROZEN
 62
     2
 10
110.54337446679369
 20
84.417675585548366
 30
0.0
 40
0.002
  1
GRUPPO1|7|CONTINUOUS
  2
GRUPPO1
 70
     1
  0
ATTRIB
  5
21AD
  8
ASM-FROZEN
 62
     2
 10
110.54337446679369
 20
84.414342252215036
 30
0.0
 40
0.002
  1
GRUPPO2|7|CONTINUOUS
  2
GRUPPO2
 70
     1
  0
ATTRIB
  5
21AE
  8
ASM-FROZEN
 62
     2
 10
110.54337446679369
 20
84.411008918881706
 30
0.0
 40
0.002
  1
GRUPPO3|7|CONTINUOUS
  2
GRUPPO3
 70
     1
  0
ATTRIB
  5
21AF
  8
ASM-FROZEN
 62
     2
 10
110.54337446679369
 20
84.407675585548375
 30
0.0
 40
0.002
  1
GRUPPO4|7|CONTINUOUS
  2
GRUPPO4
 70
     1
  0
ATTRIB
  5
21B0
  8
ASM-FROZEN
 62
     2
 10
110.54337446679369
 20
84.404342252215031
 30
0.0
 40
0.002
  1
IMPOST|7|CONTINUOUS
  2
IMPOST
 70
     1
  0
ATTRIB
  5
21B1
  8
ASM-FROZEN
 62
     2
 10
110.54337446679369
 20
84.401008918881686
 30
0.0
 40
0.002
  1
LINEAFIN|4|CONTINUOUS
  2
LINEAFINE
 70
     1
  0
ATTRIB
  5
21B2
  8
ASM-FROZEN
 62
     2
 10
110.54337446679369
 20
84.39767558554837
 30
0.0
 40
0.002
  1
QUOTA|3|CONTINUOUS
  2
QUOTA
 70
     1
  0
ATTRIB
  5
21B3
  8
ASM-FROZEN
 62
     2
 10
110.54337446679369
 20
84.394342252215026
 30
0.0
 40
0.002
  1
SALDATUR|3|CONTINUOUS
  2
SALDATURA
 70
     1
  0
ATTRIB
  5
21B4
  8
ASM-FROZEN
  6
BYBLOCK
 62
     2
 10
110.54337446679369
 20
84.391008918881695
 30
0.0
 40
0.002
  1
SIMBPNEU|7|CONTINUOUS
  2
SIMBPNEU
 70
     1
  0
ATTRIB
  5
21B5
  8
ASM-FROZEN
 62
     2
 10
110.54337446679369
 20
84.387675585548365
 30
0.0
 40
0.002
  1
TABELLA|4|CONTINUOUS
  2
TABELLA
 70
     1
  0
ATTRIB
  5
21B6
  8
ASM-FROZEN
 62
     2
 10
110.54337446679369
 20
84.384342252215035
 30
0.0
 40
0.002
  1
TESTO|7|CONTINUOUS
  2
TESTO
 70
     1
  0
ATTRIB
  5
21B7
  8
ASM-FROZEN
 62
     2
 10
110.54337446679369
 20
84.381008918881705
 30
0.0
 40
0.002
  1
TRATTI1|2|TRATTI1
  2
TRATTI1
 70
     1
  0
ATTRIB
  5
21B8
  8
ASM-FROZEN
 62
     2
 10
110.54337446679369
 20
84.377675585548374
 30
0.0
 40
0.002
  1
TRATTI2|2|TRATTI2
  2
TRATTI2
 70
     1
  0
ATTRIB
  5
21B9
  8
ASM-FROZEN
 62
     2
 10
110.54337446679369
 20
84.37434225221503
 30
0.0
 40
0.002
  1
TRATTI3|2|TRATTI3
  2
TRATTI3
 70
     1
  0
ATTRIB
  5
21BA
  8
ASM-FROZEN
 62
     2
 10
110.54337446679369
 20
84.371008918881685
 30
0.0
 40
0.002
  1
TRATTI1F|4|TRATTI1
  2
TRATTI1F
 70
     1
  0
ATTRIB
  5
21BB
  8
ASM-FROZEN
  6
BYBLOCK
 62
     2
 10
110.54337446679369
 20
84.367675585548369
 30
0.0
 40
0.002
  1
TRATTI2F|4|TRATTI2
  2
TRATTI2F
 70
     1
  0
ATTRIB
  5
21BC
  8
ASM-FROZEN
 62
     2
 10
110.54337446679369
 20
84.364342252215025
 30
0.0
 40
0.002
  1
TRATTI3F|4|TRATTI3
  2
TRATTI3F
 70
     1
  0
ATTRIB
  5
21BD
  8
ASM-FROZEN
  6
BYBLOCK
 62
     2
 10
110.54337446679369
 20
84.361008918881694
 30
0.0
 40
0.002
  1
TRATTEGG|4|CONTINUOUS
  2
TRATTEGGIO
 70
     1
  0
SEQEND
  5
21BE
  8
ASM-FROZEN
  0
INSERT
  5
21BF
  8
ASM-FROZEN
 66
     1
  2
ASM_CONF
 10
110.3054133134715
 20
84.264104153624174
 30
0.0
 41
0.01
 42
0.01
 43
0.01
1001
ASM_BASE
1002
{
1040
12.0
1070
     1
1010
0.0
1020
0.0
1030
0.0
1000
A
1000
ASM_CADM
1000
Fe37a
1000
null
1070
     0
1040
6.0
1040
6.0
1040
6.0
1070
    13
1040
1.7599999999999989
1000
0
1000
CADMEC_1-1
1002
}
1001
ASM_EXPLO_VER_2_00
1002
{
1040
2.0
1010
-0.57735026919
1020
-0.57735026919
1030
0.57735026919
1010
0.0
1020
0.0
1030
0.0
1002
}
  0
ATTRIB
  5
21C0
  8
ASM-FROZEN
 62
     2
 10
110.42541331347149
 20
84.334104153624182
 30
0.0
 40
0.002
  1
ASSE1|1|ASSI1
  2
ASSE1
 70
     1
  0
ATTRIB
  5
21C1
  8
ASM-FROZEN
 62
     2
 10
110.42541331347149
 20
84.330770820290837
 30
0.0
 40
0.002
  1
ASSE2|1|ASSI2
  2
ASSE2
 70
     1
  0
ATTRIB
  5
21C2
  8
ASM-FROZEN
 62
     2
 10
110.42541331347149
 20
84.327437486957507
 30
0.0
 40
0.002
  1
ASSE3|1|ASSI3
  2
ASSE3
 70
     1
  0
ATTRIB
  5
21C3
  8
ASM-FROZEN
 62
     2
 10
110.42541331347149
 20
84.324104153624177
 30
0.0
 40
0.002
  1
CONFINE|5|CONFINE
  2
CONFINE
 70
     1
  0
ATTRIB
  5
21C4
  8
ASM-FROZEN
 62
     2
 10
110.42541331347149
 20
84.320770820290846
 30
0.0
 40
0.002
  1
CONTORNO|7|CONTINUOUS
  2
CONTORNO
 70
     1
  0
ATTRIB
  5
21C5
  8
ASM-FROZEN
 62
     2
 10
110.42541331347149
 20
84.317437486957516
 30
0.0
 40
0.002
  1
DISTINTA|6|CONTINUOUS
  2
DISTINTA
 70
     1
  0
ATTRIB
  5
21C6
  8
ASM-FROZEN
 62
     2
 10
110.42541331347149
 20
84.314104153624172
 30
0.0
 40
0.002
  1
GRUPPO1|7|CONTINUOUS
  2
GRUPPO1
 70
     1
  0
ATTRIB
  5
21C7
  8
ASM-FROZEN
 62
     2
 10
110.42541331347149
 20
84.310770820290841
 30
0.0
 40
0.002
  1
GRUPPO2|7|CONTINUOUS
  2
GRUPPO2
 70
     1
  0
ATTRIB
  5
21C8
  8
ASM-FROZEN
 62
     2
 10
110.42541331347149
 20
84.307437486957525
 30
0.0
 40
0.002
  1
GRUPPO3|7|CONTINUOUS
  2
GRUPPO3
 70
     1
  0
ATTRIB
  5
21C9
  8
ASM-FROZEN
 62
     2
 10
110.42541331347149
 20
84.304104153624181
 30
0.0
 40
0.002
  1
GRUPPO4|7|CONTINUOUS
  2
GRUPPO4
 70
     1
  0
ATTRIB
  5
21CA
  8
ASM-FROZEN
 62
     2
 10
110.42541331347149
 20
84.300770820290836
 30
0.0
 40
0.002
  1
IMPOST|7|CONTINUOUS
  2
IMPOST
 70
     1
  0
ATTRIB
  5
21CB
  8
ASM-FROZEN
 62
     2
 10
110.42541331347149
 20
84.297437486957506
 30
0.0
 40
0.002
  1
LINEAFIN|4|CONTINUOUS
  2
LINEAFINE
 70
     1
  0
ATTRIB
  5
21CC
  8
ASM-FROZEN
 62
     2
 10
110.42541331347149
 20
84.294104153624176
 30
0.0
 40
0.002
  1
QUOTA|3|CONTINUOUS
  2
QUOTA
 70
     1
  0
ATTRIB
  5
21CD
  8
ASM-FROZEN
 62
     2
 10
110.42541331347149
 20
84.290770820290845
 30
0.0
 40
0.002
  1
SALDATUR|3|CONTINUOUS
  2
SALDATURA
 70
     1
  0
ATTRIB
  5
21CE
  8
ASM-FROZEN
  6
BYBLOCK
 62
     2
 10
110.42541331347149
 20
84.287437486957515
 30
0.0
 40
0.002
  1
SIMBPNEU|7|CONTINUOUS
  2
SIMBPNEU
 70
     1
  0
ATTRIB
  5
21CF
  8
ASM-FROZEN
 62
     2
 10
110.42541331347149
 20
84.28410415362417
 30
0.0
 40
0.002
  1
TABELLA|4|CONTINUOUS
  2
TABELLA
 70
     1
  0
ATTRIB
  5
21D0
  8
ASM-FROZEN
 62
     2
 10
110.42541331347149
 20
84.28077082029084
 30
0.0
 40
0.002
  1
TESTO|7|CONTINUOUS
  2
TESTO
 70
     1
  0
ATTRIB
  5
21D1
  8
ASM-FROZEN
 62
     2
 10
110.42541331347149
 20
84.277437486957524
 30
0.0
 40
0.002
  1
TRATTI1|2|TRATTI1
  2
TRATTI1
 70
     1
  0
ATTRIB
  5
21D2
  8
ASM-FROZEN
 62
     2
 10
110.42541331347149
 20
84.27410415362418
 30
0.0
 40
0.002
  1
TRATTI2|2|TRATTI2
  2
TRATTI2
 70
     1
  0
ATTRIB
  5
21D3
  8
ASM-FROZEN
 62
     2
 10
110.42541331347149
 20
84.270770820290835
 30
0.0
 40
0.002
  1
TRATTI3|2|TRATTI3
  2
TRATTI3
 70
     1
  0
ATTRIB
  5
21D4
  8
ASM-FROZEN
 62
     2
 10
110.42541331347149
 20
84.267437486957505
 30
0.0
 40
0.002
  1
TRATTI1F|4|TRATTI1
  2
TRATTI1F
 70
     1
  0
ATTRIB
  5
21D5
  8
ASM-FROZEN
  6
BYBLOCK
 62
     2
 10
110.42541331347149
 20
84.264104153624174
 30
0.0
 40
0.002
  1
TRATTI2F|4|TRATTI2
  2
TRATTI2F
 70
     1
  0
ATTRIB
  5
21D6
  8
ASM-FROZEN
 62
     2
 10
110.42541331347149
 20
84.260770820290844
 30
0.0
 40
0.002
  1
TRATTI3F|4|TRATTI3
  2
TRATTI3F
 70
     1
  0
ATTRIB
  5
21D7
  8
ASM-FROZEN
  6
BYBLOCK
 62
     2
 10
110.42541331347149
 20
84.257437486957514
 30
0.0
 40
0.002
  1
TRATTEGG|4|CONTINUOUS
  2
TRATTEGGIO
 70
     1
  0
SEQEND
  5
21D8
  8
ASM-FROZEN
  0
INSERT
  5
21D9
  8
ASM-FROZEN
 66
     1
  2
ASM_CONF
 10
110.6986171602702
 20
84.431961296295043
 30
0.0
 41
0.01
 42
0.01
 43
0.01
1001
ASM_BASE
1002
{
1040
12.0
1070
     1
1010
0.0
1020
0.0
1030
0.0
1000
A
1000
ASM_CADM
1000
Fe37a
1000
null
1070
     0
1040
6.0
1040
6.0
1040
6.0
1070
    13
1040
1.7599999999999989
1000
0
1000
CADMEC_1-1
1002
}
1001
ASM_EXPLO_VER_2_00
1002
{
1040
2.0
1010
-0.57735026919
1020
-0.57735026919
1030
0.57735026919
1010
0.0
1020
0.0
1030
0.0
1002
}
  0
ATTRIB
  5
21DA
  8
ASM-FROZEN
 62
     2
 10
110.81861716027019
 20
84.50196129629505
 30
0.0
 40
0.002
  1
ASSE1|1|ASSI1
  2
ASSE1
 70
     1
  0
ATTRIB
  5
21DB
  8
ASM-FROZEN
 62
     2
 10
110.81861716027019
 20
84.498627962961706
 30
0.0
 40
0.002
  1
ASSE2|1|ASSI2
  2
ASSE2
 70
     1
  0
ATTRIB
  5
21DC
  8
ASM-FROZEN
 62
     2
 10
110.81861716027019
 20
84.49529462962839
 30
0.0
 40
0.002
  1
ASSE3|1|ASSI3
  2
ASSE3
 70
     1
  0
ATTRIB
  5
21DD
  8
ASM-FROZEN
 62
     2
 10
110.81861716027019
 20
84.491961296295045
 30
0.0
 40
0.002
  1
CONFINE|5|CONFINE
  2
CONFINE
 70
     1
  0
ATTRIB
  5
21DE
  8
ASM-FROZEN
 62
     2
 10
110.81861716027019
 20
84.488627962961715
 30
0.0
 40
0.002
  1
CONTORNO|7|CONTINUOUS
  2
CONTORNO
 70
     1
  0
ATTRIB
  5
21DF
  8
ASM-FROZEN
 62
     2
 10
110.81861716027019
 20
84.485294629628385
 30
0.0
 40
0.002
  1
DISTINTA|6|CONTINUOUS
  2
DISTINTA
 70
     1
  0
ATTRIB
  5
21E0
  8
ASM-FROZEN
 62
     2
 10
110.81861716027019
 20
84.481961296295054
 30
0.0
 40
0.002
  1
GRUPPO1|7|CONTINUOUS
  2
GRUPPO1
 70
     1
  0
ATTRIB
  5
21E1
  8
ASM-FROZEN
 62
     2
 10
110.81861716027019
 20
84.478627962961724
 30
0.0
 40
0.002
  1
GRUPPO2|7|CONTINUOUS
  2
GRUPPO2
 70
     1
  0
ATTRIB
  5
21E2
  8
ASM-FROZEN
 62
     2
 10
110.81861716027019
 20
84.475294629628394
 30
0.0
 40
0.002
  1
GRUPPO3|7|CONTINUOUS
  2
GRUPPO3
 70
     1
  0
ATTRIB
  5
21E3
  8
ASM-FROZEN
 62
     2
 10
110.81861716027019
 20
84.471961296295049
 30
0.0
 40
0.002
  1
GRUPPO4|7|CONTINUOUS
  2
GRUPPO4
 70
     1
  0
ATTRIB
  5
21E4
  8
ASM-FROZEN
 62
     2
 10
110.81861716027019
 20
84.468627962961705
 30
0.0
 40
0.002
  1
IMPOST|7|CONTINUOUS
  2
IMPOST
 70
     1
  0
ATTRIB
  5
21E5
  8
ASM-FROZEN
 62
     2
 10
110.81861716027019
 20
84.465294629628389
 30
0.0
 40
0.002
  1
LINEAFIN|4|CONTINUOUS
  2
LINEAFINE
 70
     1
  0
ATTRIB
  5
21E6
  8
ASM-FROZEN
 62
     2
 10
110.81861716027019
 20
84.461961296295044
 30
0.0
 40
0.002
  1
QUOTA|3|CONTINUOUS
  2
QUOTA
 70
     1
  0
ATTRIB
  5
21E7
  8
ASM-FROZEN
 62
     2
 10
110.81861716027019
 20
84.458627962961714
 30
0.0
 40
0.002
  1
SALDATUR|3|CONTINUOUS
  2
SALDATURA
 70
     1
  0
ATTRIB
  5
21E8
  8
ASM-FROZEN
  6
BYBLOCK
 62
     2
 10
110.81861716027019
 20
84.455294629628384
 30
0.0
 40
0.002
  1
SIMBPNEU|7|CONTINUOUS
  2
SIMBPNEU
 70
     1
  0
ATTRIB
  5
21E9
  8
ASM-FROZEN
 62
     2
 10
110.81861716027019
 20
84.451961296295053
 30
0.0
 40
0.002
  1
TABELLA|4|CONTINUOUS
  2
TABELLA
 70
     1
  0
ATTRIB
  5
21EA
  8
ASM-FROZEN
 62
     2
 10
110.81861716027019
 20
84.448627962961723
 30
0.0
 40
0.002
  1
TESTO|7|CONTINUOUS
  2
TESTO
 70
     1
  0
ATTRIB
  5
21EB
  8
ASM-FROZEN
 62
     2
 10
110.81861716027019
 20
84.445294629628378
 30
0.0
 40
0.002
  1
TRATTI1|2|TRATTI1
  2
TRATTI1
 70
     1
  0
ATTRIB
  5
21EC
  8
ASM-FROZEN
 62
     2
 10
110.81861716027019
 20
84.441961296295048
 30
0.0
 40
0.002
  1
TRATTI2|2|TRATTI2
  2
TRATTI2
 70
     1
  0
ATTRIB
  5
21ED
  8
ASM-FROZEN
 62
     2
 10
110.81861716027019
 20
84.438627962961704
 30
0.0
 40
0.002
  1
TRATTI3|2|TRATTI3
  2
TRATTI3
 70
     1
  0
ATTRIB
  5
21EE
  8
ASM-FROZEN
 62
     2
 10
110.81861716027019
 20
84.435294629628387
 30
0.0
 40
0.002
  1
TRATTI1F|4|TRATTI1
  2
TRATTI1F
 70
     1
  0
ATTRIB
  5
21EF
  8
ASM-FROZEN
  6
BYBLOCK
 62
     2
 10
110.81861716027019
 20
84.431961296295043
 30
0.0
 40
0.002
  1
TRATTI2F|4|TRATTI2
  2
TRATTI2F
 70
     1
  0
ATTRIB
  5
21F0
  8
ASM-FROZEN
 62
     2
 10
110.81861716027019
 20
84.428627962961727
 30
0.0
 40
0.002
  1
TRATTI3F|4|TRATTI3
  2
TRATTI3F
 70
     1
  0
ATTRIB
  5
21F1
  8
ASM-FROZEN
  6
BYBLOCK
 62
     2
 10
110.81861716027019
 20
84.425294629628382
 30
0.0
 40
0.002
  1
TRATTEGG|4|CONTINUOUS
  2
TRATTEGGIO
 70
     1
  0
SEQEND
  5
21F2
  8
ASM-FROZEN
  0
INSERT
  5
2925
  8
ASM-FROZEN
 66
     1
  2
ASM_CONF
 10
207.8290137865757
 20
62.879859957598747
 30
0.0
 41
0.1
 42
0.1
 43
0.1
1001
ASM_BASE
1002
{
1040
12.0
1070
     1
1010
0.0
1020
0.0
1030
0.0
1000
A
1000
ASM_CADM
1000
Fe37a
1000
null
1070
     0
1040
6.0
1040
6.0
1040
6.0
1070
    13
1040
1.7599999999999989
1000
0
1000
CADMEC_1-1
1002
}
1001
ASM_EXPLO_VER_2_00
1002
{
1040
2.0
1010
-0.57735026919
1020
-0.57735026919
1030
0.57735026919
1010
0.0
1020
0.0
1030
0.0
1002
}
  0
ATTRIB
  5
2926
  8
ASM-FROZEN
 62
     2
 10
209.02901378657569
 20
63.57985995759875
 30
0.0
 40
0.02
  1
ASSE1|1|ASSI1
  2
ASSE1
 70
     1
  0
ATTRIB
  5
2927
  8
ASM-FROZEN
 62
     2
 10
209.02901378657569
 20
63.546526624265411
 30
0.0
 40
0.02
  1
ASSE2|1|ASSI2
  2
ASSE2
 70
     1
  0
ATTRIB
  5
2928
  8
ASM-FROZEN
 62
     2
 10
209.02901378657569
 20
63.513193290932072
 30
0.0
 40
0.02
  1
ASSE3|1|ASSI3
  2
ASSE3
 70
     1
  0
ATTRIB
  5
2929
  8
ASM-FROZEN
 62
     2
 10
209.02901378657569
 20
63.479859957598741
 30
0.0
 40
0.02
  1
CONFINE|5|CONFINE
  2
CONFINE
 70
     1
  0
ATTRIB
  5
292A
  8
ASM-FROZEN
 62
     2
 10
209.02901378657569
 20
63.446526624265417
 30
0.0
 40
0.02
  1
CONTORNO|7|CONTINUOUS
  2
CONTORNO
 70
     1
  0
ATTRIB
  5
292B
  8
ASM-FROZEN
 62
     2
 10
209.02901378657569
 20
63.413193290932092
 30
0.0
 40
0.02
  1
DISTINTA|6|CONTINUOUS
  2
DISTINTA
 70
     1
  0
ATTRIB
  5
292C
  8
ASM-FROZEN
 62
     2
 10
209.02901378657569
 20
63.379859957598761
 30
0.0
 40
0.02
  1
GRUPPO1|7|CONTINUOUS
  2
GRUPPO1
 70
     1
  0
ATTRIB
  5
292D
  8
ASM-FROZEN
 62
     2
 10
209.02901378657569
 20
63.346526624265422
 30
0.0
 40
0.02
  1
GRUPPO2|7|CONTINUOUS
  2
GRUPPO2
 70
     1
  0
ATTRIB
  5
292E
  8
ASM-FROZEN
 62
     2
 10
209.02901378657569
 20
63.313193290932077
 30
0.0
 40
0.02
  1
GRUPPO3|7|CONTINUOUS
  2
GRUPPO3
 70
     1
  0
ATTRIB
  5
292F
  8
ASM-FROZEN
 62
     2
 10
209.02901378657569
 20
63.279859957598752
 30
0.0
 40
0.02
  1
GRUPPO4|7|CONTINUOUS
  2
GRUPPO4
 70
     1
  0
ATTRIB
  5
2930
  8
ASM-FROZEN
 62
     2
 10
209.02901378657569
 20
63.246526624265407
 30
0.0
 40
0.02
  1
IMPOST|7|CONTINUOUS
  2
IMPOST
 70
     1
  0
ATTRIB
  5
2931
  8
ASM-FROZEN
 62
     2
 10
209.02901378657569
 20
63.213193290932082
 30
0.0
 40
0.02
  1
LINEAFIN|4|CONTINUOUS
  2
LINEAFINE
 70
     1
  0
ATTRIB
  5
2932
  8
ASM-FROZEN
 62
     2
 10
209.02901378657569
 20
63.179859957598751
 30
0.0
 40
0.02
  1
QUOTA|3|CONTINUOUS
  2
QUOTA
 70
     1
  0
ATTRIB
  5
2933
  8
ASM-FROZEN
 62
     2
 10
209.02901378657569
 20
63.14652662426542
 30
0.0
 40
0.02
  1
SALDATUR|3|CONTINUOUS
  2
SALDATURA
 70
     1
  0
ATTRIB
  5
2934
  8
ASM-FROZEN
  6
BYBLOCK
 62
     2
 10
209.02901378657569
 20
63.113193290932081
 30
0.0
 40
0.02
  1
SIMBPNEU|7|CONTINUOUS
  2
SIMBPNEU
 70
     1
  0
ATTRIB
  5
2935
  8
ASM-FROZEN
 62
     2
 10
209.02901378657569
 20
63.079859957598742
 30
0.0
 40
0.02
  1
TABELLA|4|CONTINUOUS
  2
TABELLA
 70
     1
  0
ATTRIB
  5
2936
  8
ASM-FROZEN
 62
     2
 10
209.02901378657569
 20
63.046526624265411
 30
0.0
 40
0.02
  1
TESTO|7|CONTINUOUS
  2
TESTO
 70
     1
  0
ATTRIB
  5
2937
  8
ASM-FROZEN
 62
     2
 10
209.02901378657569
 20
63.013193290932087
 30
0.0
 40
0.02
  1
TRATTI1|2|TRATTI1
  2
TRATTI1
 70
     1
  0
ATTRIB
  5
2938
  8
ASM-FROZEN
 62
     2
 10
209.02901378657569
 20
62.979859957598748
 30
0.0
 40
0.02
  1
TRATTI2|2|TRATTI2
  2
TRATTI2
 70
     1
  0
ATTRIB
  5
2939
  8
ASM-FROZEN
 62
     2
 10
209.02901378657569
 20
62.946526624265417
 30
0.0
 40
0.02
  1
TRATTI3|2|TRATTI3
  2
TRATTI3
 70
     1
  0
ATTRIB
  5
293A
  8
ASM-FROZEN
 62
     2
 10
209.02901378657569
 20
62.913193290932092
 30
0.0
 40
0.02
  1
TRATTI1F|4|TRATTI1
  2
TRATTI1F
 70
     1
  0
ATTRIB
  5
293B
  8
ASM-FROZEN
  6
BYBLOCK
 62
     2
 10
209.02901378657569
 20
62.879859957598747
 30
0.0
 40
0.02
  1
TRATTI2F|4|TRATTI2
  2
TRATTI2F
 70
     1
  0
ATTRIB
  5
293C
  8
ASM-FROZEN
 62
     2
 10
209.02901378657569
 20
62.846526624265422
 30
0.0
 40
0.02
  1
TRATTI3F|4|TRATTI3
  2
TRATTI3F
 70
     1
  0
ATTRIB
  5
293D
  8
ASM-FROZEN
  6
BYBLOCK
 62
     2
 10
209.02901378657569
 20
62.813193290932077
 30
0.0
 40
0.02
  1
TRATTEGG|4|CONTINUOUS
  2
TRATTEGGIO
 70
     1
  0
SEQEND
  5
293E
  8
ASM-FROZEN
  0
INSERT
  5
293F
  8
ASM-FROZEN
 66
     1
  2
ASM_CONF
 10
208.28782583639469
 20
63.697351414791569
 30
0.0
 41
0.1
 42
0.1
 43
0.1
1001
ASM_BASE
1002
{
1040
12.0
1070
     1
1010
0.0
1020
0.0
1030
0.0
1000
A
1000
ASM_CADM
1000
Fe37a
1000
null
1070
     0
1040
6.0
1040
6.0
1040
6.0
1070
    13
1040
1.7599999999999989
1000
0
1000
CADMEC_1-1
1002
}
1001
ASM_EXPLO_VER_2_00
1002
{
1040
2.0
1010
-0.57735026919
1020
-0.57735026919
1030
0.57735026919
1010
0.0
1020
0.0
1030
0.0
1002
}
  0
ATTRIB
  5
2940
  8
ASM-FROZEN
 62
     2
 10
209.48782583639471
 20
64.397351414791572
 30
0.0
 40
0.02
  1
ASSE1|1|ASSI1
  2
ASSE1
 70
     1
  0
ATTRIB
  5
2941
  8
ASM-FROZEN
 62
     2
 10
209.48782583639471
 20
64.364018081458241
 30
0.0
 40
0.02
  1
ASSE2|1|ASSI2
  2
ASSE2
 70
     1
  0
ATTRIB
  5
2942
  8
ASM-FROZEN
 62
     2
 10
209.48782583639471
 20
64.330684748124895
 30
0.0
 40
0.02
  1
ASSE3|1|ASSI3
  2
ASSE3
 70
     1
  0
ATTRIB
  5
2943
  8
ASM-FROZEN
 62
     2
 10
209.48782583639471
 20
64.297351414791564
 30
0.0
 40
0.02
  1
CONFINE|5|CONFINE
  2
CONFINE
 70
     1
  0
ATTRIB
  5
2944
  8
ASM-FROZEN
 62
     2
 10
209.48782583639471
 20
64.264018081458232
 30
0.0
 40
0.02
  1
CONTORNO|7|CONTINUOUS
  2
CONTORNO
 70
     1
  0
ATTRIB
  5
2945
  8
ASM-FROZEN
 62
     2
 10
209.48782583639471
 20
64.230684748124901
 30
0.0
 40
0.02
  1
DISTINTA|6|CONTINUOUS
  2
DISTINTA
 70
     1
  0
ATTRIB
  5
2946
  8
ASM-FROZEN
 62
     2
 10
209.48782583639471
 20
64.197351414791569
 30
0.0
 40
0.02
  1
GRUPPO1|7|CONTINUOUS
  2
GRUPPO1
 70
     1
  0
ATTRIB
  5
2947
  8
ASM-FROZEN
 62
     2
 10
209.48782583639471
 20
64.164018081458238
 30
0.0
 40
0.02
  1
GRUPPO2|7|CONTINUOUS
  2
GRUPPO2
 70
     1
  0
ATTRIB
  5
2948
  8
ASM-FROZEN
 62
     2
 10
209.48782583639471
 20
64.130684748124906
 30
0.0
 40
0.02
  1
GRUPPO3|7|CONTINUOUS
  2
GRUPPO3
 70
     1
  0
ATTRIB
  5
2949
  8
ASM-FROZEN
 62
     2
 10
209.48782583639471
 20
64.097351414791575
 30
0.0
 40
0.02
  1
GRUPPO4|7|CONTINUOUS
  2
GRUPPO4
 70
     1
  0
ATTRIB
  5
294A
  8
ASM-FROZEN
 62
     2
 10
209.48782583639471
 20
64.064018081458244
 30
0.0
 40
0.02
  1
IMPOST|7|CONTINUOUS
  2
IMPOST
 70
     1
  0
ATTRIB
  5
294B
  8
ASM-FROZEN
 62
     2
 10
209.48782583639471
 20
64.030684748124912
 30
0.0
 40
0.02
  1
LINEAFIN|4|CONTINUOUS
  2
LINEAFINE
 70
     1
  0
ATTRIB
  5
294C
  8
ASM-FROZEN
 62
     2
 10
209.48782583639471
 20
63.997351414791567
 30
0.0
 40
0.02
  1
QUOTA|3|CONTINUOUS
  2
QUOTA
 70
     1
  0
ATTRIB
  5
294D
  8
ASM-FROZEN
 62
     2
 10
209.48782583639471
 20
63.964018081458242
 30
0.0
 40
0.02
  1
SALDATUR|3|CONTINUOUS
  2
SALDATURA
 70
     1
  0
ATTRIB
  5
294E
  8
ASM-FROZEN
  6
BYBLOCK
 62
     2
 10
209.48782583639471
 20
63.930684748124911
 30
0.0
 40
0.02
  1
SIMBPNEU|7|CONTINUOUS
  2
SIMBPNEU
 70
     1
  0
ATTRIB
  5
294F
  8
ASM-FROZEN
 62
     2
 10
209.48782583639471
 20
63.897351414791572
 30
0.0
 40
0.02
  1
TABELLA|4|CONTINUOUS
  2
TABELLA
 70
     1
  0
ATTRIB
  5
2950
  8
ASM-FROZEN
 62
     2
 10
209.48782583639471
 20
63.864018081458241
 30
0.0
 40
0.02
  1
TESTO|7|CONTINUOUS
  2
TESTO
 70
     1
  0
ATTRIB
  5
2951
  8
ASM-FROZEN
 62
     2
 10
209.48782583639471
 20
63.830684748124902
 30
0.0
 40
0.02
  1
TRATTI1|2|TRATTI1
  2
TRATTI1
 70
     1
  0
ATTRIB
  5
2952
  8
ASM-FROZEN
 62
     2
 10
209.48782583639471
 20
63.797351414791571
 30
0.0
 40
0.02
  1
TRATTI2|2|TRATTI2
  2
TRATTI2
 70
     1
  0
ATTRIB
  5
2953
  8
ASM-FROZEN
 62
     2
 10
209.48782583639471
 20
63.764018081458239
 30
0.0
 40
0.02
  1
TRATTI3|2|TRATTI3
  2
TRATTI3
 70
     1
  0
ATTRIB
  5
2954
  8
ASM-FROZEN
 62
     2
 10
209.48782583639471
 20
63.730684748124901
 30
0.0
 40
0.02
  1
TRATTI1F|4|TRATTI1
  2
TRATTI1F
 70
     1
  0
ATTRIB
  5
2955
  8
ASM-FROZEN
  6
BYBLOCK
 62
     2
 10
209.48782583639471
 20
63.697351414791569
 30
0.0
 40
0.02
  1
TRATTI2F|4|TRATTI2
  2
TRATTI2F
 70
     1
  0
ATTRIB
  5
2956
  8
ASM-FROZEN
 62
     2
 10
209.48782583639471
 20
63.664018081458231
 30
0.0
 40
0.02
  1
TRATTI3F|4|TRATTI3
  2
TRATTI3F
 70
     1
  0
ATTRIB
  5
2957
  8
ASM-FROZEN
  6
BYBLOCK
 62
     2
 10
209.48782583639471
 20
63.630684748124899
 30
0.0
 40
0.02
  1
TRATTEGG|4|CONTINUOUS
  2
TRATTEGGIO
 70
     1
  0
SEQEND
  5
2958
  8
ASM-FROZEN
  0
INSERT
  5
2959
  8
ASM-FROZEN
 66
     1
  2
ASM_CONF
 10
207.1082143031727
 20
62.661637095549658
 30
0.0
 41
0.1
 42
0.1
 43
0.1
1001
ASM_BASE
1002
{
1040
12.0
1070
     1
1010
0.0
1020
0.0
1030
0.0
1000
A
1000
ASM_CADM
1000
Fe37a
1000
null
1070
     0
1040
6.0
1040
6.0
1040
6.0
1070
    13
1040
1.7599999999999989
1000
0
1000
CADMEC_1-1
1002
}
1001
ASM_EXPLO_VER_2_00
1002
{
1040
2.0
1010
-0.57735026919
1020
-0.57735026919
1030
0.57735026919
1010
0.0
1020
0.0
1030
0.0
1002
}
  0
ATTRIB
  5
295A
  8
ASM-FROZEN
 62
     2
 10
208.3082143031728
 20
63.361637095549661
 30
0.0
 40
0.02
  1
ASSE1|1|ASSI1
  2
ASSE1
 70
     1
  0
ATTRIB
  5
295B
  8
ASM-FROZEN
 62
     2
 10
208.3082143031728
 20
63.328303762216329
 30
0.0
 40
0.02
  1
ASSE2|1|ASSI2
  2
ASSE2
 70
     1
  0
ATTRIB
  5
295C
  8
ASM-FROZEN
 62
     2
 10
208.3082143031728
 20
63.294970428882991
 30
0.0
 40
0.02
  1
ASSE3|1|ASSI3
  2
ASSE3
 70
     1
  0
ATTRIB
  5
295D
  8
ASM-FROZEN
 62
     2
 10
208.3082143031728
 20
63.261637095549659
 30
0.0
 40
0.02
  1
CONFINE|5|CONFINE
  2
CONFINE
 70
     1
  0
ATTRIB
  5
295E
  8
ASM-FROZEN
 62
     2
 10
208.3082143031728
 20
63.228303762216342
 30
0.0
 40
0.02
  1
CONTORNO|7|CONTINUOUS
  2
CONTORNO
 70
     1
  0
ATTRIB
  5
295F
  8
ASM-FROZEN
 62
     2
 10
208.3082143031728
 20
63.194970428883011
 30
0.0
 40
0.02
  1
DISTINTA|6|CONTINUOUS
  2
DISTINTA
 70
     1
  0
ATTRIB
  5
2960
  8
ASM-FROZEN
 62
     2
 10
208.3082143031728
 20
63.161637095549672
 30
0.0
 40
0.02
  1
GRUPPO1|7|CONTINUOUS
  2
GRUPPO1
 70
     1
  0
ATTRIB
  5
2961
  8
ASM-FROZEN
 62
     2
 10
208.3082143031728
 20
63.128303762216333
 30
0.0
 40
0.02
  1
GRUPPO2|7|CONTINUOUS
  2
GRUPPO2
 70
     1
  0
ATTRIB
  5
2962
  8
ASM-FROZEN
 62
     2
 10
208.3082143031728
 20
63.094970428883002
 30
0.0
 40
0.02
  1
GRUPPO3|7|CONTINUOUS
  2
GRUPPO3
 70
     1
  0
ATTRIB
  5
2963
  8
ASM-FROZEN
 62
     2
 10
208.3082143031728
 20
63.061637095549671
 30
0.0
 40
0.02
  1
GRUPPO4|7|CONTINUOUS
  2
GRUPPO4
 70
     1
  0
ATTRIB
  5
2964
  8
ASM-FROZEN
 62
     2
 10
208.3082143031728
 20
63.028303762216332
 30
0.0
 40
0.02
  1
IMPOST|7|CONTINUOUS
  2
IMPOST
 70
     1
  0
ATTRIB
  5
2965
  8
ASM-FROZEN
 62
     2
 10
208.3082143031728
 20
62.994970428883001
 30
0.0
 40
0.02
  1
LINEAFIN|4|CONTINUOUS
  2
LINEAFINE
 70
     1
  0
ATTRIB
  5
2966
  8
ASM-FROZEN
 62
     2
 10
208.3082143031728
 20
62.961637095549669
 30
0.0
 40
0.02
  1
QUOTA|3|CONTINUOUS
  2
QUOTA
 70
     1
  0
ATTRIB
  5
2967
  8
ASM-FROZEN
 62
     2
 10
208.3082143031728
 20
62.928303762216331
 30
0.0
 40
0.02
  1
SALDATUR|3|CONTINUOUS
  2
SALDATURA
 70
     1
  0
ATTRIB
  5
2968
  8
ASM-FROZEN
  6
BYBLOCK
 62
     2
 10
208.3082143031728
 20
62.894970428882992
 30
0.0
 40
0.02
  1
SIMBPNEU|7|CONTINUOUS
  2
SIMBPNEU
 70
     1
  0
ATTRIB
  5
2969
  8
ASM-FROZEN
 62
     2
 10
208.3082143031728
 20
62.861637095549661
 30
0.0
 40
0.02
  1
TABELLA|4|CONTINUOUS
  2
TABELLA
 70
     1
  0
ATTRIB
  5
296A
  8
ASM-FROZEN
 62
     2
 10
208.3082143031728
 20
62.828303762216329
 30
0.0
 40
0.02
  1
TESTO|7|CONTINUOUS
  2
TESTO
 70
     1
  0
ATTRIB
  5
296B
  8
ASM-FROZEN
 62
     2
 10
208.3082143031728
 20
62.794970428883012
 30
0.0
 40
0.02
  1
TRATTI1|2|TRATTI1
  2
TRATTI1
 70
     1
  0
ATTRIB
  5
296C
  8
ASM-FROZEN
 62
     2
 10
208.3082143031728
 20
62.761637095549673
 30
0.0
 40
0.02
  1
TRATTI2|2|TRATTI2
  2
TRATTI2
 70
     1
  0
ATTRIB
  5
296D
  8
ASM-FROZEN
 62
     2
 10
208.3082143031728
 20
62.728303762216342
 30
0.0
 40
0.02
  1
TRATTI3|2|TRATTI3
  2
TRATTI3
 70
     1
  0
ATTRIB
  5
296E
  8
ASM-FROZEN
 62
     2
 10
208.3082143031728
 20
62.694970428883003
 30
0.0
 40
0.02
  1
TRATTI1F|4|TRATTI1
  2
TRATTI1F
 70
     1
  0
ATTRIB
  5
296F
  8
ASM-FROZEN
  6
BYBLOCK
 62
     2
 10
208.3082143031728
 20
62.661637095549658
 30
0.0
 40
0.02
  1
TRATTI2F|4|TRATTI2
  2
TRATTI2F
 70
     1
  0
ATTRIB
  5
2970
  8
ASM-FROZEN
 62
     2
 10
208.3082143031728
 20
62.628303762216333
 30
0.0
 40
0.02
  1
TRATTI3F|4|TRATTI3
  2
TRATTI3F
 70
     1
  0
ATTRIB
  5
2971
  8
ASM-FROZEN
  6
BYBLOCK
 62
     2
 10
208.3082143031728
 20
62.594970428883002
 30
0.0
 40
0.02
  1
TRATTEGG|4|CONTINUOUS
  2
TRATTEGGIO
 70
     1
  0
SEQEND
  5
2972
  8
ASM-FROZEN
  0
INSERT
  5
2973
  8
ASM-FROZEN
 66
     1
  2
ASM_CONF
 10
211.04025277115969
 20
64.34020852225845
 30
0.0
 41
0.1
 42
0.1
 43
0.1
1001
ASM_BASE
1002
{
1040
12.0
1070
     1
1010
0.0
1020
0.0
1030
0.0
1000
A
1000
ASM_CADM
1000
Fe37a
1000
null
1070
     0
1040
6.0
1040
6.0
1040
6.0
1070
    13
1040
1.7599999999999989
1000
0
1000
CADMEC_1-1
1002
}
1001
ASM_EXPLO_VER_2_00
1002
{
1040
2.0
1010
-0.57735026919
1020
-0.57735026919
1030
0.57735026919
1010
0.0
1020
0.0
1030
0.0
1002
}
  0
ATTRIB
  5
2974
  8
ASM-FROZEN
 62
     2
 10
212.2402527711597
 20
65.040208522258453
 30
0.0
 40
0.02
  1
ASSE1|1|ASSI1
  2
ASSE1
 70
     1
  0
ATTRIB
  5
2975
  8
ASM-FROZEN
 62
     2
 10
212.2402527711597
 20
65.006875188925122
 30
0.0
 40
0.02
  1
ASSE2|1|ASSI2
  2
ASSE2
 70
     1
  0
ATTRIB
  5
2976
  8
ASM-FROZEN
 62
     2
 10
212.2402527711597
 20
64.97354185559179
 30
0.0
 40
0.02
  1
ASSE3|1|ASSI3
  2
ASSE3
 70
     1
  0
ATTRIB
  5
2977
  8
ASM-FROZEN
 62
     2
 10
212.2402527711597
 20
64.940208522258459
 30
0.0
 40
0.02
  1
CONFINE|5|CONFINE
  2
CONFINE
 70
     1
  0
ATTRIB
  5
2978
  8
ASM-FROZEN
 62
     2
 10
212.2402527711597
 20
64.906875188925127
 30
0.0
 40
0.02
  1
CONTORNO|7|CONTINUOUS
  2
CONTORNO
 70
     1
  0
ATTRIB
  5
2979
  8
ASM-FROZEN
 62
     2
 10
212.2402527711597
 20
64.873541855591796
 30
0.0
 40
0.02
  1
DISTINTA|6|CONTINUOUS
  2
DISTINTA
 70
     1
  0
ATTRIB
  5
297A
  8
ASM-FROZEN
 62
     2
 10
212.2402527711597
 20
64.84020852225845
 30
0.0
 40
0.02
  1
GRUPPO1|7|CONTINUOUS
  2
GRUPPO1
 70
     1
  0
ATTRIB
  5
297B
  8
ASM-FROZEN
 62
     2
 10
212.2402527711597
 20
64.806875188925119
 30
0.0
 40
0.02
  1
GRUPPO2|7|CONTINUOUS
  2
GRUPPO2
 70
     1
  0
ATTRIB
  5
297C
  8
ASM-FROZEN
 62
     2
 10
212.2402527711597
 20
64.773541855591773
 30
0.0
 40
0.02
  1
GRUPPO3|7|CONTINUOUS
  2
GRUPPO3
 70
     1
  0
ATTRIB
  5
297D
  8
ASM-FROZEN
 62
     2
 10
212.2402527711597
 20
64.740208522258456
 30
0.0
 40
0.02
  1
GRUPPO4|7|CONTINUOUS
  2
GRUPPO4
 70
     1
  0
ATTRIB
  5
297E
  8
ASM-FROZEN
 62
     2
 10
212.2402527711597
 20
64.706875188925125
 30
0.0
 40
0.02
  1
IMPOST|7|CONTINUOUS
  2
IMPOST
 70
     1
  0
ATTRIB
  5
297F
  8
ASM-FROZEN
 62
     2
 10
212.2402527711597
 20
64.673541855591793
 30
0.0
 40
0.02
  1
LINEAFIN|4|CONTINUOUS
  2
LINEAFINE
 70
     1
  0
ATTRIB
  5
2980
  8
ASM-FROZEN
 62
     2
 10
212.2402527711597
 20
64.640208522258462
 30
0.0
 40
0.02
  1
QUOTA|3|CONTINUOUS
  2
QUOTA
 70
     1
  0
ATTRIB
  5
2981
  8
ASM-FROZEN
 62
     2
 10
212.2402527711597
 20
64.60687518892513
 30
0.0
 40
0.02
  1
SALDATUR|3|CONTINUOUS
  2
SALDATURA
 70
     1
  0
ATTRIB
  5
2982
  8
ASM-FROZEN
  6
BYBLOCK
 62
     2
 10
212.2402527711597
 20
64.573541855591799
 30
0.0
 40
0.02
  1
SIMBPNEU|7|CONTINUOUS
  2
SIMBPNEU
 70
     1
  0
ATTRIB
  5
2983
  8
ASM-FROZEN
 62
     2
 10
212.2402527711597
 20
64.540208522258453
 30
0.0
 40
0.02
  1
TABELLA|4|CONTINUOUS
  2
TABELLA
 70
     1
  0
ATTRIB
  5
2984
  8
ASM-FROZEN
 62
     2
 10
212.2402527711597
 20
64.506875188925122
 30
0.0
 40
0.02
  1
TESTO|7|CONTINUOUS
  2
TESTO
 70
     1
  0
ATTRIB
  5
2985
  8
ASM-FROZEN
 62
     2
 10
212.2402527711597
 20
64.47354185559179
 30
0.0
 40
0.02
  1
TRATTI1|2|TRATTI1
  2
TRATTI1
 70
     1
  0
ATTRIB
  5
2986
  8
ASM-FROZEN
 62
     2
 10
212.2402527711597
 20
64.440208522258459
 30
0.0
 40
0.02
  1
TRATTI2|2|TRATTI2
  2
TRATTI2
 70
     1
  0
ATTRIB
  5
2987
  8
ASM-FROZEN
 62
     2
 10
212.2402527711597
 20
64.406875188925127
 30
0.0
 40
0.02
  1
TRATTI3|2|TRATTI3
  2
TRATTI3
 70
     1
  0
ATTRIB
  5
2988
  8
ASM-FROZEN
 62
     2
 10
212.2402527711597
 20
64.373541855591796
 30
0.0
 40
0.02
  1
TRATTI1F|4|TRATTI1
  2
TRATTI1F
 70
     1
  0
ATTRIB
  5
2989
  8
ASM-FROZEN
  6
BYBLOCK
 62
     2
 10
212.2402527711597
 20
64.34020852225845
 30
0.0
 40
0.02
  1
TRATTI2F|4|TRATTI2
  2
TRATTI2F
 70
     1
  0
ATTRIB
  5
298A
  8
ASM-FROZEN
 62
     2
 10
212.2402527711597
 20
64.306875188925105
 30
0.0
 40
0.02
  1
TRATTI3F|4|TRATTI3
  2
TRATTI3F
 70
     1
  0
ATTRIB
  5
298B
  8
ASM-FROZEN
  6
BYBLOCK
 62
     2
 10
212.2402527711597
 20
64.273541855591773
 30
0.0
 40
0.02
  1
TRATTEGG|4|CONTINUOUS
  2
TRATTEGGIO
 70
     1
  0
SEQEND
  5
298C
  8
ASM-FROZEN
  0
INSERT
  5
2A3F
  8
ASM-FROZEN
 66
     1
  2
ASM_CONF
 10
199.8131806919553
 20
61.899094711555051
 30
0.0
 41
0.01
 42
0.01
 43
0.01
1001
ASM_BASE
1002
{
1040
12.0
1070
     1
1010
0.0
1020
0.0
1030
0.0
1000
A
1000
ASM_CADM
1000
Fe37a
1000
null
1070
     0
1040
6.0
1040
6.0
1040
6.0
1070
    13
1040
1.7599999999999989
1000
0
1000
CADMEC_1-1
1002
}
1001
ASM_EXPLO_VER_2_00
1002
{
1040
2.0
1010
-0.57735026919
1020
-0.57735026919
1030
0.57735026919
1010
0.0
1020
0.0
1030
0.0
1002
}
  0
ATTRIB
  5
2A40
  8
ASM-FROZEN
 62
     2
 10
199.9331806919553
 20
61.969094711555051
 30
0.0
 40
0.002
  1
ASSE1|1|ASSI1
  2
ASSE1
 70
     1
  0
ATTRIB
  5
2A41
  8
ASM-FROZEN
 62
     2
 10
199.9331806919553
 20
61.965761378221707
 30
0.0
 40
0.002
  1
ASSE2|1|ASSI2
  2
ASSE2
 70
     1
  0
ATTRIB
  5
2A42
  8
ASM-FROZEN
 62
     2
 10
199.9331806919553
 20
61.962428044888377
 30
0.0
 40
0.002
  1
ASSE3|1|ASSI3
  2
ASSE3
 70
     1
  0
ATTRIB
  5
2A43
  8
ASM-FROZEN
 62
     2
 10
199.9331806919553
 20
61.959094711555053
 30
0.0
 40
0.002
  1
CONFINE|5|CONFINE
  2
CONFINE
 70
     1
  0
ATTRIB
  5
2A44
  8
ASM-FROZEN
 62
     2
 10
199.9331806919553
 20
61.955761378221723
 30
0.0
 40
0.002
  1
CONTORNO|7|CONTINUOUS
  2
CONTORNO
 70
     1
  0
ATTRIB
  5
2A45
  8
ASM-FROZEN
 62
     2
 10
199.9331806919553
 20
61.952428044888379
 30
0.0
 40
0.002
  1
DISTINTA|6|CONTINUOUS
  2
DISTINTA
 70
     1
  0
ATTRIB
  5
2A46
  8
ASM-FROZEN
 62
     2
 10
199.9331806919553
 20
61.949094711555041
 30
0.0
 40
0.002
  1
GRUPPO1|7|CONTINUOUS
  2
GRUPPO1
 70
     1
  0
ATTRIB
  5
2A47
  8
ASM-FROZEN
 62
     2
 10
199.9331806919553
 20
61.945761378221711
 30
0.0
 40
0.002
  1
GRUPPO2|7|CONTINUOUS
  2
GRUPPO2
 70
     1
  0
ATTRIB
  5
2A48
  8
ASM-FROZEN
 62
     2
 10
199.9331806919553
 20
61.942428044888381
 30
0.0
 40
0.002
  1
GRUPPO3|7|CONTINUOUS
  2
GRUPPO3
 70
     1
  0
ATTRIB
  5
2A49
  8
ASM-FROZEN
 62
     2
 10
199.9331806919553
 20
61.93909471155505
 30
0.0
 40
0.002
  1
GRUPPO4|7|CONTINUOUS
  2
GRUPPO4
 70
     1
  0
ATTRIB
  5
2A4A
  8
ASM-FROZEN
 62
     2
 10
199.9331806919553
 20
61.935761378221713
 30
0.0
 40
0.002
  1
IMPOST|7|CONTINUOUS
  2
IMPOST
 70
     1
  0
ATTRIB
  5
2A4B
  8
ASM-FROZEN
 62
     2
 10
199.9331806919553
 20
61.932428044888383
 30
0.0
 40
0.002
  1
LINEAFIN|4|CONTINUOUS
  2
LINEAFINE
 70
     1
  0
ATTRIB
  5
2A4C
  8
ASM-FROZEN
 62
     2
 10
199.9331806919553
 20
61.929094711555052
 30
0.0
 40
0.002
  1
QUOTA|3|CONTINUOUS
  2
QUOTA
 70
     1
  0
ATTRIB
  5
2A4D
  8
ASM-FROZEN
 62
     2
 10
199.9331806919553
 20
61.925761378221722
 30
0.0
 40
0.002
  1
SALDATUR|3|CONTINUOUS
  2
SALDATURA
 70
     1
  0
ATTRIB
  5
2A4E
  8
ASM-FROZEN
  6
BYBLOCK
 62
     2
 10
199.9331806919553
 20
61.922428044888377
 30
0.0
 40
0.002
  1
SIMBPNEU|7|CONTINUOUS
  2
SIMBPNEU
 70
     1
  0
ATTRIB
  5
2A4F
  8
ASM-FROZEN
 62
     2
 10
199.9331806919553
 20
61.91909471155504
 30
0.0
 40
0.002
  1
TABELLA|4|CONTINUOUS
  2
TABELLA
 70
     1
  0
ATTRIB
  5
2A50
  8
ASM-FROZEN
 62
     2
 10
199.9331806919553
 20
61.91576137822171
 30
0.0
 40
0.002
  1
TESTO|7|CONTINUOUS
  2
TESTO
 70
     1
  0
ATTRIB
  5
2A51
  8
ASM-FROZEN
 62
     2
 10
199.9331806919553
 20
61.912428044888387
 30
0.0
 40
0.002
  1
TRATTI1|2|TRATTI1
  2
TRATTI1
 70
     1
  0
ATTRIB
  5
2A52
  8
ASM-FROZEN
 62
     2
 10
199.9331806919553
 20
61.909094711555049
 30
0.0
 40
0.002
  1
TRATTI2|2|TRATTI2
  2
TRATTI2
 70
     1
  0
ATTRIB
  5
2A53
  8
ASM-FROZEN
 62
     2
 10
199.9331806919553
 20
61.905761378221719
 30
0.0
 40
0.002
  1
TRATTI3|2|TRATTI3
  2
TRATTI3
 70
     1
  0
ATTRIB
  5
2A54
  8
ASM-FROZEN
 62
     2
 10
199.9331806919553
 20
61.902428044888381
 30
0.0
 40
0.002
  1
TRATTI1F|4|TRATTI1
  2
TRATTI1F
 70
     1
  0
ATTRIB
  5
2A55
  8
ASM-FROZEN
  6
BYBLOCK
 62
     2
 10
199.9331806919553
 20
61.899094711555051
 30
0.0
 40
0.002
  1
TRATTI2F|4|TRATTI2
  2
TRATTI2F
 70
     1
  0
ATTRIB
  5
2A56
  8
ASM-FROZEN
 62
     2
 10
199.9331806919553
 20
61.895761378221721
 30
0.0
 40
0.002
  1
TRATTI3F|4|TRATTI3
  2
TRATTI3F
 70
     1
  0
ATTRIB
  5
2A57
  8
ASM-FROZEN
  6
BYBLOCK
 62
     2
 10
199.9331806919553
 20
61.892428044888383
 30
0.0
 40
0.002
  1
TRATTEGG|4|CONTINUOUS
  2
TRATTEGGIO
 70
     1
  0
SEQEND
  5
2A58
  8
ASM-FROZEN
  0
INSERT
  5
2A59
  8
ASM-FROZEN
 66
     1
  2
ASM_CONF
 10
199.85906189693719
 20
61.98084385727433
 30
0.0
 41
0.01
 42
0.01
 43
0.01
1001
ASM_BASE
1002
{
1040
12.0
1070
     1
1010
0.0
1020
0.0
1030
0.0
1000
A
1000
ASM_CADM
1000
Fe37a
1000
null
1070
     0
1040
6.0
1040
6.0
1040
6.0
1070
    13
1040
1.7599999999999989
1000
0
1000
CADMEC_1-1
1002
}
1001
ASM_EXPLO_VER_2_00
1002
{
1040
2.0
1010
-0.57735026919
1020
-0.57735026919
1030
0.57735026919
1010
0.0
1020
0.0
1030
0.0
1002
}
  0
ATTRIB
  5
2A5A
  8
ASM-FROZEN
 62
     2
 10
199.97906189693711
 20
62.05084385727433
 30
0.0
 40
0.002
  1
ASSE1|1|ASSI1
  2
ASSE1
 70
     1
  0
ATTRIB
  5
2A5B
  8
ASM-FROZEN
 62
     2
 10
199.97906189693711
 20
62.047510523941
 30
0.0
 40
0.002
  1
ASSE2|1|ASSI2
  2
ASSE2
 70
     1
  0
ATTRIB
  5
2A5C
  8
ASM-FROZEN
 62
     2
 10
199.97906189693711
 20
62.044177190607662
 30
0.0
 40
0.002
  1
ASSE3|1|ASSI3
  2
ASSE3
 70
     1
  0
ATTRIB
  5
2A5D
  8
ASM-FROZEN
 62
     2
 10
199.97906189693711
 20
62.040843857274332
 30
0.0
 40
0.002
  1
CONFINE|5|CONFINE
  2
CONFINE
 70
     1
  0
ATTRIB
  5
2A5E
  8
ASM-FROZEN
 62
     2
 10
199.97906189693711
 20
62.037510523941002
 30
0.0
 40
0.002
  1
CONTORNO|7|CONTINUOUS
  2
CONTORNO
 70
     1
  0
ATTRIB
  5
2A5F
  8
ASM-FROZEN
 62
     2
 10
199.97906189693711
 20
62.034177190607657
 30
0.0
 40
0.002
  1
DISTINTA|6|CONTINUOUS
  2
DISTINTA
 70
     1
  0
ATTRIB
  5
2A60
  8
ASM-FROZEN
 62
     2
 10
199.97906189693711
 20
62.030843857274327
 30
0.0
 40
0.002
  1
GRUPPO1|7|CONTINUOUS
  2
GRUPPO1
 70
     1
  0
ATTRIB
  5
2A61
  8
ASM-FROZEN
 62
     2
 10
199.97906189693711
 20
62.02751052394099
 30
0.0
 40
0.002
  1
GRUPPO2|7|CONTINUOUS
  2
GRUPPO2
 70
     1
  0
ATTRIB
  5
2A62
  8
ASM-FROZEN
 62
     2
 10
199.97906189693711
 20
62.024177190607659
 30
0.0
 40
0.002
  1
GRUPPO3|7|CONTINUOUS
  2
GRUPPO3
 70
     1
  0
ATTRIB
  5
2A63
  8
ASM-FROZEN
 62
     2
 10
199.97906189693711
 20
62.020843857274329
 30
0.0
 40
0.002
  1
GRUPPO4|7|CONTINUOUS
  2
GRUPPO4
 70
     1
  0
ATTRIB
  5
2A64
  8
ASM-FROZEN
 62
     2
 10
199.97906189693711
 20
62.017510523940999
 30
0.0
 40
0.002
  1
IMPOST|7|CONTINUOUS
  2
IMPOST
 70
     1
  0
ATTRIB
  5
2A65
  8
ASM-FROZEN
 62
     2
 10
199.97906189693711
 20
62.014177190607668
 30
0.0
 40
0.002
  1
LINEAFIN|4|CONTINUOUS
  2
LINEAFINE
 70
     1
  0
ATTRIB
  5
2A66
  8
ASM-FROZEN
 62
     2
 10
199.97906189693711
 20
62.010843857274331
 30
0.0
 40
0.002
  1
QUOTA|3|CONTINUOUS
  2
QUOTA
 70
     1
  0
ATTRIB
  5
2A67
  8
ASM-FROZEN
 62
     2
 10
199.97906189693711
 20
62.007510523941001
 30
0.0
 40
0.002
  1
SALDATUR|3|CONTINUOUS
  2
SALDATURA
 70
     1
  0
ATTRIB
  5
2A68
  8
ASM-FROZEN
  6
BYBLOCK
 62
     2
 10
199.97906189693711
 20
62.004177190607663
 30
0.0
 40
0.002
  1
SIMBPNEU|7|CONTINUOUS
  2
SIMBPNEU
 70
     1
  0
ATTRIB
  5
2A69
  8
ASM-FROZEN
 62
     2
 10
199.97906189693711
 20
62.000843857274333
 30
0.0
 40
0.002
  1
TABELLA|4|CONTINUOUS
  2
TABELLA
 70
     1
  0
ATTRIB
  5
2A6A
  8
ASM-FROZEN
 62
     2
 10
199.97906189693711
 20
61.997510523940988
 30
0.0
 40
0.002
  1
TESTO|7|CONTINUOUS
  2
TESTO
 70
     1
  0
ATTRIB
  5
2A6B
  8
ASM-FROZEN
 62
     2
 10
199.97906189693711
 20
61.994177190607658
 30
0.0
 40
0.002
  1
TRATTI1|2|TRATTI1
  2
TRATTI1
 70
     1
  0
ATTRIB
  5
2A6C
  8
ASM-FROZEN
 62
     2
 10
199.97906189693711
 20
61.990843857274328
 30
0.0
 40
0.002
  1
TRATTI2|2|TRATTI2
  2
TRATTI2
 70
     1
  0
ATTRIB
  5
2A6D
  8
ASM-FROZEN
 62
     2
 10
199.97906189693711
 20
61.987510523940998
 30
0.0
 40
0.002
  1
TRATTI3|2|TRATTI3
  2
TRATTI3
 70
     1
  0
ATTRIB
  5
2A6E
  8
ASM-FROZEN
 62
     2
 10
199.97906189693711
 20
61.984177190607667
 30
0.0
 40
0.002
  1
TRATTI1F|4|TRATTI1
  2
TRATTI1F
 70
     1
  0
ATTRIB
  5
2A6F
  8
ASM-FROZEN
  6
BYBLOCK
 62
     2
 10
199.97906189693711
 20
61.98084385727433
 30
0.0
 40
0.002
  1
TRATTI2F|4|TRATTI2
  2
TRATTI2F
 70
     1
  0
ATTRIB
  5
2A70
  8
ASM-FROZEN
 62
     2
 10
199.97906189693711
 20
61.977510523940992
 30
0.0
 40
0.002
  1
TRATTI3F|4|TRATTI3
  2
TRATTI3F
 70
     1
  0
ATTRIB
  5
2A71
  8
ASM-FROZEN
  6
BYBLOCK
 62
     2
 10
199.97906189693711
 20
61.974177190607662
 30
0.0
 40
0.002
  1
TRATTEGG|4|CONTINUOUS
  2
TRATTEGGIO
 70
     1
  0
SEQEND
  5
2A72
  8
ASM-FROZEN
  0
INSERT
  5
2A73
  8
ASM-FROZEN
 66
     1
  2
ASM_CONF
 10
199.74110074361499
 20
61.877272425350142
 30
0.0
 41
0.01
 42
0.01
 43
0.01
1001
ASM_BASE
1002
{
1040
12.0
1070
     1
1010
0.0
1020
0.0
1030
0.0
1000
A
1000
ASM_CADM
1000
Fe37a
1000
null
1070
     0
1040
6.0
1040
6.0
1040
6.0
1070
    13
1040
1.7599999999999989
1000
0
1000
CADMEC_1-1
1002
}
1001
ASM_EXPLO_VER_2_00
1002
{
1040
2.0
1010
-0.57735026919
1020
-0.57735026919
1030
0.57735026919
1010
0.0
1020
0.0
1030
0.0
1002
}
  0
ATTRIB
  5
2A74
  8
ASM-FROZEN
 62
     2
 10
199.861100743615
 20
61.947272425350143
 30
0.0
 40
0.002
  1
ASSE1|1|ASSI1
  2
ASSE1
 70
     1
  0
ATTRIB
  5
2A75
  8
ASM-FROZEN
 62
     2
 10
199.861100743615
 20
61.943939092016798
 30
0.0
 40
0.002
  1
ASSE2|1|ASSI2
  2
ASSE2
 70
     1
  0
ATTRIB
  5
2A76
  8
ASM-FROZEN
 62
     2
 10
199.861100743615
 20
61.940605758683482
 30
0.0
 40
0.002
  1
ASSE3|1|ASSI3
  2
ASSE3
 70
     1
  0
ATTRIB
  5
2A77
  8
ASM-FROZEN
 62
     2
 10
199.861100743615
 20
61.937272425350152
 30
0.0
 40
0.002
  1
CONFINE|5|CONFINE
  2
CONFINE
 70
     1
  0
ATTRIB
  5
2A78
  8
ASM-FROZEN
 62
     2
 10
199.861100743615
 20
61.933939092016807
 30
0.0
 40
0.002
  1
CONTORNO|7|CONTINUOUS
  2
CONTORNO
 70
     1
  0
ATTRIB
  5
2A79
  8
ASM-FROZEN
 62
     2
 10
199.861100743615
 20
61.93060575868347
 30
0.0
 40
0.002
  1
DISTINTA|6|CONTINUOUS
  2
DISTINTA
 70
     1
  0
ATTRIB
  5
2A7A
  8
ASM-FROZEN
 62
     2
 10
199.861100743615
 20
61.927272425350132
 30
0.0
 40
0.002
  1
GRUPPO1|7|CONTINUOUS
  2
GRUPPO1
 70
     1
  0
ATTRIB
  5
2A7B
  8
ASM-FROZEN
 62
     2
 10
199.861100743615
 20
61.923939092016809
 30
0.0
 40
0.002
  1
GRUPPO2|7|CONTINUOUS
  2
GRUPPO2
 70
     1
  0
ATTRIB
  5
2A7C
  8
ASM-FROZEN
 62
     2
 10
199.861100743615
 20
61.920605758683472
 30
0.0
 40
0.002
  1
GRUPPO3|7|CONTINUOUS
  2
GRUPPO3
 70
     1
  0
ATTRIB
  5
2A7D
  8
ASM-FROZEN
 62
     2
 10
199.861100743615
 20
61.917272425350141
 30
0.0
 40
0.002
  1
GRUPPO4|7|CONTINUOUS
  2
GRUPPO4
 70
     1
  0
ATTRIB
  5
2A7E
  8
ASM-FROZEN
 62
     2
 10
199.861100743615
 20
61.913939092016797
 30
0.0
 40
0.002
  1
IMPOST|7|CONTINUOUS
  2
IMPOST
 70
     1
  0
ATTRIB
  5
2A7F
  8
ASM-FROZEN
 62
     2
 10
199.861100743615
 20
61.910605758683467
 30
0.0
 40
0.002
  1
LINEAFIN|4|CONTINUOUS
  2
LINEAFINE
 70
     1
  0
ATTRIB
  5
2A80
  8
ASM-FROZEN
 62
     2
 10
199.861100743615
 20
61.907272425350151
 30
0.0
 40
0.002
  1
QUOTA|3|CONTINUOUS
  2
QUOTA
 70
     1
  0
ATTRIB
  5
2A81
  8
ASM-FROZEN
 62
     2
 10
199.861100743615
 20
61.903939092016813
 30
0.0
 40
0.002
  1
SALDATUR|3|CONTINUOUS
  2
SALDATURA
 70
     1
  0
ATTRIB
  5
2A82
  8
ASM-FROZEN
  6
BYBLOCK
 62
     2
 10
199.861100743615
 20
61.900605758683469
 30
0.0
 40
0.002
  1
SIMBPNEU|7|CONTINUOUS
  2
SIMBPNEU
 70
     1
  0
ATTRIB
  5
2A83
  8
ASM-FROZEN
 62
     2
 10
199.861100743615
 20
61.897272425350131
 30
0.0
 40
0.002
  1
TABELLA|4|CONTINUOUS
  2
TABELLA
 70
     1
  0
ATTRIB
  5
2A84
  8
ASM-FROZEN
 62
     2
 10
199.861100743615
 20
61.893939092016801
 30
0.0
 40
0.002
  1
TESTO|7|CONTINUOUS
  2
TESTO
 70
     1
  0
ATTRIB
  5
2A85
  8
ASM-FROZEN
 62
     2
 10
199.861100743615
 20
61.890605758683478
 30
0.0
 40
0.002
  1
TRATTI1|2|TRATTI1
  2
TRATTI1
 70
     1
  0
ATTRIB
  5
2A86
  8
ASM-FROZEN
 62
     2
 10
199.861100743615
 20
61.88727242535014
 30
0.0
 40
0.002
  1
TRATTI2|2|TRATTI2
  2
TRATTI2
 70
     1
  0
ATTRIB
  5
2A87
  8
ASM-FROZEN
 62
     2
 10
199.861100743615
 20
61.883939092016803
 30
0.0
 40
0.002
  1
TRATTI3|2|TRATTI3
  2
TRATTI3
 70
     1
  0
ATTRIB
  5
2A88
  8
ASM-FROZEN
 62
     2
 10
199.861100743615
 20
61.880605758683473
 30
0.0
 40
0.002
  1
TRATTI1F|4|TRATTI1
  2
TRATTI1F
 70
     1
  0
ATTRIB
  5
2A89
  8
ASM-FROZEN
  6
BYBLOCK
 62
     2
 10
199.861100743615
 20
61.877272425350142
 30
0.0
 40
0.002
  1
TRATTI2F|4|TRATTI2
  2
TRATTI2F
 70
     1
  0
ATTRIB
  5
2A8A
  8
ASM-FROZEN
 62
     2
 10
199.861100743615
 20
61.873939092016812
 30
0.0
 40
0.002
  1
TRATTI3F|4|TRATTI3
  2
TRATTI3F
 70
     1
  0
ATTRIB
  5
2A8B
  8
ASM-FROZEN
  6
BYBLOCK
 62
     2
 10
199.861100743615
 20
61.870605758683467
 30
0.0
 40
0.002
  1
TRATTEGG|4|CONTINUOUS
  2
TRATTEGGIO
 70
     1
  0
SEQEND
  5
2A8C
  8
ASM-FROZEN
  0
INSERT
  5
2A8D
  8
ASM-FROZEN
 66
     1
  2
ASM_CONF
 10
200.13430459041371
 20
62.045129568021011
 30
0.0
 41
0.01
 42
0.01
 43
0.01
1001
ASM_BASE
1002
{
1040
12.0
1070
     1
1010
0.0
1020
0.0
1030
0.0
1000
A
1000
ASM_CADM
1000
Fe37a
1000
null
1070
     0
1040
6.0
1040
6.0
1040
6.0
1070
    13
1040
1.7599999999999989
1000
0
1000
CADMEC_1-1
1002
}
1001
ASM_EXPLO_VER_2_00
1002
{
1040
2.0
1010
-0.57735026919
1020
-0.57735026919
1030
0.57735026919
1010
0.0
1020
0.0
1030
0.0
1002
}
  0
ATTRIB
  5
2A8E
  8
ASM-FROZEN
 62
     2
 10
200.25430459041371
 20
62.115129568021018
 30
0.0
 40
0.002
  1
ASSE1|1|ASSI1
  2
ASSE1
 70
     1
  0
ATTRIB
  5
2A8F
  8
ASM-FROZEN
 62
     2
 10
200.25430459041371
 20
62.111796234687688
 30
0.0
 40
0.002
  1
ASSE2|1|ASSI2
  2
ASSE2
 70
     1
  0
ATTRIB
  5
2A90
  8
ASM-FROZEN
 62
     2
 10
200.25430459041371
 20
62.108462901354351
 30
0.0
 40
0.002
  1
ASSE3|1|ASSI3
  2
ASSE3
 70
     1
  0
ATTRIB
  5
2A91
  8
ASM-FROZEN
 62
     2
 10
200.25430459041371
 20
62.10512956802102
 30
0.0
 40
0.002
  1
CONFINE|5|CONFINE
  2
CONFINE
 70
     1
  0
ATTRIB
  5
2A92
  8
ASM-FROZEN
 62
     2
 10
200.25430459041371
 20
62.101796234687683
 30
0.0
 40
0.002
  1
CONTORNO|7|CONTINUOUS
  2
CONTORNO
 70
     1
  0
ATTRIB
  5
2A93
  8
ASM-FROZEN
 62
     2
 10
200.25430459041371
 20
62.098462901354353
 30
0.0
 40
0.002
  1
DISTINTA|6|CONTINUOUS
  2
DISTINTA
 70
     1
  0
ATTRIB
  5
2A94
  8
ASM-FROZEN
 62
     2
 10
200.25430459041371
 20
62.095129568021022
 30
0.0
 40
0.002
  1
GRUPPO1|7|CONTINUOUS
  2
GRUPPO1
 70
     1
  0
ATTRIB
  5
2A95
  8
ASM-FROZEN
 62
     2
 10
200.25430459041371
 20
62.091796234687678
 30
0.0
 40
0.002
  1
GRUPPO2|7|CONTINUOUS
  2
GRUPPO2
 70
     1
  0
ATTRIB
  5
2A96
  8
ASM-FROZEN
 62
     2
 10
200.25430459041371
 20
62.088462901354347
 30
0.0
 40
0.002
  1
GRUPPO3|7|CONTINUOUS
  2
GRUPPO3
 70
     1
  0
ATTRIB
  5
2A97
  8
ASM-FROZEN
 62
     2
 10
200.25430459041371
 20
62.085129568021017
 30
0.0
 40
0.002
  1
GRUPPO4|7|CONTINUOUS
  2
GRUPPO4
 70
     1
  0
ATTRIB
  5
2A98
  8
ASM-FROZEN
 62
     2
 10
200.25430459041371
 20
62.081796234687687
 30
0.0
 40
0.002
  1
IMPOST|7|CONTINUOUS
  2
IMPOST
 70
     1
  0
ATTRIB
  5
2A99
  8
ASM-FROZEN
 62
     2
 10
200.25430459041371
 20
62.078462901354349
 30
0.0
 40
0.002
  1
LINEAFIN|4|CONTINUOUS
  2
LINEAFINE
 70
     1
  0
ATTRIB
  5
2A9A
  8
ASM-FROZEN
 62
     2
 10
200.25430459041371
 20
62.075129568021012
 30
0.0
 40
0.002
  1
QUOTA|3|CONTINUOUS
  2
QUOTA
 70
     1
  0
ATTRIB
  5
2A9B
  8
ASM-FROZEN
 62
     2
 10
200.25430459041371
 20
62.071796234687682
 30
0.0
 40
0.002
  1
SALDATUR|3|CONTINUOUS
  2
SALDATURA
 70
     1
  0
ATTRIB
  5
2A9C
  8
ASM-FROZEN
  6
BYBLOCK
 62
     2
 10
200.25430459041371
 20
62.068462901354351
 30
0.0
 40
0.002
  1
SIMBPNEU|7|CONTINUOUS
  2
SIMBPNEU
 70
     1
  0
ATTRIB
  5
2A9D
  8
ASM-FROZEN
 62
     2
 10
200.25430459041371
 20
62.065129568021021
 30
0.0
 40
0.002
  1
TABELLA|4|CONTINUOUS
  2
TABELLA
 70
     1
  0
ATTRIB
  5
2A9E
  8
ASM-FROZEN
 62
     2
 10
200.25430459041371
 20
62.061796234687691
 30
0.0
 40
0.002
  1
TESTO|7|CONTINUOUS
  2
TESTO
 70
     1
  0
ATTRIB
  5
2A9F
  8
ASM-FROZEN
 62
     2
 10
200.25430459041371
 20
62.058462901354353
 30
0.0
 40
0.002
  1
TRATTI1|2|TRATTI1
  2
TRATTI1
 70
     1
  0
ATTRIB
  5
2AA0
  8
ASM-FROZEN
 62
     2
 10
200.25430459041371
 20
62.055129568021023
 30
0.0
 40
0.002
  1
TRATTI2|2|TRATTI2
  2
TRATTI2
 70
     1
  0
ATTRIB
  5
2AA1
  8
ASM-FROZEN
 62
     2
 10
200.25430459041371
 20
62.051796234687693
 30
0.0
 40
0.002
  1
TRATTI3|2|TRATTI3
  2
TRATTI3
 70
     1
  0
ATTRIB
  5
2AA2
  8
ASM-FROZEN
 62
     2
 10
200.25430459041371
 20
62.048462901354348
 30
0.0
 40
0.002
  1
TRATTI1F|4|TRATTI1
  2
TRATTI1F
 70
     1
  0
ATTRIB
  5
2AA3
  8
ASM-FROZEN
  6
BYBLOCK
 62
     2
 10
200.25430459041371
 20
62.045129568021011
 30
0.0
 40
0.002
  1
TRATTI2F|4|TRATTI2
  2
TRATTI2F
 70
     1
  0
ATTRIB
  5
2AA4
  8
ASM-FROZEN
 62
     2
 10
200.25430459041371
 20
62.041796234687681
 30
0.0
 40
0.002
  1
TRATTI3F|4|TRATTI3
  2
TRATTI3F
 70
     1
  0
ATTRIB
  5
2AA5
  8
ASM-FROZEN
  6
BYBLOCK
 62
     2
 10
200.25430459041371
 20
62.03846290135435
 30
0.0
 40
0.002
  1
TRATTEGG|4|CONTINUOUS
  2
TRATTEGGIO
 70
     1
  0
SEQEND
  5
2AA6
  8
ASM-FROZEN
  0
INSERT
  5
2BC2
  8
ASM-FROZEN
 66
     1
  2
ASM_CONF
 10
199.8478591283376
 20
62.107021955325799
 30
0.0
 41
0.01
 42
0.01
 43
0.01
1001
ASM_BASE
1002
{
1040
12.0
1070
     1
1010
0.0
1020
0.0
1030
0.0
1000
A
1000
ASM_CADM
1000
Fe37a
1000
null
1070
     0
1040
6.0
1040
6.0
1040
6.0
1070
    13
1040
1.7599999999999989
1000
0
1000
CADMEC_1-1
1002
}
1001
ASM_EXPLO_VER_2_00
1002
{
1040
2.0
1010
-0.57735026919
1020
-0.57735026919
1030
0.57735026919
1010
0.0
1020
0.0
1030
0.0
1002
}
  0
ATTRIB
  5
2BC3
  8
ASM-FROZEN
 62
     2
 10
199.96785912833769
 20
62.177021955325813
 30
0.0
 40
0.002
  1
ASSE1|1|ASSI1
  2
ASSE1
 70
     1
  0
ATTRIB
  5
2BC4
  8
ASM-FROZEN
 62
     2
 10
199.96785912833769
 20
62.173688621992468
 30
0.0
 40
0.002
  1
ASSE2|1|ASSI2
  2
ASSE2
 70
     1
  0
ATTRIB
  5
2BC5
  8
ASM-FROZEN
 62
     2
 10
199.96785912833769
 20
62.170355288659131
 30
0.0
 40
0.002
  1
ASSE3|1|ASSI3
  2
ASSE3
 70
     1
  0
ATTRIB
  5
2BC6
  8
ASM-FROZEN
 62
     2
 10
199.96785912833769
 20
62.167021955325801
 30
0.0
 40
0.002
  1
CONFINE|5|CONFINE
  2
CONFINE
 70
     1
  0
ATTRIB
  5
2BC7
  8
ASM-FROZEN
 62
     2
 10
199.96785912833769
 20
62.163688621992478
 30
0.0
 40
0.002
  1
CONTORNO|7|CONTINUOUS
  2
CONTORNO
 70
     1
  0
ATTRIB
  5
2BC8
  8
ASM-FROZEN
 62
     2
 10
199.96785912833769
 20
62.16035528865914
 30
0.0
 40
0.002
  1
DISTINTA|6|CONTINUOUS
  2
DISTINTA
 70
     1
  0
ATTRIB
  5
2BC9
  8
ASM-FROZEN
 62
     2
 10
199.96785912833769
 20
62.157021955325803
 30
0.0
 40
0.002
  1
GRUPPO1|7|CONTINUOUS
  2
GRUPPO1
 70
     1
  0
ATTRIB
  5
2BCA
  8
ASM-FROZEN
 62
     2
 10
199.96785912833769
 20
62.153688621992472
 30
0.0
 40
0.002
  1
GRUPPO2|7|CONTINUOUS
  2
GRUPPO2
 70
     1
  0
ATTRIB
  5
2BCB
  8
ASM-FROZEN
 62
     2
 10
199.96785912833769
 20
62.150355288659142
 30
0.0
 40
0.002
  1
GRUPPO3|7|CONTINUOUS
  2
GRUPPO3
 70
     1
  0
ATTRIB
  5
2BCC
  8
ASM-FROZEN
 62
     2
 10
199.96785912833769
 20
62.147021955325812
 30
0.0
 40
0.002
  1
GRUPPO4|7|CONTINUOUS
  2
GRUPPO4
 70
     1
  0
ATTRIB
  5
2BCD
  8
ASM-FROZEN
 62
     2
 10
199.96785912833769
 20
62.143688621992467
 30
0.0
 40
0.002
  1
IMPOST|7|CONTINUOUS
  2
IMPOST
 70
     1
  0
ATTRIB
  5
2BCE
  8
ASM-FROZEN
 62
     2
 10
199.96785912833769
 20
62.14035528865913
 30
0.0
 40
0.002
  1
LINEAFIN|4|CONTINUOUS
  2
LINEAFINE
 70
     1
  0
ATTRIB
  5
2BCF
  8
ASM-FROZEN
 62
     2
 10
199.96785912833769
 20
62.1370219553258
 30
0.0
 40
0.002
  1
QUOTA|3|CONTINUOUS
  2
QUOTA
 70
     1
  0
ATTRIB
  5
2BD0
  8
ASM-FROZEN
 62
     2
 10
199.96785912833769
 20
62.133688621992469
 30
0.0
 40
0.002
  1
SALDATUR|3|CONTINUOUS
  2
SALDATURA
 70
     1
  0
ATTRIB
  5
2BD1
  8
ASM-FROZEN
  6
BYBLOCK
 62
     2
 10
199.96785912833769
 20
62.130355288659139
 30
0.0
 40
0.002
  1
SIMBPNEU|7|CONTINUOUS
  2
SIMBPNEU
 70
     1
  0
ATTRIB
  5
2BD2
  8
ASM-FROZEN
 62
     2
 10
199.96785912833769
 20
62.127021955325809
 30
0.0
 40
0.002
  1
TABELLA|4|CONTINUOUS
  2
TABELLA
 70
     1
  0
ATTRIB
  5
2BD3
  8
ASM-FROZEN
 62
     2
 10
199.96785912833769
 20
62.123688621992471
 30
0.0
 40
0.002
  1
TESTO|7|CONTINUOUS
  2
TESTO
 70
     1
  0
ATTRIB
  5
2BD4
  8
ASM-FROZEN
 62
     2
 10
199.96785912833769
 20
62.120355288659141
 30
0.0
 40
0.002
  1
TRATTI1|2|TRATTI1
  2
TRATTI1
 70
     1
  0
ATTRIB
  5
2BD5
  8
ASM-FROZEN
 62
     2
 10
199.96785912833769
 20
62.117021955325811
 30
0.0
 40
0.002
  1
TRATTI2|2|TRATTI2
  2
TRATTI2
 70
     1
  0
ATTRIB
  5
2BD6
  8
ASM-FROZEN
 62
     2
 10
199.96785912833769
 20
62.113688621992473
 30
0.0
 40
0.002
  1
TRATTI3|2|TRATTI3
  2
TRATTI3
 70
     1
  0
ATTRIB
  5
2BD7
  8
ASM-FROZEN
 62
     2
 10
199.96785912833769
 20
62.110355288659129
 30
0.0
 40
0.002
  1
TRATTI1F|4|TRATTI1
  2
TRATTI1F
 70
     1
  0
ATTRIB
  5
2BD8
  8
ASM-FROZEN
  6
BYBLOCK
 62
     2
 10
199.96785912833769
 20
62.107021955325799
 30
0.0
 40
0.002
  1
TRATTI2F|4|TRATTI2
  2
TRATTI2F
 70
     1
  0
ATTRIB
  5
2BD9
  8
ASM-FROZEN
 62
     2
 10
199.96785912833769
 20
62.103688621992468
 30
0.0
 40
0.002
  1
TRATTI3F|4|TRATTI3
  2
TRATTI3F
 70
     1
  0
ATTRIB
  5
2BDA
  8
ASM-FROZEN
  6
BYBLOCK
 62
     2
 10
199.96785912833769
 20
62.100355288659138
 30
0.0
 40
0.002
  1
TRATTEGG|4|CONTINUOUS
  2
TRATTEGGIO
 70
     1
  0
SEQEND
  5
2BDB
  8
ASM-FROZEN
  0
INSERT
  5
2BDC
  8
ASM-FROZEN
 66
     1
  2
ASM_CONF
 10
199.8937403333195
 20
62.188771101045091
 30
0.0
 41
0.01
 42
0.01
 43
0.01
1001
ASM_BASE
1002
{
1040
12.0
1070
     1
1010
0.0
1020
0.0
1030
0.0
1000
A
1000
ASM_CADM
1000
Fe37a
1000
null
1070
     0
1040
6.0
1040
6.0
1040
6.0
1070
    13
1040
1.7599999999999989
1000
0
1000
CADMEC_1-1
1002
}
1001
ASM_EXPLO_VER_2_00
1002
{
1040
2.0
1010
-0.57735026919
1020
-0.57735026919
1030
0.57735026919
1010
0.0
1020
0.0
1030
0.0
1002
}
  0
ATTRIB
  5
2BDD
  8
ASM-FROZEN
 62
     2
 10
200.01374033331959
 20
62.258771101045092
 30
0.0
 40
0.002
  1
ASSE1|1|ASSI1
  2
ASSE1
 70
     1
  0
ATTRIB
  5
2BDE
  8
ASM-FROZEN
 62
     2
 10
200.01374033331959
 20
62.255437767711747
 30
0.0
 40
0.002
  1
ASSE2|1|ASSI2
  2
ASSE2
 70
     1
  0
ATTRIB
  5
2BDF
  8
ASM-FROZEN
 62
     2
 10
200.01374033331959
 20
62.252104434378417
 30
0.0
 40
0.002
  1
ASSE3|1|ASSI3
  2
ASSE3
 70
     1
  0
ATTRIB
  5
2BE0
  8
ASM-FROZEN
 62
     2
 10
200.01374033331959
 20
62.248771101045079
 30
0.0
 40
0.002
  1
CONFINE|5|CONFINE
  2
CONFINE
 70
     1
  0
ATTRIB
  5
2BE1
  8
ASM-FROZEN
 62
     2
 10
200.01374033331959
 20
62.245437767711749
 30
0.0
 40
0.002
  1
CONTORNO|7|CONTINUOUS
  2
CONTORNO
 70
     1
  0
ATTRIB
  5
2BE2
  8
ASM-FROZEN
 62
     2
 10
200.01374033331959
 20
62.242104434378419
 30
0.0
 40
0.002
  1
DISTINTA|6|CONTINUOUS
  2
DISTINTA
 70
     1
  0
ATTRIB
  5
2BE3
  8
ASM-FROZEN
 62
     2
 10
200.01374033331959
 20
62.238771101045089
 30
0.0
 40
0.002
  1
GRUPPO1|7|CONTINUOUS
  2
GRUPPO1
 70
     1
  0
ATTRIB
  5
2BE4
  8
ASM-FROZEN
 62
     2
 10
200.01374033331959
 20
62.235437767711758
 30
0.0
 40
0.002
  1
GRUPPO2|7|CONTINUOUS
  2
GRUPPO2
 70
     1
  0
ATTRIB
  5
2BE5
  8
ASM-FROZEN
 62
     2
 10
200.01374033331959
 20
62.232104434378421
 30
0.0
 40
0.002
  1
GRUPPO3|7|CONTINUOUS
  2
GRUPPO3
 70
     1
  0
ATTRIB
  5
2BE6
  8
ASM-FROZEN
 62
     2
 10
200.01374033331959
 20
62.228771101045091
 30
0.0
 40
0.002
  1
GRUPPO4|7|CONTINUOUS
  2
GRUPPO4
 70
     1
  0
ATTRIB
  5
2BE7
  8
ASM-FROZEN
 62
     2
 10
200.01374033331959
 20
62.225437767711753
 30
0.0
 40
0.002
  1
IMPOST|7|CONTINUOUS
  2
IMPOST
 70
     1
  0
ATTRIB
  5
2BE8
  8
ASM-FROZEN
 62
     2
 10
200.01374033331959
 20
62.222104434378423
 30
0.0
 40
0.002
  1
LINEAFIN|4|CONTINUOUS
  2
LINEAFINE
 70
     1
  0
ATTRIB
  5
2BE9
  8
ASM-FROZEN
 62
     2
 10
200.01374033331959
 20
62.218771101045078
 30
0.0
 40
0.002
  1
QUOTA|3|CONTINUOUS
  2
QUOTA
 70
     1
  0
ATTRIB
  5
2BEA
  8
ASM-FROZEN
 62
     2
 10
200.01374033331959
 20
62.215437767711748
 30
0.0
 40
0.002
  1
SALDATUR|3|CONTINUOUS
  2
SALDATURA
 70
     1
  0
ATTRIB
  5
2BEB
  8
ASM-FROZEN
  6
BYBLOCK
 62
     2
 10
200.01374033331959
 20
62.212104434378418
 30
0.0
 40
0.002
  1
SIMBPNEU|7|CONTINUOUS
  2
SIMBPNEU
 70
     1
  0
ATTRIB
  5
2BEC
  8
ASM-FROZEN
 62
     2
 10
200.01374033331959
 20
62.208771101045087
 30
0.0
 40
0.002
  1
TABELLA|4|CONTINUOUS
  2
TABELLA
 70
     1
  0
ATTRIB
  5
2BED
  8
ASM-FROZEN
 62
     2
 10
200.01374033331959
 20
62.205437767711757
 30
0.0
 40
0.002
  1
TESTO|7|CONTINUOUS
  2
TESTO
 70
     1
  0
ATTRIB
  5
2BEE
  8
ASM-FROZEN
 62
     2
 10
200.01374033331959
 20
62.20210443437842
 30
0.0
 40
0.002
  1
TRATTI1|2|TRATTI1
  2
TRATTI1
 70
     1
  0
ATTRIB
  5
2BEF
  8
ASM-FROZEN
 62
     2
 10
200.01374033331959
 20
62.198771101045082
 30
0.0
 40
0.002
  1
TRATTI2|2|TRATTI2
  2
TRATTI2
 70
     1
  0
ATTRIB
  5
2BF0
  8
ASM-FROZEN
 62
     2
 10
200.01374033331959
 20
62.195437767711752
 30
0.0
 40
0.002
  1
TRATTI3|2|TRATTI3
  2
TRATTI3
 70
     1
  0
ATTRIB
  5
2BF1
  8
ASM-FROZEN
 62
     2
 10
200.01374033331959
 20
62.192104434378422
 30
0.0
 40
0.002
  1
TRATTI1F|4|TRATTI1
  2
TRATTI1F
 70
     1
  0
ATTRIB
  5
2BF2
  8
ASM-FROZEN
  6
BYBLOCK
 62
     2
 10
200.01374033331959
 20
62.188771101045091
 30
0.0
 40
0.002
  1
TRATTI2F|4|TRATTI2
  2
TRATTI2F
 70
     1
  0
ATTRIB
  5
2BF3
  8
ASM-FROZEN
 62
     2
 10
200.01374033331959
 20
62.185437767711747
 30
0.0
 40
0.002
  1
TRATTI3F|4|TRATTI3
  2
TRATTI3F
 70
     1
  0
ATTRIB
  5
2BF4
  8
ASM-FROZEN
  6
BYBLOCK
 62
     2
 10
200.01374033331959
 20
62.182104434378417
 30
0.0
 40
0.002
  1
TRATTEGG|4|CONTINUOUS
  2
TRATTEGGIO
 70
     1
  0
SEQEND
  5
2BF5
  8
ASM-FROZEN
  0
INSERT
  5
2BF6
  8
ASM-FROZEN
 66
     1
  2
ASM_CONF
 10
199.7757791799973
 20
62.08519966912089
 30
0.0
 41
0.01
 42
0.01
 43
0.01
1001
ASM_BASE
1002
{
1040
12.0
1070
     1
1010
0.0
1020
0.0
1030
0.0
1000
A
1000
ASM_CADM
1000
Fe37a
1000
null
1070
     0
1040
6.0
1040
6.0
1040
6.0
1070
    13
1040
1.7599999999999989
1000
0
1000
CADMEC_1-1
1002
}
1001
ASM_EXPLO_VER_2_00
1002
{
1040
2.0
1010
-0.57735026919
1020
-0.57735026919
1030
0.57735026919
1010
0.0
1020
0.0
1030
0.0
1002
}
  0
ATTRIB
  5
2BF7
  8
ASM-FROZEN
 62
     2
 10
199.89577917999731
 20
62.155199669120897
 30
0.0
 40
0.002
  1
ASSE1|1|ASSI1
  2
ASSE1
 70
     1
  0
ATTRIB
  5
2BF8
  8
ASM-FROZEN
 62
     2
 10
199.89577917999731
 20
62.15186633578756
 30
0.0
 40
0.002
  1
ASSE2|1|ASSI2
  2
ASSE2
 70
     1
  0
ATTRIB
  5
2BF9
  8
ASM-FROZEN
 62
     2
 10
199.89577917999731
 20
62.148533002454222
 30
0.0
 40
0.002
  1
ASSE3|1|ASSI3
  2
ASSE3
 70
     1
  0
ATTRIB
  5
2BFA
  8
ASM-FROZEN
 62
     2
 10
199.89577917999731
 20
62.145199669120899
 30
0.0
 40
0.002
  1
CONFINE|5|CONFINE
  2
CONFINE
 70
     1
  0
ATTRIB
  5
2BFB
  8
ASM-FROZEN
 62
     2
 10
199.89577917999731
 20
62.141866335787562
 30
0.0
 40
0.002
  1
CONTORNO|7|CONTINUOUS
  2
CONTORNO
 70
     1
  0
ATTRIB
  5
2BFC
  8
ASM-FROZEN
 62
     2
 10
199.89577917999731
 20
62.138533002454231
 30
0.0
 40
0.002
  1
DISTINTA|6|CONTINUOUS
  2
DISTINTA
 70
     1
  0
ATTRIB
  5
2BFD
  8
ASM-FROZEN
 62
     2
 10
199.89577917999731
 20
62.135199669120887
 30
0.0
 40
0.002
  1
GRUPPO1|7|CONTINUOUS
  2
GRUPPO1
 70
     1
  0
ATTRIB
  5
2BFE
  8
ASM-FROZEN
 62
     2
 10
199.89577917999731
 20
62.131866335787556
 30
0.0
 40
0.002
  1
GRUPPO2|7|CONTINUOUS
  2
GRUPPO2
 70
     1
  0
ATTRIB
  5
2BFF
  8
ASM-FROZEN
 62
     2
 10
199.89577917999731
 20
62.12853300245424
 30
0.0
 40
0.002
  1
GRUPPO3|7|CONTINUOUS
  2
GRUPPO3
 70
     1
  0
ATTRIB
  5
2C00
  8
ASM-FROZEN
 62
     2
 10
199.89577917999731
 20
62.125199669120903
 30
0.0
 40
0.002
  1
GRUPPO4|7|CONTINUOUS
  2
GRUPPO4
 70
     1
  0
ATTRIB
  5
2C01
  8
ASM-FROZEN
 62
     2
 10
199.89577917999731
 20
62.121866335787558
 30
0.0
 40
0.002
  1
IMPOST|7|CONTINUOUS
  2
IMPOST
 70
     1
  0
ATTRIB
  5
2C02
  8
ASM-FROZEN
 62
     2
 10
199.89577917999731
 20
62.118533002454221
 30
0.0
 40
0.002
  1
LINEAFIN|4|CONTINUOUS
  2
LINEAFINE
 70
     1
  0
ATTRIB
  5
2C03
  8
ASM-FROZEN
 62
     2
 10
199.89577917999731
 20
62.115199669120891
 30
0.0
 40
0.002
  1
QUOTA|3|CONTINUOUS
  2
QUOTA
 70
     1
  0
ATTRIB
  5
2C04
  8
ASM-FROZEN
 62
     2
 10
199.89577917999731
 20
62.111866335787568
 30
0.0
 40
0.002
  1
SALDATUR|3|CONTINUOUS
  2
SALDATURA
 70
     1
  0
ATTRIB
  5
2C05
  8
ASM-FROZEN
  6
BYBLOCK
 62
     2
 10
199.89577917999731
 20
62.10853300245423
 30
0.0
 40
0.002
  1
SIMBPNEU|7|CONTINUOUS
  2
SIMBPNEU
 70
     1
  0
ATTRIB
  5
2C06
  8
ASM-FROZEN
 62
     2
 10
199.89577917999731
 20
62.1051996691209
 30
0.0
 40
0.002
  1
TABELLA|4|CONTINUOUS
  2
TABELLA
 70
     1
  0
ATTRIB
  5
2C07
  8
ASM-FROZEN
 62
     2
 10
199.89577917999731
 20
62.101866335787562
 30
0.0
 40
0.002
  1
TESTO|7|CONTINUOUS
  2
TESTO
 70
     1
  0
ATTRIB
  5
2C08
  8
ASM-FROZEN
 62
     2
 10
199.89577917999731
 20
62.098533002454232
 30
0.0
 40
0.002
  1
TRATTI1|2|TRATTI1
  2
TRATTI1
 70
     1
  0
ATTRIB
  5
2C09
  8
ASM-FROZEN
 62
     2
 10
199.89577917999731
 20
62.095199669120902
 30
0.0
 40
0.002
  1
TRATTI2|2|TRATTI2
  2
TRATTI2
 70
     1
  0
ATTRIB
  5
2C0A
  8
ASM-FROZEN
 62
     2
 10
199.89577917999731
 20
62.091866335787557
 30
0.0
 40
0.002
  1
TRATTI3|2|TRATTI3
  2
TRATTI3
 70
     1
  0
ATTRIB
  5
2C0B
  8
ASM-FROZEN
 62
     2
 10
199.89577917999731
 20
62.088533002454227
 30
0.0
 40
0.002
  1
TRATTI1F|4|TRATTI1
  2
TRATTI1F
 70
     1
  0
ATTRIB
  5
2C0C
  8
ASM-FROZEN
  6
BYBLOCK
 62
     2
 10
199.89577917999731
 20
62.08519966912089
 30
0.0
 40
0.002
  1
TRATTI2F|4|TRATTI2
  2
TRATTI2F
 70
     1
  0
ATTRIB
  5
2C0D
  8
ASM-FROZEN
 62
     2
 10
199.89577917999731
 20
62.081866335787559
 30
0.0
 40
0.002
  1
TRATTI3F|4|TRATTI3
  2
TRATTI3F
 70
     1
  0
ATTRIB
  5
2C0E
  8
ASM-FROZEN
  6
BYBLOCK
 62
     2
 10
199.89577917999731
 20
62.078533002454229
 30
0.0
 40
0.002
  1
TRATTEGG|4|CONTINUOUS
  2
TRATTEGGIO
 70
     1
  0
SEQEND
  5
2C0F
  8
ASM-FROZEN
  0
INSERT
  5
2C10
  8
ASM-FROZEN
 66
     1
  2
ASM_CONF
 10
200.1689830267961
 20
62.25305681179178
 30
0.0
 41
0.01
 42
0.01
 43
0.01
1001
ASM_BASE
1002
{
1040
12.0
1070
     1
1010
0.0
1020
0.0
1030
0.0
1000
A
1000
ASM_CADM
1000
Fe37a
1000
null
1070
     0
1040
6.0
1040
6.0
1040
6.0
1070
    13
1040
1.7599999999999989
1000
0
1000
CADMEC_1-1
1002
}
1001
ASM_EXPLO_VER_2_00
1002
{
1040
2.0
1010
-0.57735026919
1020
-0.57735026919
1030
0.57735026919
1010
0.0
1020
0.0
1030
0.0
1002
}
  0
ATTRIB
  5
2C11
  8
ASM-FROZEN
 62
     2
 10
200.2889830267961
 20
62.323056811791773
 30
0.0
 40
0.002
  1
ASSE1|1|ASSI1
  2
ASSE1
 70
     1
  0
ATTRIB
  5
2C12
  8
ASM-FROZEN
 62
     2
 10
200.2889830267961
 20
62.319723478458442
 30
0.0
 40
0.002
  1
ASSE2|1|ASSI2
  2
ASSE2
 70
     1
  0
ATTRIB
  5
2C13
  8
ASM-FROZEN
 62
     2
 10
200.2889830267961
 20
62.316390145125112
 30
0.0
 40
0.002
  1
ASSE3|1|ASSI3
  2
ASSE3
 70
     1
  0
ATTRIB
  5
2C14
  8
ASM-FROZEN
 62
     2
 10
200.2889830267961
 20
62.313056811791768
 30
0.0
 40
0.002
  1
CONFINE|5|CONFINE
  2
CONFINE
 70
     1
  0
ATTRIB
  5
2C15
  8
ASM-FROZEN
 62
     2
 10
200.2889830267961
 20
62.309723478458437
 30
0.0
 40
0.002
  1
CONTORNO|7|CONTINUOUS
  2
CONTORNO
 70
     1
  0
ATTRIB
  5
2C16
  8
ASM-FROZEN
 62
     2
 10
200.2889830267961
 20
62.306390145125107
 30
0.0
 40
0.002
  1
DISTINTA|6|CONTINUOUS
  2
DISTINTA
 70
     1
  0
ATTRIB
  5
2C17
  8
ASM-FROZEN
 62
     2
 10
200.2889830267961
 20
62.303056811791777
 30
0.0
 40
0.002
  1
GRUPPO1|7|CONTINUOUS
  2
GRUPPO1
 70
     1
  0
ATTRIB
  5
2C18
  8
ASM-FROZEN
 62
     2
 10
200.2889830267961
 20
62.299723478458439
 30
0.0
 40
0.002
  1
GRUPPO2|7|CONTINUOUS
  2
GRUPPO2
 70
     1
  0
ATTRIB
  5
2C19
  8
ASM-FROZEN
 62
     2
 10
200.2889830267961
 20
62.296390145125102
 30
0.0
 40
0.002
  1
GRUPPO3|7|CONTINUOUS
  2
GRUPPO3
 70
     1
  0
ATTRIB
  5
2C1A
  8
ASM-FROZEN
 62
     2
 10
200.2889830267961
 20
62.293056811791779
 30
0.0
 40
0.002
  1
GRUPPO4|7|CONTINUOUS
  2
GRUPPO4
 70
     1
  0
ATTRIB
  5
2C1B
  8
ASM-FROZEN
 62
     2
 10
200.2889830267961
 20
62.289723478458441
 30
0.0
 40
0.002
  1
IMPOST|7|CONTINUOUS
  2
IMPOST
 70
     1
  0
ATTRIB
  5
2C1C
  8
ASM-FROZEN
 62
     2
 10
200.2889830267961
 20
62.286390145125111
 30
0.0
 40
0.002
  1
LINEAFIN|4|CONTINUOUS
  2
LINEAFINE
 70
     1
  0
ATTRIB
  5
2C1D
  8
ASM-FROZEN
 62
     2
 10
200.2889830267961
 20
62.283056811791781
 30
0.0
 40
0.002
  1
QUOTA|3|CONTINUOUS
  2
QUOTA
 70
     1
  0
ATTRIB
  5
2C1E
  8
ASM-FROZEN
 62
     2
 10
200.2889830267961
 20
62.279723478458443
 30
0.0
 40
0.002
  1
SALDATUR|3|CONTINUOUS
  2
SALDATURA
 70
     1
  0
ATTRIB
  5
2C1F
  8
ASM-FROZEN
  6
BYBLOCK
 62
     2
 10
200.2889830267961
 20
62.27639014512512
 30
0.0
 40
0.002
  1
SIMBPNEU|7|CONTINUOUS
  2
SIMBPNEU
 70
     1
  0
ATTRIB
  5
2C20
  8
ASM-FROZEN
 62
     2
 10
200.2889830267961
 20
62.273056811791783
 30
0.0
 40
0.002
  1
TABELLA|4|CONTINUOUS
  2
TABELLA
 70
     1
  0
ATTRIB
  5
2C21
  8
ASM-FROZEN
 62
     2
 10
200.2889830267961
 20
62.269723478458438
 30
0.0
 40
0.002
  1
TESTO|7|CONTINUOUS
  2
TESTO
 70
     1
  0
ATTRIB
  5
2C22
  8
ASM-FROZEN
 62
     2
 10
200.2889830267961
 20
62.266390145125101
 30
0.0
 40
0.002
  1
TRATTI1|2|TRATTI1
  2
TRATTI1
 70
     1
  0
ATTRIB
  5
2C23
  8
ASM-FROZEN
 62
     2
 10
200.2889830267961
 20
62.26305681179177
 30
0.0
 40
0.002
  1
TRATTI2|2|TRATTI2
  2
TRATTI2
 70
     1
  0
ATTRIB
  5
2C24
  8
ASM-FROZEN
 62
     2
 10
200.2889830267961
 20
62.25972347845844
 30
0.0
 40
0.002
  1
TRATTI3|2|TRATTI3
  2
TRATTI3
 70
     1
  0
ATTRIB
  5
2C25
  8
ASM-FROZEN
 62
     2
 10
200.2889830267961
 20
62.25639014512511
 30
0.0
 40
0.002
  1
TRATTI1F|4|TRATTI1
  2
TRATTI1F
 70
     1
  0
ATTRIB
  5
2C26
  8
ASM-FROZEN
  6
BYBLOCK
 62
     2
 10
200.2889830267961
 20
62.25305681179178
 30
0.0
 40
0.002
  1
TRATTI2F|4|TRATTI2
  2
TRATTI2F
 70
     1
  0
ATTRIB
  5
2C27
  8
ASM-FROZEN
 62
     2
 10
200.2889830267961
 20
62.249723478458442
 30
0.0
 40
0.002
  1
TRATTI3F|4|TRATTI3
  2
TRATTI3F
 70
     1
  0
ATTRIB
  5
2C28
  8
ASM-FROZEN
  6
BYBLOCK
 62
     2
 10
200.2889830267961
 20
62.246390145125112
 30
0.0
 40
0.002
  1
TRATTEGG|4|CONTINUOUS
  2
TRATTEGGIO
 70
     1
  0
SEQEND
  5
2C29
  8
ASM-FROZEN
  0
INSERT
  5
2CDC
  8
ASM-FROZEN
 66
     1
  2
ASM_CONF
 10
198.5300784912032
 20
62.280294637310682
 30
0.0
 41
0.01
 42
0.01
 43
0.01
1001
ASM_BASE
1002
{
1040
12.0
1070
     1
1010
0.0
1020
0.0
1030
0.0
1000
A
1000
ASM_CADM
1000
Fe37a
1000
null
1070
     0
1040
6.0
1040
6.0
1040
6.0
1070
    13
1040
1.7599999999999989
1000
0
1000
CADMEC_1-1
1002
}
1001
ASM_EXPLO_VER_2_00
1002
{
1040
2.0
1010
-0.57735026919
1020
-0.57735026919
1030
0.57735026919
1010
0.0
1020
0.0
1030
0.0
1002
}
  0
ATTRIB
  5
2CDD
  8
ASM-FROZEN
 62
     2
 10
198.65007849120309
 20
62.350294637310682
 30
0.0
 40
0.002
  1
ASSE1|1|ASSI1
  2
ASSE1
 70
     1
  0
ATTRIB
  5
2CDE
  8
ASM-FROZEN
 62
     2
 10
198.65007849120309
 20
62.346961303977352
 30
0.0
 40
0.002
  1
ASSE2|1|ASSI2
  2
ASSE2
 70
     1
  0
ATTRIB
  5
2CDF
  8
ASM-FROZEN
 62
     2
 10
198.65007849120309
 20
62.343627970644022
 30
0.0
 40
0.002
  1
ASSE3|1|ASSI3
  2
ASSE3
 70
     1
  0
ATTRIB
  5
2CE0
  8
ASM-FROZEN
 62
     2
 10
198.65007849120309
 20
62.340294637310691
 30
0.0
 40
0.002
  1
CONFINE|5|CONFINE
  2
CONFINE
 70
     1
  0
ATTRIB
  5
2CE1
  8
ASM-FROZEN
 62
     2
 10
198.65007849120309
 20
62.336961303977347
 30
0.0
 40
0.002
  1
CONTORNO|7|CONTINUOUS
  2
CONTORNO
 70
     1
  0
ATTRIB
  5
2CE2
  8
ASM-FROZEN
 62
     2
 10
198.65007849120309
 20
62.33362797064401
 30
0.0
 40
0.002
  1
DISTINTA|6|CONTINUOUS
  2
DISTINTA
 70
     1
  0
ATTRIB
  5
2CE3
  8
ASM-FROZEN
 62
     2
 10
198.65007849120309
 20
62.330294637310679
 30
0.0
 40
0.002
  1
GRUPPO1|7|CONTINUOUS
  2
GRUPPO1
 70
     1
  0
ATTRIB
  5
2CE4
  8
ASM-FROZEN
 62
     2
 10
198.65007849120309
 20
62.326961303977349
 30
0.0
 40
0.002
  1
GRUPPO2|7|CONTINUOUS
  2
GRUPPO2
 70
     1
  0
ATTRIB
  5
2CE5
  8
ASM-FROZEN
 62
     2
 10
198.65007849120309
 20
62.323627970644019
 30
0.0
 40
0.002
  1
GRUPPO3|7|CONTINUOUS
  2
GRUPPO3
 70
     1
  0
ATTRIB
  5
2CE6
  8
ASM-FROZEN
 62
     2
 10
198.65007849120309
 20
62.320294637310681
 30
0.0
 40
0.002
  1
GRUPPO4|7|CONTINUOUS
  2
GRUPPO4
 70
     1
  0
ATTRIB
  5
2CE7
  8
ASM-FROZEN
 62
     2
 10
198.65007849120309
 20
62.316961303977351
 30
0.0
 40
0.002
  1
IMPOST|7|CONTINUOUS
  2
IMPOST
 70
     1
  0
ATTRIB
  5
2CE8
  8
ASM-FROZEN
 62
     2
 10
198.65007849120309
 20
62.313627970644021
 30
0.0
 40
0.002
  1
LINEAFIN|4|CONTINUOUS
  2
LINEAFINE
 70
     1
  0
ATTRIB
  5
2CE9
  8
ASM-FROZEN
 62
     2
 10
198.65007849120309
 20
62.31029463731069
 30
0.0
 40
0.002
  1
QUOTA|3|CONTINUOUS
  2
QUOTA
 70
     1
  0
ATTRIB
  5
2CEA
  8
ASM-FROZEN
 62
     2
 10
198.65007849120309
 20
62.306961303977353
 30
0.0
 40
0.002
  1
SALDATUR|3|CONTINUOUS
  2
SALDATURA
 70
     1
  0
ATTRIB
  5
2CEB
  8
ASM-FROZEN
  6
BYBLOCK
 62
     2
 10
198.65007849120309
 20
62.303627970644008
 30
0.0
 40
0.002
  1
SIMBPNEU|7|CONTINUOUS
  2
SIMBPNEU
 70
     1
  0
ATTRIB
  5
2CEC
  8
ASM-FROZEN
 62
     2
 10
198.65007849120309
 20
62.300294637310678
 30
0.0
 40
0.002
  1
TABELLA|4|CONTINUOUS
  2
TABELLA
 70
     1
  0
ATTRIB
  5
2CED
  8
ASM-FROZEN
 62
     2
 10
198.65007849120309
 20
62.296961303977341
 30
0.0
 40
0.002
  1
TESTO|7|CONTINUOUS
  2
TESTO
 70
     1
  0
ATTRIB
  5
2CEE
  8
ASM-FROZEN
 62
     2
 10
198.65007849120309
 20
62.293627970644017
 30
0.0
 40
0.002
  1
TRATTI1|2|TRATTI1
  2
TRATTI1
 70
     1
  0
ATTRIB
  5
2CEF
  8
ASM-FROZEN
 62
     2
 10
198.65007849120309
 20
62.29029463731068
 30
0.0
 40
0.002
  1
TRATTI2|2|TRATTI2
  2
TRATTI2
 70
     1
  0
ATTRIB
  5
2CF0
  8
ASM-FROZEN
 62
     2
 10
198.65007849120309
 20
62.28696130397735
 30
0.0
 40
0.002
  1
TRATTI3|2|TRATTI3
  2
TRATTI3
 70
     1
  0
ATTRIB
  5
2CF1
  8
ASM-FROZEN
 62
     2
 10
198.65007849120309
 20
62.283627970644019
 30
0.0
 40
0.002
  1
TRATTI1F|4|TRATTI1
  2
TRATTI1F
 70
     1
  0
ATTRIB
  5
2CF2
  8
ASM-FROZEN
  6
BYBLOCK
 62
     2
 10
198.65007849120309
 20
62.280294637310682
 30
0.0
 40
0.002
  1
TRATTI2F|4|TRATTI2
  2
TRATTI2F
 70
     1
  0
ATTRIB
  5
2CF3
  8
ASM-FROZEN
 62
     2
 10
198.65007849120309
 20
62.276961303977352
 30
0.0
 40
0.002
  1
TRATTI3F|4|TRATTI3
  2
TRATTI3F
 70
     1
  0
ATTRIB
  5
2CF4
  8
ASM-FROZEN
  6
BYBLOCK
 62
     2
 10
198.65007849120309
 20
62.273627970644007
 30
0.0
 40
0.002
  1
TRATTEGG|4|CONTINUOUS
  2
TRATTEGGIO
 70
     1
  0
SEQEND
  5
2CF5
  8
ASM-FROZEN
  0
INSERT
  5
2CF6
  8
ASM-FROZEN
 66
     1
  2
ASM_CONF
 10
198.57595969618501
 20
62.362043783029961
 30
0.0
 41
0.01
 42
0.01
 43
0.01
1001
ASM_BASE
1002
{
1040
12.0
1070
     1
1010
0.0
1020
0.0
1030
0.0
1000
A
1000
ASM_CADM
1000
Fe37a
1000
null
1070
     0
1040
6.0
1040
6.0
1040
6.0
1070
    13
1040
1.7599999999999989
1000
0
1000
CADMEC_1-1
1002
}
1001
ASM_EXPLO_VER_2_00
1002
{
1040
2.0
1010
-0.57735026919
1020
-0.57735026919
1030
0.57735026919
1010
0.0
1020
0.0
1030
0.0
1002
}
  0
ATTRIB
  5
2CF7
  8
ASM-FROZEN
 62
     2
 10
198.6959596961851
 20
62.432043783029968
 30
0.0
 40
0.002
  1
ASSE1|1|ASSI1
  2
ASSE1
 70
     1
  0
ATTRIB
  5
2CF8
  8
ASM-FROZEN
 62
     2
 10
198.6959596961851
 20
62.428710449696631
 30
0.0
 40
0.002
  1
ASSE2|1|ASSI2
  2
ASSE2
 70
     1
  0
ATTRIB
  5
2CF9
  8
ASM-FROZEN
 62
     2
 10
198.6959596961851
 20
62.4253771163633
 30
0.0
 40
0.002
  1
ASSE3|1|ASSI3
  2
ASSE3
 70
     1
  0
ATTRIB
  5
2CFA
  8
ASM-FROZEN
 62
     2
 10
198.6959596961851
 20
62.42204378302997
 30
0.0
 40
0.002
  1
CONFINE|5|CONFINE
  2
CONFINE
 70
     1
  0
ATTRIB
  5
2CFB
  8
ASM-FROZEN
 62
     2
 10
198.6959596961851
 20
62.418710449696633
 30
0.0
 40
0.002
  1
CONTORNO|7|CONTINUOUS
  2
CONTORNO
 70
     1
  0
ATTRIB
  5
2CFC
  8
ASM-FROZEN
 62
     2
 10
198.6959596961851
 20
62.415377116363302
 30
0.0
 40
0.002
  1
DISTINTA|6|CONTINUOUS
  2
DISTINTA
 70
     1
  0
ATTRIB
  5
2CFD
  8
ASM-FROZEN
 62
     2
 10
198.6959596961851
 20
62.412043783029958
 30
0.0
 40
0.002
  1
GRUPPO1|7|CONTINUOUS
  2
GRUPPO1
 70
     1
  0
ATTRIB
  5
2CFE
  8
ASM-FROZEN
 62
     2
 10
198.6959596961851
 20
62.408710449696628
 30
0.0
 40
0.002
  1
GRUPPO2|7|CONTINUOUS
  2
GRUPPO2
 70
     1
  0
ATTRIB
  5
2CFF
  8
ASM-FROZEN
 62
     2
 10
198.6959596961851
 20
62.405377116363297
 30
0.0
 40
0.002
  1
GRUPPO3|7|CONTINUOUS
  2
GRUPPO3
 70
     1
  0
ATTRIB
  5
2D00
  8
ASM-FROZEN
 62
     2
 10
198.6959596961851
 20
62.402043783029967
 30
0.0
 40
0.002
  1
GRUPPO4|7|CONTINUOUS
  2
GRUPPO4
 70
     1
  0
ATTRIB
  5
2D01
  8
ASM-FROZEN
 62
     2
 10
198.6959596961851
 20
62.39871044969663
 30
0.0
 40
0.002
  1
IMPOST|7|CONTINUOUS
  2
IMPOST
 70
     1
  0
ATTRIB
  5
2D02
  8
ASM-FROZEN
 62
     2
 10
198.6959596961851
 20
62.395377116363299
 30
0.0
 40
0.002
  1
LINEAFIN|4|CONTINUOUS
  2
LINEAFINE
 70
     1
  0
ATTRIB
  5
2D03
  8
ASM-FROZEN
 62
     2
 10
198.6959596961851
 20
62.392043783029962
 30
0.0
 40
0.002
  1
QUOTA|3|CONTINUOUS
  2
QUOTA
 70
     1
  0
ATTRIB
  5
2D04
  8
ASM-FROZEN
 62
     2
 10
198.6959596961851
 20
62.388710449696632
 30
0.0
 40
0.002
  1
SALDATUR|3|CONTINUOUS
  2
SALDATURA
 70
     1
  0
ATTRIB
  5
2D05
  8
ASM-FROZEN
  6
BYBLOCK
 62
     2
 10
198.6959596961851
 20
62.385377116363301
 30
0.0
 40
0.002
  1
SIMBPNEU|7|CONTINUOUS
  2
SIMBPNEU
 70
     1
  0
ATTRIB
  5
2D06
  8
ASM-FROZEN
 62
     2
 10
198.6959596961851
 20
62.382043783029957
 30
0.0
 40
0.002
  1
TABELLA|4|CONTINUOUS
  2
TABELLA
 70
     1
  0
ATTRIB
  5
2D07
  8
ASM-FROZEN
 62
     2
 10
198.6959596961851
 20
62.378710449696626
 30
0.0
 40
0.002
  1
TESTO|7|CONTINUOUS
  2
TESTO
 70
     1
  0
ATTRIB
  5
2D08
  8
ASM-FROZEN
 62
     2
 10
198.6959596961851
 20
62.375377116363289
 30
0.0
 40
0.002
  1
TRATTI1|2|TRATTI1
  2
TRATTI1
 70
     1
  0
ATTRIB
  5
2D09
  8
ASM-FROZEN
 62
     2
 10
198.6959596961851
 20
62.372043783029973
 30
0.0
 40
0.002
  1
TRATTI2|2|TRATTI2
  2
TRATTI2
 70
     1
  0
ATTRIB
  5
2D0A
  8
ASM-FROZEN
 62
     2
 10
198.6959596961851
 20
62.368710449696643
 30
0.0
 40
0.002
  1
TRATTI3|2|TRATTI3
  2
TRATTI3
 70
     1
  0
ATTRIB
  5
2D0B
  8
ASM-FROZEN
 62
     2
 10
198.6959596961851
 20
62.365377116363298
 30
0.0
 40
0.002
  1
TRATTI1F|4|TRATTI1
  2
TRATTI1F
 70
     1
  0
ATTRIB
  5
2D0C
  8
ASM-FROZEN
  6
BYBLOCK
 62
     2
 10
198.6959596961851
 20
62.362043783029961
 30
0.0
 40
0.002
  1
TRATTI2F|4|TRATTI2
  2
TRATTI2F
 70
     1
  0
ATTRIB
  5
2D0D
  8
ASM-FROZEN
 62
     2
 10
198.6959596961851
 20
62.35871044969663
 30
0.0
 40
0.002
  1
TRATTI3F|4|TRATTI3
  2
TRATTI3F
 70
     1
  0
ATTRIB
  5
2D0E
  8
ASM-FROZEN
  6
BYBLOCK
 62
     2
 10
198.6959596961851
 20
62.3553771163633
 30
0.0
 40
0.002
  1
TRATTEGG|4|CONTINUOUS
  2
TRATTEGGIO
 70
     1
  0
SEQEND
  5
2D0F
  8
ASM-FROZEN
  0
INSERT
  5
2D10
  8
ASM-FROZEN
 66
     1
  2
ASM_CONF
 10
198.4579985428629
 20
62.25847235110578
 30
0.0
 41
0.01
 42
0.01
 43
0.01
1001
ASM_BASE
1002
{
1040
12.0
1070
     1
1010
0.0
1020
0.0
1030
0.0
1000
A
1000
ASM_CADM
1000
Fe37a
1000
null
1070
     0
1040
6.0
1040
6.0
1040
6.0
1070
    13
1040
1.7599999999999989
1000
0
1000
CADMEC_1-1
1002
}
1001
ASM_EXPLO_VER_2_00
1002
{
1040
2.0
1010
-0.57735026919
1020
-0.57735026919
1030
0.57735026919
1010
0.0
1020
0.0
1030
0.0
1002
}
  0
ATTRIB
  5
2D11
  8
ASM-FROZEN
 62
     2
 10
198.5779985428629
 20
62.328472351105773
 30
0.0
 40
0.002
  1
ASSE1|1|ASSI1
  2
ASSE1
 70
     1
  0
ATTRIB
  5
2D12
  8
ASM-FROZEN
 62
     2
 10
198.5779985428629
 20
62.325139017772443
 30
0.0
 40
0.002
  1
ASSE2|1|ASSI2
  2
ASSE2
 70
     1
  0
ATTRIB
  5
2D13
  8
ASM-FROZEN
 62
     2
 10
198.5779985428629
 20
62.321805684439113
 30
0.0
 40
0.002
  1
ASSE3|1|ASSI3
  2
ASSE3
 70
     1
  0
ATTRIB
  5
2D14
  8
ASM-FROZEN
 62
     2
 10
198.5779985428629
 20
62.318472351105783
 30
0.0
 40
0.002
  1
CONFINE|5|CONFINE
  2
CONFINE
 70
     1
  0
ATTRIB
  5
2D15
  8
ASM-FROZEN
 62
     2
 10
198.5779985428629
 20
62.315139017772438
 30
0.0
 40
0.002
  1
CONTORNO|7|CONTINUOUS
  2
CONTORNO
 70
     1
  0
ATTRIB
  5
2D16
  8
ASM-FROZEN
 62
     2
 10
198.5779985428629
 20
62.311805684439101
 30
0.0
 40
0.002
  1
DISTINTA|6|CONTINUOUS
  2
DISTINTA
 70
     1
  0
ATTRIB
  5
2D17
  8
ASM-FROZEN
 62
     2
 10
198.5779985428629
 20
62.30847235110577
 30
0.0
 40
0.002
  1
GRUPPO1|7|CONTINUOUS
  2
GRUPPO1
 70
     1
  0
ATTRIB
  5
2D18
  8
ASM-FROZEN
 62
     2
 10
198.5779985428629
 20
62.305139017772447
 30
0.0
 40
0.002
  1
GRUPPO2|7|CONTINUOUS
  2
GRUPPO2
 70
     1
  0
ATTRIB
  5
2D19
  8
ASM-FROZEN
 62
     2
 10
198.5779985428629
 20
62.30180568443911
 30
0.0
 40
0.002
  1
GRUPPO3|7|CONTINUOUS
  2
GRUPPO3
 70
     1
  0
ATTRIB
  5
2D1A
  8
ASM-FROZEN
 62
     2
 10
198.5779985428629
 20
62.298472351105772
 30
0.0
 40
0.002
  1
GRUPPO4|7|CONTINUOUS
  2
GRUPPO4
 70
     1
  0
ATTRIB
  5
2D1B
  8
ASM-FROZEN
 62
     2
 10
198.5779985428629
 20
62.295139017772442
 30
0.0
 40
0.002
  1
IMPOST|7|CONTINUOUS
  2
IMPOST
 70
     1
  0
ATTRIB
  5
2D1C
  8
ASM-FROZEN
 62
     2
 10
198.5779985428629
 20
62.291805684439112
 30
0.0
 40
0.002
  1
LINEAFIN|4|CONTINUOUS
  2
LINEAFINE
 70
     1
  0
ATTRIB
  5
2D1D
  8
ASM-FROZEN
 62
     2
 10
198.5779985428629
 20
62.288472351105781
 30
0.0
 40
0.002
  1
QUOTA|3|CONTINUOUS
  2
QUOTA
 70
     1
  0
ATTRIB
  5
2D1E
  8
ASM-FROZEN
 62
     2
 10
198.5779985428629
 20
62.285139017772437
 30
0.0
 40
0.002
  1
SALDATUR|3|CONTINUOUS
  2
SALDATURA
 70
     1
  0
ATTRIB
  5
2D1F
  8
ASM-FROZEN
  6
BYBLOCK
 62
     2
 10
198.5779985428629
 20
62.281805684439099
 30
0.0
 40
0.002
  1
SIMBPNEU|7|CONTINUOUS
  2
SIMBPNEU
 70
     1
  0
ATTRIB
  5
2D20
  8
ASM-FROZEN
 62
     2
 10
198.5779985428629
 20
62.278472351105769
 30
0.0
 40
0.002
  1
TABELLA|4|CONTINUOUS
  2
TABELLA
 70
     1
  0
ATTRIB
  5
2D21
  8
ASM-FROZEN
 62
     2
 10
198.5779985428629
 20
62.275139017772439
 30
0.0
 40
0.002
  1
TESTO|7|CONTINUOUS
  2
TESTO
 70
     1
  0
ATTRIB
  5
2D22
  8
ASM-FROZEN
 62
     2
 10
198.5779985428629
 20
62.271805684439109
 30
0.0
 40
0.002
  1
TRATTI1|2|TRATTI1
  2
TRATTI1
 70
     1
  0
ATTRIB
  5
2D23
  8
ASM-FROZEN
 62
     2
 10
198.5779985428629
 20
62.268472351105778
 30
0.0
 40
0.002
  1
TRATTI2|2|TRATTI2
  2
TRATTI2
 70
     1
  0
ATTRIB
  5
2D24
  8
ASM-FROZEN
 62
     2
 10
198.5779985428629
 20
62.265139017772441
 30
0.0
 40
0.002
  1
TRATTI3|2|TRATTI3
  2
TRATTI3
 70
     1
  0
ATTRIB
  5
2D25
  8
ASM-FROZEN
 62
     2
 10
198.5779985428629
 20
62.261805684439111
 30
0.0
 40
0.002
  1
TRATTI1F|4|TRATTI1
  2
TRATTI1F
 70
     1
  0
ATTRIB
  5
2D26
  8
ASM-FROZEN
  6
BYBLOCK
 62
     2
 10
198.5779985428629
 20
62.25847235110578
 30
0.0
 40
0.002
  1
TRATTI2F|4|TRATTI2
  2
TRATTI2F
 70
     1
  0
ATTRIB
  5
2D27
  8
ASM-FROZEN
 62
     2
 10
198.5779985428629
 20
62.255139017772443
 30
0.0
 40
0.002
  1
TRATTI3F|4|TRATTI3
  2
TRATTI3F
 70
     1
  0
ATTRIB
  5
2D28
  8
ASM-FROZEN
  6
BYBLOCK
 62
     2
 10
198.5779985428629
 20
62.251805684439098
 30
0.0
 40
0.002
  1
TRATTEGG|4|CONTINUOUS
  2
TRATTEGGIO
 70
     1
  0
SEQEND
  5
2D29
  8
ASM-FROZEN
  0
INSERT
  5
2D2A
  8
ASM-FROZEN
 66
     1
  2
ASM_CONF
 10
198.85120238966161
 20
62.426329493776649
 30
0.0
 41
0.01
 42
0.01
 43
0.01
1001
ASM_BASE
1002
{
1040
12.0
1070
     1
1010
0.0
1020
0.0
1030
0.0
1000
A
1000
ASM_CADM
1000
Fe37a
1000
null
1070
     0
1040
6.0
1040
6.0
1040
6.0
1070
    13
1040
1.7599999999999989
1000
0
1000
CADMEC_1-1
1002
}
1001
ASM_EXPLO_VER_2_00
1002
{
1040
2.0
1010
-0.57735026919
1020
-0.57735026919
1030
0.57735026919
1010
0.0
1020
0.0
1030
0.0
1002
}
  0
ATTRIB
  5
2D2B
  8
ASM-FROZEN
 62
     2
 10
198.97120238966161
 20
62.496329493776663
 30
0.0
 40
0.002
  1
ASSE1|1|ASSI1
  2
ASSE1
 70
     1
  0
ATTRIB
  5
2D2C
  8
ASM-FROZEN
 62
     2
 10
198.97120238966161
 20
62.492996160443319
 30
0.0
 40
0.002
  1
ASSE2|1|ASSI2
  2
ASSE2
 70
     1
  0
ATTRIB
  5
2D2D
  8
ASM-FROZEN
 62
     2
 10
198.97120238966161
 20
62.489662827109981
 30
0.0
 40
0.002
  1
ASSE3|1|ASSI3
  2
ASSE3
 70
     1
  0
ATTRIB
  5
2D2E
  8
ASM-FROZEN
 62
     2
 10
198.97120238966161
 20
62.486329493776651
 30
0.0
 40
0.002
  1
CONFINE|5|CONFINE
  2
CONFINE
 70
     1
  0
ATTRIB
  5
2D2F
  8
ASM-FROZEN
 62
     2
 10
198.97120238966161
 20
62.482996160443321
 30
0.0
 40
0.002
  1
CONTORNO|7|CONTINUOUS
  2
CONTORNO
 70
     1
  0
ATTRIB
  5
2D30
  8
ASM-FROZEN
 62
     2
 10
198.97120238966161
 20
62.479662827109991
 30
0.0
 40
0.002
  1
DISTINTA|6|CONTINUOUS
  2
DISTINTA
 70
     1
  0
ATTRIB
  5
2D31
  8
ASM-FROZEN
 62
     2
 10
198.97120238966161
 20
62.476329493776653
 30
0.0
 40
0.002
  1
GRUPPO1|7|CONTINUOUS
  2
GRUPPO1
 70
     1
  0
ATTRIB
  5
2D32
  8
ASM-FROZEN
 62
     2
 10
198.97120238966161
 20
62.472996160443323
 30
0.0
 40
0.002
  1
GRUPPO2|7|CONTINUOUS
  2
GRUPPO2
 70
     1
  0
ATTRIB
  5
2D33
  8
ASM-FROZEN
 62
     2
 10
198.97120238966161
 20
62.469662827109993
 30
0.0
 40
0.002
  1
GRUPPO3|7|CONTINUOUS
  2
GRUPPO3
 70
     1
  0
ATTRIB
  5
2D34
  8
ASM-FROZEN
 62
     2
 10
198.97120238966161
 20
62.466329493776662
 30
0.0
 40
0.002
  1
GRUPPO4|7|CONTINUOUS
  2
GRUPPO4
 70
     1
  0
ATTRIB
  5
2D35
  8
ASM-FROZEN
 62
     2
 10
198.97120238966161
 20
62.462996160443318
 30
0.0
 40
0.002
  1
IMPOST|7|CONTINUOUS
  2
IMPOST
 70
     1
  0
ATTRIB
  5
2D36
  8
ASM-FROZEN
 62
     2
 10
198.97120238966161
 20
62.45966282710998
 30
0.0
 40
0.002
  1
LINEAFIN|4|CONTINUOUS
  2
LINEAFINE
 70
     1
  0
ATTRIB
  5
2D37
  8
ASM-FROZEN
 62
     2
 10
198.97120238966161
 20
62.45632949377665
 30
0.0
 40
0.002
  1
QUOTA|3|CONTINUOUS
  2
QUOTA
 70
     1
  0
ATTRIB
  5
2D38
  8
ASM-FROZEN
 62
     2
 10
198.97120238966161
 20
62.45299616044332
 30
0.0
 40
0.002
  1
SALDATUR|3|CONTINUOUS
  2
SALDATURA
 70
     1
  0
ATTRIB
  5
2D39
  8
ASM-FROZEN
  6
BYBLOCK
 62
     2
 10
198.97120238966161
 20
62.449662827109989
 30
0.0
 40
0.002
  1
SIMBPNEU|7|CONTINUOUS
  2
SIMBPNEU
 70
     1
  0
ATTRIB
  5
2D3A
  8
ASM-FROZEN
 62
     2
 10
198.97120238966161
 20
62.446329493776652
 30
0.0
 40
0.002
  1
TABELLA|4|CONTINUOUS
  2
TABELLA
 70
     1
  0
ATTRIB
  5
2D3B
  8
ASM-FROZEN
 62
     2
 10
198.97120238966161
 20
62.442996160443322
 30
0.0
 40
0.002
  1
TESTO|7|CONTINUOUS
  2
TESTO
 70
     1
  0
ATTRIB
  5
2D3C
  8
ASM-FROZEN
 62
     2
 10
198.97120238966161
 20
62.439662827109977
 30
0.0
 40
0.002
  1
TRATTI1|2|TRATTI1
  2
TRATTI1
 70
     1
  0
ATTRIB
  5
2D3D
  8
ASM-FROZEN
 62
     2
 10
198.97120238966161
 20
62.436329493776661
 30
0.0
 40
0.002
  1
TRATTI2|2|TRATTI2
  2
TRATTI2
 70
     1
  0
ATTRIB
  5
2D3E
  8
ASM-FROZEN
 62
     2
 10
198.97120238966161
 20
62.432996160443317
 30
0.0
 40
0.002
  1
TRATTI3|2|TRATTI3
  2
TRATTI3
 70
     1
  0
ATTRIB
  5
2D3F
  8
ASM-FROZEN
 62
     2
 10
198.97120238966161
 20
62.429662827109979
 30
0.0
 40
0.002
  1
TRATTI1F|4|TRATTI1
  2
TRATTI1F
 70
     1
  0
ATTRIB
  5
2D40
  8
ASM-FROZEN
  6
BYBLOCK
 62
     2
 10
198.97120238966161
 20
62.426329493776649
 30
0.0
 40
0.002
  1
TRATTI2F|4|TRATTI2
  2
TRATTI2F
 70
     1
  0
ATTRIB
  5
2D41
  8
ASM-FROZEN
 62
     2
 10
198.97120238966161
 20
62.422996160443319
 30
0.0
 40
0.002
  1
TRATTI3F|4|TRATTI3
  2
TRATTI3F
 70
     1
  0
ATTRIB
  5
2D42
  8
ASM-FROZEN
  6
BYBLOCK
 62
     2
 10
198.97120238966161
 20
62.419662827109988
 30
0.0
 40
0.002
  1
TRATTEGG|4|CONTINUOUS
  2
TRATTEGGIO
 70
     1
  0
SEQEND
  5
2D43
  8
ASM-FROZEN
  0
LINE
  5
3804
  8
2
 10
48.669389313593634
 20
32.572059998632909
 30
0.0
 11
49.669389313593541
 21
32.572059998632909
 31
0.0
  0
LINE
  5
3805
  8
2
 10
61.26938931359399
 20
33.005059998632753
 30
0.0
 11
68.169389313593513
 21
33.005059998632731
 31
0.0
  0
LINE
  5
3806
  8
2
 10
61.26938931359399
 20
37.139059998633137
 30
0.0
 11
68.169389313593513
 21
37.139059998633122
 31
0.0
  0
LINE
  5
3807
  8
2
 10
48.669389313593634
 20
37.572059998632923
 30
0.0
 11
49.669389313593541
 21
37.572059998632923
 31
0.0
  0
LINE
  5
3808
  8
1
 10
42.769389313593592
 20
35.072059998632938
 30
0.0
 11
81.569389313593476
 21
35.07205999863293
 31
0.0
  0
LINE
  5
382F
  8
0
 10
48.669389313593634
 20
30.322059998632941
 30
0.0
 11
48.669389313593562
 21
39.822059998632938
 31
0.0
  0
LINE
  5
3830
  8
2
 10
61.26938931359399
 20
37.572059998632938
 30
0.0
 11
61.26938931359399
 21
32.572059998632938
 31
0.0
  0
LINE
  5
3831
  8
2
 10
61.26938931359399
 20
37.139059998633137
 30
0.0
 11
60.51941131391709
 21
37.572059998632938
 31
0.0
  0
LINE
  5
3832
  8
0
 10
48.169389313593634
 20
30.322059998632941
 30
0.0
 11
48.16938931359357
 21
39.822059998632938
 31
0.0
  0
ARC
  5
3833
  8
0
 10
48.267775570314143
 20
36.823673741912401
 30
0.0
 40
3.0
 50
91.879376083981214
 51
178.12062391637721
  0
LINE
  5
3834
  8
0
 10
48.669389313593634
 20
39.322059998632938
 30
0.0
 11
48.669389313593634
 21
30.822059998632941
 31
0.0
  0
LINE
  5
383F
  8
0
 10
50.669389313593541
 20
31.072059998632881
 30
0.0
 11
62.36938931359358
 21
31.072059998632881
 31
0.0
  0
ARC
  5
3846
  8
0
 10
48.267775570314143
 20
33.320446255353481
 30
0.0
 40
3.0
 50
181.8793760836227
 51
268.12062391601881
  0
LINE
  5
384C
  8
0
 10
48.169389313593847
 20
30.322059998632941
 30
0.0
 11
48.669389313593562
 21
30.322059998632941
 31
0.0
  0
LINE
  5
384D
  8
0
 10
45.269389313593592
 20
33.222059998651723
 30
0.0
 11
45.269389313593592
 21
36.922059998632648
 31
0.0
  0
LINE
  5
3855
  8
2
 10
61.26938931359399
 20
33.00505999863276
 30
0.0
 11
60.51941131391709
 21
32.572059998632973
 31
0.0
  0
LINE
  5
3860
  8
0
 10
50.669389313593513
 20
39.072059998632987
 30
0.0
 11
62.369389313593558
 21
39.072059998632987
 31
0.0
  0
LINE
  5
3866
  8
0
 10
48.169389313593847
 20
39.822059998632938
 30
0.0
 11
48.669389313593562
 21
39.822059998632938
 31
0.0
  0
LINE
  5
3882
  8
0
 10
79.069389313593547
 20
38.972059998634002
 30
0.0
 11
79.069389313593476
 21
31.172059998630409
 31
0.0
  0
ARC
  5
3883
  8
0
 10
71.36891987663779
 20
35.072059998620148
 30
0.0
 40
7.6427344100359971
 50
342.41204622597422
 51
17.587953774227401
  0
LINE
  5
3884
  8
0
 10
75.069389313593547
 20
39.690862152149982
 30
0.0
 11
75.06938931359349
 21
30.453257845115932
 31
0.0
  0
POLYLINE
  5
3885
  8
0
 66
     1
 10
0.0
 20
0.0
 30
0.0
 70
     1
  0
VERTEX
  5
468D
  8
0
 10
73.769389313593535
 20
30.47205999863294
 30
0.0
  0
VERTEX
  5
468E
  8
0
 10
75.069389313593547
 20
30.47205999863294
 30
0.0
  0
VERTEX
  5
468F
  8
0
 10
75.069389313593547
 20
39.672059998632953
 30
0.0
  0
VERTEX
  5
4690
  8
0
 10
73.769389313593535
 20
39.672059998632953
 30
0.0
  0
SEQEND
  5
4691
  8
0
  0
LINE
  5
388B
  8
2
 10
77.769389313593592
 20
37.572059998632923
 30
0.0
 11
78.669389313593626
 21
36.672059998632918
 31
0.0
  0
LINE
  5
388C
  8
2
 10
77.769389313593592
 20
37.572059998632909
 30
0.0
 11
77.769389313593592
 21
32.572059998632909
 31
0.0
  0
LINE
  5
388D
  8
0
 10
78.654388696766944
 20
30.45325784511601
 30
0.0
 11
79.069389313593476
 21
31.172059998630228
 31
0.0
  0
ARC
  5
388E
  8
0
 10
76.966996087929374
 20
31.607958383495259
 30
0.0
 40
2.044658198744437
 50
334.38424746668011
 51
34.38424746792635
  0
LINE
  5
388F
  8
2
 10
78.669389313593626
 20
36.672059998632918
 30
0.0
 11
78.669389313593626
 21
33.472059998632908
 31
0.0
  0
LINE
  5
3890
  8
0
 10
78.654388696766887
 20
30.45325784511618
 30
0.0
 11
75.06938931359349
 21
30.453257845115932
 31
0.0
  0
LINE
  5
3891
  8
0
 10
75.06938931359349
 20
32.762658921874511
 30
0.0
 11
78.654388696758815
 21
32.762658921874511
 31
0.0
  0
LINE
  5
3892
  8
2
 10
78.669389313593626
 20
33.472059998632908
 30
0.0
 11
77.769389313593592
 21
32.572059998632909
 31
0.0
  0
ARC
  5
3893
  8
0
 10
76.966996087929374
 20
38.53616161377073
 30
0.0
 40
2.044658198744437
 50
325.61575253207371
 51
25.615752533319771
  0
LINE
  5
3894
  8
0
 10
78.654388696766944
 20
39.690862152149982
 30
0.0
 11
79.069389313593476
 21
38.972059998635757
 31
0.0
  0
LINE
  5
3895
  8
0
 10
78.654388696756826
 20
37.381461075391492
 30
0.0
 11
75.069389313593547
 21
37.381461075379242
 31
0.0
  0
LINE
  5
3896
  8
0
 10
78.654388696766944
 20
39.690862152149982
 30
0.0
 11
75.069389313593547
 21
39.690862152149982
 31
0.0
  0
LINE
  5
4022
  8
0
 10
50.16938931359357
 20
38.572059998633001
 30
0.0
 11
50.16938931359357
 21
31.572059998632881
 31
0.0
  0
LINE
  5
4024
  8
0
 10
62.66938931359357
 20
40.572059998632938
 30
0.0
 11
62.66938931359357
 21
29.572059998632881
 31
0.0
  0
LINE
  5
4025
  8
0
 10
63.16938931359357
 20
29.072059998632881
 30
0.0
 11
67.669389313593513
 21
29.072059998632881
 31
0.0
  0
LINE
  5
4026
  8
0
 10
68.169389313593513
 20
29.572059998632881
 30
0.0
 11
68.169389313593513
 21
40.572059998632938
 31
0.0
  0
LINE
  5
4027
  8
0
 10
67.669389313593513
 20
41.07205999863293
 30
0.0
 11
63.16938931359357
 21
41.07205999863293
 31
0.0
  0
LINE
  5
402C
  8
0
 10
73.769389313593535
 20
34.861767014428104
 30
0.0
 11
75.069389313593547
 21
35.479822063919762
 31
0.0
  0
ARC
  5
402D
  8
0
 10
62.36938931359358
 20
30.77205999863288
 30
0.0
 40
0.3
 50
0.0
 51
90.0
  0
ARC
  5
402E
  8
0
 10
62.369389313593558
 20
39.372059998632992
 30
0.0
 40
0.3
 50
270.0
 51
0.0
  0
LINE
  5
402F
  8
0
 10
50.669389313593541
 20
31.072059998632881
 30
0.0
 11
50.16938931359357
 21
31.572059998632881
 31
0.0
  0
LINE
  5
4030
  8
0
 10
50.169389313593541
 20
38.572059998633001
 30
0.0
 11
50.669389313593513
 21
39.072059998632987
 31
0.0
  0
LINE
  5
4031
  8
0
 10
67.669389313593513
 20
41.07205999863293
 30
0.0
 11
68.169389313593513
 21
40.572059998632938
 31
0.0
  0
LINE
  5
4032
  8
0
 10
68.169389313593513
 20
29.572059998632881
 30
0.0
 11
67.669389313593513
 21
29.072059998632881
 31
0.0
  0
LINE
  5
4033
  8
0
 10
62.66938931359357
 20
29.572059998632881
 30
0.0
 11
63.16938931359357
 21
29.072059998632881
 31
0.0
  0
LINE
  5
4034
  8
0
 10
62.66938931359357
 20
40.572059998632938
 30
0.0
 11
63.16938931359357
 21
41.07205999863293
 31
0.0
  0
LINE
  5
4036
  8
0
 10
49.66938931359357
 20
40.072059998632938
 30
0.0
 11
48.669389313593562
 21
40.072059998632938
 31
0.0
  0
LINE
  5
4037
  8
0
 10
48.669389313593562
 20
40.072059998632938
 30
0.0
 11
48.669389313593562
 21
30.072059998632941
 31
0.0
  0
LINE
  5
4038
  8
0
 10
48.669389313593562
 20
30.072059998632941
 30
0.0
 11
49.66938931359357
 21
30.072059998632941
 31
0.0
  0
LINE
  5
4039
  8
0
 10
49.66938931359357
 20
30.072059998632941
 30
0.0
 11
49.66938931359357
 21
40.072059998632938
 31
0.0
  0
LINE
  5
403F
  8
2
 10
50.169389313593591
 20
32.572059998632923
 30
0.0
 11
68.169389313593541
 21
32.572059998632923
 31
0.0
  0
LINE
  5
4040
  8
2
 10
50.169389313593591
 20
37.572059998632938
 30
0.0
 11
68.169389313593541
 21
37.572059998632938
 31
0.0
  0
LINE
  5
4041
  8
0
 10
49.66938931359357
 20
32.572059998632909
 30
0.0
 11
50.16938931359357
 21
32.572059998632923
 31
0.0
  0
LINE
  5
4042
  8
0
 10
49.66938931359357
 20
37.572059998632923
 30
0.0
 11
50.16938931359357
 21
37.572059998632938
 31
0.0
  0
LINE
  5
4043
  8
2
 10
73.769389313593564
 20
37.13905999863313
 30
0.0
 11
78.202389313593358
 21
37.139059998633122
 31
0.0
  0
LINE
  5
4044
  8
2
 10
73.769389313593564
 20
37.572059998632923
 30
0.0
 11
77.769389313593592
 21
37.572059998632923
 31
0.0
  0
LINE
  5
4045
  8
2
 10
73.769389313593535
 20
33.005059998632731
 30
0.0
 11
78.202389313593414
 21
33.005059998632717
 31
0.0
  0
LINE
  5
4046
  8
2
 10
73.769389313593564
 20
32.572059998632923
 30
0.0
 11
77.769389313593592
 21
32.572059998632909
 31
0.0
  0
LINE
  5
4047
  8
0
 10
68.169389313593513
 20
32.572059998632923
 30
0.0
 11
73.769389313593535
 21
32.572059998632923
 31
0.0
  0
LINE
  5
4048
  8
3
 10
68.169389313593513
 20
33.005059998632731
 30
0.0
 11
73.769389313593535
 21
33.005059998632731
 31
0.0
  0
LINE
  5
4049
  8
3
 10
68.169389313593513
 20
37.139059998633137
 30
0.0
 11
73.769389313593535
 21
37.139059998633137
 31
0.0
  0
LINE
  5
404A
  8
0
 10
68.169389313593513
 20
37.572059998632952
 30
0.0
 11
73.769389313593535
 21
37.572059998632952
 31
0.0
  0
LINE
  5
40F1
  8
2
 10
48.669389313593562
 20
37.722059998632943
 30
0.0
 11
49.66938931359357
 21
37.722059998632943
 31
0.0
  0
LINE
  5
40F2
  8
2
 10
48.669389313593562
 20
32.422059998632939
 30
0.0
 11
49.66938931359357
 21
32.422059998632939
 31
0.0
  0
LINE
  5
40F6
  8
2
 10
50.16938931359357
 20
37.722059998632943
 30
0.0
 11
68.169389313593513
 21
37.722059998632943
 31
0.0
  0
LINE
  5
40F7
  8
2
 10
50.16938931359357
 20
32.422059998632939
 30
0.0
 11
68.169389313593513
 21
32.422059998632939
 31
0.0
  0
LINE
  5
4346
  8
2
 10
50.16938931359357
 20
59.308849704347409
 30
0.0
 11
68.169389313593513
 21
59.308849704347409
 31
0.0
  0
LINE
  5
4347
  8
2
 10
50.16938931359357
 20
64.608849704347421
 30
0.0
 11
68.169389313593513
 21
64.608849704347421
 31
0.0
  0
LINE
  5
4348
  8
2
 10
48.669389313593562
 20
59.308849704347409
 30
0.0
 11
49.66938931359357
 21
59.308849704347409
 31
0.0
  0
LINE
  5
4349
  8
2
 10
48.669389313593562
 20
64.608849704347421
 30
0.0
 11
49.66938931359357
 21
64.608849704347421
 31
0.0
  0
LINE
  5
434A
  8
0
 10
68.169389313593513
 20
64.458849704347429
 30
0.0
 11
73.769389313593535
 21
64.458849704347429
 31
0.0
  0
LINE
  5
434B
  8
3
 10
68.169389313593513
 20
64.025849704347621
 30
0.0
 11
73.769389313593535
 21
64.025849704347621
 31
0.0
  0
LINE
  5
434C
  8
3
 10
68.169389313593513
 20
59.891849704347202
 30
0.0
 11
73.769389313593535
 21
59.891849704347202
 31
0.0
  0
LINE
  5
434D
  8
0
 10
68.169389313593513
 20
59.458849704347401
 30
0.0
 11
73.769389313593535
 21
59.458849704347401
 31
0.0
  0
LINE
  5
4352
  8
0
 10
49.66938931359357
 20
64.458849704347401
 30
0.0
 11
50.16938931359357
 21
64.458849704347415
 31
0.0
  0
LINE
  5
4353
  8
0
 10
49.66938931359357
 20
59.458849704347386
 30
0.0
 11
50.16938931359357
 21
59.458849704347401
 31
0.0
  0
LINE
  5
4354
  8
2
 10
50.169389313593591
 20
64.458849704347415
 30
0.0
 11
68.169389313593541
 21
64.458849704347415
 31
0.0
  0
LINE
  5
4355
  8
2
 10
50.169389313593591
 20
59.458849704347401
 30
0.0
 11
68.169389313593541
 21
59.458849704347401
 31
0.0
  0
LINE
  5
4356
  8
0
 10
49.66938931359357
 20
56.958849704347408
 30
0.0
 11
49.66938931359357
 21
66.958849704347415
 31
0.0
  0
LINE
  5
4357
  8
0
 10
48.669389313593562
 20
56.958849704347408
 30
0.0
 11
49.66938931359357
 21
56.958849704347408
 31
0.0
  0
LINE
  5
4358
  8
0
 10
48.669389313593562
 20
66.958849704347415
 30
0.0
 11
48.669389313593562
 21
56.958849704347408
 31
0.0
  0
LINE
  5
4359
  8
0
 10
49.66938931359357
 20
66.958849704347415
 30
0.0
 11
48.669389313593562
 21
66.958849704347415
 31
0.0
  0
LINE
  5
435A
  8
0
 10
62.66938931359357
 20
67.458849704347415
 30
0.0
 11
63.16938931359357
 21
67.958849704347415
 31
0.0
  0
LINE
  5
435B
  8
0
 10
62.66938931359357
 20
56.458849704347351
 30
0.0
 11
63.16938931359357
 21
55.958849704347351
 31
0.0
  0
LINE
  5
435C
  8
0
 10
68.169389313593513
 20
56.458849704347351
 30
0.0
 11
67.669389313593513
 21
55.958849704347351
 31
0.0
  0
LINE
  5
435D
  8
0
 10
67.669389313593513
 20
67.958849704347415
 30
0.0
 11
68.169389313593513
 21
67.458849704347415
 31
0.0
  0
LINE
  5
435E
  8
0
 10
50.169389313593541
 20
65.458849704347472
 30
0.0
 11
50.669389313593513
 21
65.958849704347472
 31
0.0
  0
LINE
  5
435F
  8
0
 10
50.669389313593541
 20
57.958849704347358
 30
0.0
 11
50.16938931359357
 21
58.458849704347351
 31
0.0
  0
ARC
  5
4360
  8
0
 10
62.369389313593558
 20
66.258849704347455
 30
0.0
 40
0.3
 50
270.0
 51
0.0
  0
ARC
  5
4361
  8
0
 10
62.36938931359358
 20
57.658849704347361
 30
0.0
 40
0.3
 50
0.0
 51
90.0
  0
LINE
  5
4363
  8
0
 10
67.669389313593513
 20
67.958849704347415
 30
0.0
 11
63.16938931359357
 21
67.958849704347415
 31
0.0
  0
LINE
  5
4364
  8
0
 10
68.169389313593513
 20
56.458849704347351
 30
0.0
 11
68.169389313593513
 21
67.458849704347415
 31
0.0
  0
LINE
  5
4365
  8
0
 10
63.16938931359357
 20
55.958849704347351
 30
0.0
 11
67.669389313593513
 21
55.958849704347351
 31
0.0
  0
LINE
  5
4366
  8
0
 10
62.66938931359357
 20
67.458849704347415
 30
0.0
 11
62.66938931359357
 21
56.458849704347351
 31
0.0
  0
LINE
  5
4367
  8
0
 10
50.16938931359357
 20
65.458849704347472
 30
0.0
 11
50.16938931359357
 21
58.458849704347351
 31
0.0
  0
LINE
  5
4378
  8
0
 10
48.169389313593847
 20
66.708849704347415
 30
0.0
 11
48.669389313593562
 21
66.708849704347415
 31
0.0
  0
LINE
  5
4379
  8
0
 10
50.669389313593513
 20
65.958849704347472
 30
0.0
 11
62.369389313593558
 21
65.958849704347472
 31
0.0
  0
LINE
  5
437A
  8
2
 10
61.26938931359399
 20
59.891849704347237
 30
0.0
 11
60.51941131391709
 21
59.458849704347443
 31
0.0
  0
LINE
  5
437B
  8
0
 10
45.269389313593592
 20
60.108849704366193
 30
0.0
 11
45.269389313593592
 21
63.808849704347132
 31
0.0
  0
LINE
  5
437C
  8
0
 10
48.169389313593847
 20
57.208849704347422
 30
0.0
 11
48.669389313593562
 21
57.208849704347422
 31
0.0
  0
ARC
  5
437D
  8
0
 10
48.267775570314143
 20
60.207235961067951
 30
0.0
 40
3.0
 50
181.8793760836227
 51
268.12062391601881
  0
LINE
  5
437E
  8
0
 10
50.669389313593541
 20
57.958849704347358
 30
0.0
 11
62.36938931359358
 21
57.958849704347358
 31
0.0
  0
LINE
  5
437F
  8
0
 10
48.669389313593634
 20
66.208849704347415
 30
0.0
 11
48.669389313593634
 21
57.708849704347422
 31
0.0
  0
ARC
  5
4380
  8
0
 10
48.267775570314143
 20
63.710463447626879
 30
0.0
 40
3.0
 50
91.879376083981214
 51
178.12062391637741
  0
LINE
  5
4381
  8
0
 10
48.169389313593634
 20
57.208849704347422
 30
0.0
 11
48.16938931359357
 21
66.708849704347415
 31
0.0
  0
LINE
  5
4382
  8
2
 10
61.26938931359399
 20
64.025849704347621
 30
0.0
 11
60.51941131391709
 21
64.458849704347415
 31
0.0
  0
LINE
  5
4383
  8
2
 10
61.26938931359399
 20
64.458849704347415
 30
0.0
 11
61.26938931359399
 21
59.458849704347408
 31
0.0
  0
LINE
  5
4384
  8
0
 10
48.669389313593634
 20
57.208849704347422
 30
0.0
 11
48.669389313593562
 21
66.708849704347415
 31
0.0
  0
LINE
  5
4385
  8
1
 10
42.769389313593592
 20
61.958849704347408
 30
0.0
 11
81.569389313593476
 21
61.958849704347408
 31
0.0
  0
LINE
  5
4386
  8
2
 10
48.669389313593634
 20
64.458849704347401
 30
0.0
 11
49.669389313593541
 21
64.458849704347401
 31
0.0
  0
LINE
  5
4387
  8
2
 10
61.26938931359399
 20
64.025849704347621
 30
0.0
 11
68.169389313593513
 21
64.025849704347593
 31
0.0
  0
LINE
  5
4388
  8
2
 10
61.26938931359399
 20
59.891849704347223
 30
0.0
 11
68.169389313593513
 21
59.891849704347202
 31
0.0
  0
LINE
  5
4389
  8
2
 10
48.669389313593634
 20
59.458849704347386
 30
0.0
 11
49.669389313593541
 21
59.458849704347386
 31
0.0
  0
CIRCLE
  5
4502
  8
3
 10
105.0693893135935
 20
35.072059998632881
 30
0.0
 40
2.5
  0
CIRCLE
  5
4503
  8
0
 10
105.0693893135935
 20
35.072059998632881
 30
0.0
 40
2.0669999999999988
  0
LINE
  5
4504
  8
0
 10
105.0693893135934
 20
30.453257845115949
 30
0.0
 11
109.0693893135934
 21
32.76265892187439
 31
0.0
  0
LINE
  5
4505
  8
0
 10
109.0693893135935
 20
37.381461075391371
 30
0.0
 11
105.0693893135934
 21
39.690862152149862
 31
0.0
  0
CIRCLE
  5
4506
  8
0
 10
105.0693893135935
 20
35.072059998632881
 30
0.0
 40
3.8999999999999999
  0
CIRCLE
  5
4507
  8
0
 10
105.0693893135935
 20
35.072059998632881
 30
0.0
 40
6.0
  0
LINE
  5
4508
  8
1
 10
113.5693893135935
 20
35.072059998632881
 30
0.0
 11
96.569389313593476
 21
35.072059998632881
 31
0.0
  0
LINE
  5
4509
  8
0
 10
101.0693893135935
 20
37.381461075391421
 30
0.0
 11
101.0693893135935
 21
32.76265892187439
 31
0.0
  0
LINE
  5
450A
  8
1
 10
105.0693893135935
 20
43.572059998632866
 30
0.0
 11
105.0693893135935
 21
26.57205999863287
 31
0.0
  0
LINE
  5
450B
  8
0
 10
101.0693893135935
 20
32.76265892187439
 30
0.0
 11
105.0693893135934
 21
30.453257845115949
 31
0.0
  0
LINE
  5
450C
  8
0
 10
105.0693893135934
 20
39.690862152149862
 30
0.0
 11
101.0693893135935
 21
37.381461075391421
 31
0.0
  0
LINE
  5
450D
  8
0
 10
109.0693893135934
 20
32.76265892187439
 30
0.0
 11
109.0693893135935
 21
37.381461075391371
 31
0.0
  0
CIRCLE
  5
450E
  8
0
 10
105.0693893135935
 20
35.072059998632881
 30
0.0
 40
5.500000000000056
  0
CIRCLE
  5
450F
  8
0
 10
19.269389313593589
 20
35.072059998642182
 30
0.0
 40
4.75
  0
CIRCLE
  5
4510
  8
0
 10
19.269389313593589
 20
35.072059998642182
 30
0.0
 40
1.8499999999997241
  0
CIRCLE
  5
4511
  8
0
 10
19.269389313593589
 20
35.072059998642182
 30
0.0
 40
5.0
  0
LINE
  5
4512
  8
1
 10
19.269389313593589
 20
43.572059998642182
 30
0.0
 11
19.269389313593589
 21
26.572059998642182
 31
0.0
  0
CIRCLE
  5
4513
  8
0
 10
19.269389313593589
 20
35.072059998642182
 30
0.0
 40
6.0
  0
LINE
  5
4514
  8
1
 10
27.769389313593589
 20
35.072059998642182
 30
0.0
 11
10.769389313593591
 21
35.072059998642182
 31
0.0
  0
LINE
  5
4515
  8
0
 10
17.769389313593759
 20
34.206034594857883
 30
0.0
 11
19.269389313593759
 21
33.340009191073399
 31
0.0
  0
LINE
  5
4516
  8
0
 10
19.269389313593589
 20
36.804110806211142
 30
0.0
 11
17.769389313593422
 21
35.938085402426488
 31
0.0
  0
LINE
  5
4517
  8
0
 10
17.769389313593422
 20
35.938085402426488
 30
0.0
 11
17.769389313593759
 21
34.206034594857883
 31
0.0
  0
LINE
  5
4518
  8
0
 10
19.269389313593759
 20
33.340009191073399
 30
0.0
 11
20.769389313593589
 21
34.206034594857883
 31
0.0
  0
LINE
  5
4519
  8
0
 10
20.769389313593589
 20
34.206034594857883
 30
0.0
 11
20.769389313593589
 21
35.938085402426999
 31
0.0
  0
LINE
  5
451A
  8
0
 10
20.769389313593589
 20
35.938085402426999
 30
0.0
 11
19.269389313593589
 21
36.804110806211142
 31
0.0
  0
CIRCLE
  5
451B
  8
0
 10
19.269389313593589
 20
35.072059998642182
 30
0.0
 40
5.5
  0
LINE
  5
451C
  8
0
 10
79.011654286673831
 20
57.958849704347259
 30
0.0
 11
75.069389313593547
 21
57.958849704347543
 31
0.0
  0
LINE
  5
451D
  8
0
 10
75.069389313593575
 20
61.958849704343621
 30
0.0
 11
78.654388696767001
 21
61.958849704354712
 31
0.0
  0
LINE
  5
451E
  8
2
 10
73.769389313593592
 20
64.458849704343621
 30
0.0
 11
77.769389313593621
 21
64.458849704343649
 31
0.0
  0
LINE
  5
451F
  8
2
 10
73.769389313593564
 20
64.025849704343827
 30
0.0
 11
78.202389313593443
 21
64.025849704343827
 31
0.0
  0
LINE
  5
4520
  8
2
 10
73.769389313593592
 20
59.458849704343621
 30
0.0
 11
77.769389313593621
 21
59.458849704343621
 31
0.0
  0
LINE
  5
4521
  8
2
 10
73.769389313593592
 20
59.891849704343407
 30
0.0
 11
78.202389313593386
 21
59.891849704343443
 31
0.0
  0
LINE
  5
4522
  8
0
 10
79.011654286673831
 20
65.958849704347585
 30
0.0
 11
75.069389313593547
 21
65.958849704347287
 31
0.0
  0
LINE
  5
452A
  8
0
 10
75.069389313593547
 20
65.958849704347287
 30
0.0
 11
75.069389313593547
 21
57.958849704347543
 31
0.0
  0
ARC
  5
452B
  8
0
 10
73.23494528034621
 20
59.958849704347429
 30
0.0
 40
5.7767090063276196
 50
339.74384199965777
 51
20.2561580003422
  0
LINE
  5
452C
  8
0
 10
79.069389313593547
 20
65.858849704346042
 30
0.0
 11
79.069389313593547
 21
58.058849704348759
 31
0.0
  0
LINE
  5
452D
  8
0
 10
79.011654286673831
 20
57.958849704347429
 30
0.0
 11
79.069389313593547
 21
58.058849704348809
 31
0.0
  0
LINE
  5
452E
  8
2
 10
78.669389313593655
 20
63.558849704343643
 30
0.0
 11
77.769389313593621
 21
64.458849704343649
 31
0.0
  0
LINE
  5
452F
  8
2
 10
77.769389313593621
 20
59.458849704343649
 30
0.0
 11
77.769389313593621
 21
64.458849704343649
 31
0.0
  0
ARC
  5
4530
  8
0
 10
73.23494528034621
 20
63.958849704347422
 30
0.0
 40
5.7767090063276196
 50
339.74384199965777
 51
20.2561580003422
  0
LINE
  5
4531
  8
2
 10
77.769389313593621
 20
59.458849704343621
 30
0.0
 11
78.669389313593655
 21
60.358849704343633
 31
0.0
  0
LINE
  5
4532
  8
2
 10
78.669389313593655
 20
60.358849704343633
 30
0.0
 11
78.669389313593655
 21
63.558849704343643
 31
0.0
  0
LINE
  5
4533
  8
0
 10
79.011654286673831
 20
65.958849704347429
 30
0.0
 11
79.069389313593547
 21
65.858849704346042
 31
0.0
  0
LINE
  5
4534
  8
0
 10
73.769389313593564
 20
66.558849704343615
 30
0.0
 11
75.069389313593575
 21
66.558849704343615
 31
0.0
  0
LINE
  5
4535
  8
0
 10
75.069389313593575
 20
66.558849704343615
 30
0.0
 11
75.069389313593575
 21
57.358849704343591
 31
0.0
  0
LINE
  5
4536
  8
0
 10
75.069389313593575
 20
57.358849704343591
 30
0.0
 11
73.769389313593564
 21
57.358849704343591
 31
0.0
  0
LINE
  5
4537
  8
0
 10
73.769389313593564
 20
57.358849704343591
 30
0.0
 11
73.769389313593564
 21
66.558849704343615
 31
0.0
  0
TEXT
  5
45E3
  8
0
 62
     3
 10
0.0
 20
0.0
 30
0.0
 40
10.0
  1
RLP0813
  7
STANDARD1
  0
ENDSEC
  0
EOF
