  0
SECTION
  2
HEADER
  9
$ACADVER
  1
AC1009
  9
$INSBASE
 10
0.0
 20
0.0
 30
0.0
  9
$EXTMIN
 10
0.0
 20
-1.4802182810368341
 30
0.0
  9
$EXTMAX
 10
142.19999999999999
 20
151.5
 30
0.0
  9
$LIMMIN
 10
0.0
 20
0.0
  9
$LIMMAX
 10
192.5
 20
135.0
  9
$ORTHOMODE
 70
     1
  9
$REGENMODE
 70
     1
  9
$FILLMODE
 70
     1
  9
$QTEXTMODE
 70
     0
  9
$MIRRTEXT
 70
     0
  9
$DRAGMODE
 70
     2
  9
$LTSCALE
 40
5.0
  9
$OSMODE
 70
    37
  9
$ATTMODE
 70
     1
  9
$TEXTSIZE
 40
1.6000000000000489
  9
$TRACEWID
 40
0.05
  9
$TEXTSTYLE
  7
STANDARD
  9
$CLAYER
  8
0
  9
$CELTYPE
  6
BYLAYER
  9
$CECOLOR
 62
   256
  9
$DIMSCALE
 40
1.0
  9
$DIMASZ
 40
3.0
  9
$DIMEXO
 40
2.0
  9
$DIMDLI
 40
0.38
  9
$DIMRND
 40
0.0
  9
$DIMDLE
 40
0.0
  9
$DIMEXE
 40
2.0
  9
$DIMTP
 40
0.0
  9
$DIMTM
 40
0.0
  9
$DIMTXT
 40
3.0
  9
$DIMCEN
 40
0.0
  9
$DIMTSZ
 40
0.0
  9
$DIMTOL
 70
     0
  9
$DIMLIM
 70
     0
  9
$DIMTIH
 70
     0
  9
$DIMTOH
 70
     0
  9
$DIMSE1
 70
     0
  9
$DIMSE2
 70
     0
  9
$DIMTAD
 70
     1
  9
$DIMZIN
 70
     9
  9
$DIMBLK
  1

  9
$DIMASO
 70
     0
  9
$DIMSHO
 70
     0
  9
$DIMPOST
  1

  9
$DIMAPOST
  1

  9
$DIMALT
 70
     0
  9
$DIMALTD
 70
     2
  9
$DIMALTF
 40
25.399999999999999
  9
$DIMLFAC
 40
1.0
  9
$DIMTOFL
 70
     1
  9
$DIMTVP
 40
1.6000000000000001
  9
$DIMTIX
 70
     1
  9
$DIMSOXD
 70
     0
  9
$DIMSAH
 70
     0
  9
$DIMBLK1
  1

  9
$DIMBLK2
  1

  9
$DIMSTYLE
  2
STANDARD
  9
$DIMCLRD
 70
     0
  9
$DIMCLRE
 70
     0
  9
$DIMCLRT
 70
     0
  9
$DIMTFAC
 40
1.0
  9
$DIMGAP
 40
0.09
  9
$LUNITS
 70
     2
  9
$LUPREC
 70
     1
  9
$SKETCHINC
 40
0.1
  9
$FILLETRAD
 40
0.3
  9
$AUNITS
 70
     0
  9
$AUPREC
 70
     1
  9
$MENU
  1
E:\r13\win\SUPPORT\ACAD
  9
$ELEVATION
 40
0.0
  9
$PELEVATION
 40
0.0
  9
$THICKNESS
 40
0.0
  9
$LIMCHECK
 70
     0
  9
$BLIPMODE
 70
     0
  9
$CHAMFERA
 40
0.0
  9
$CHAMFERB
 40
0.0
  9
$SKPOLY
 70
     0
  9
$TDCREATE
 40
2448328.489641204
  9
$TDUPDATE
 40
2459200.38798125
  9
$TDINDWG
 40
1.1284091087999999
  9
$TDUSRTIMER
 40
2456598.932675567
  9
$USRTIMER
 70
     1
  9
$ANGBASE
 50
0.0
  9
$ANGDIR
 70
     0
  9
$PDMODE
 70
    35
  9
$PDSIZE
 40
0.0
  9
$PLINEWID
 40
0.0
  9
$COORDS
 70
     1
  9
$SPLFRAME
 70
     0
  9
$SPLINETYPE
 70
     6
  9
$SPLINESEGS
 70
     8
  9
$ATTDIA
 70
     0
  9
$ATTREQ
 70
     1
  9
$HANDLING
 70
     1
  9
$HANDSEED
  5
59ED
  9
$SURFTAB1
 70
     6
  9
$SURFTAB2
 70
     6
  9
$SURFTYPE
 70
     6
  9
$SURFU
 70
     6
  9
$SURFV
 70
     6
  9
$UCSNAME
  2

  9
$UCSORG
 10
0.0
 20
0.0
 30
0.0
  9
$UCSXDIR
 10
1.0
 20
0.0
 30
0.0
  9
$UCSYDIR
 10
0.0
 20
1.0
 30
0.0
  9
$PUCSNAME
  2

  9
$PUCSORG
 10
0.0
 20
0.0
 30
0.0
  9
$PUCSXDIR
 10
1.0
 20
0.0
 30
0.0
  9
$PUCSYDIR
 10
0.0
 20
1.0
 30
0.0
  9
$USERI1
 70
     3
  9
$USERI2
 70
     1
  9
$USERI3
 70
     1
  9
$USERI4
 70
     0
  9
$USERI5
 70
     0
  9
$USERR1
 40
0.5
  9
$USERR2
 40
3.0
  9
$USERR3
 40
3.0
  9
$USERR4
 40
3.0
  9
$USERR5
 40
10.0
  9
$WORLDVIEW
 70
     1
  9
$SHADEDGE
 70
     3
  9
$SHADEDIF
 70
    70
  9
$TILEMODE
 70
     1
  9
$MAXACTVP
 70
    16
  9
$PLIMCHECK
 70
     0
  9
$PEXTMIN
 10
1.0000000000000000E+020
 20
1.0000000000000000E+020
 30
1.0000000000000000E+020
  9
$PEXTMAX
 10
-1.0000000000000000E+020
 20
-1.0000000000000000E+020
 30
-1.0000000000000000E+020
  9
$PLIMMIN
 10
0.0
 20
0.0
  9
$PLIMMAX
 10
12.0
 20
9.0
  9
$UNITMODE
 70
     0
  9
$VISRETAIN
 70
     0
  9
$PLINEGEN
 70
     1
  9
$PSLTSCALE
 70
     0
  0
ENDSEC
  0
SECTION
  2
TABLES
  0
TABLE
  2
VPORT
 70
     1
  0
VPORT
  2
*ACTIVE
 70
     0
 10
0.0
 20
0.0
 11
1.0
 21
1.0
 12
108.2034949628142
 22
75.006052982721982
 13
0.0
 23
0.0
 14
2.5
 24
2.5
 15
5.0
 25
5.0
 16
0.0
 26
0.0
 36
1.0
 17
0.0
 27
0.0
 37
0.0
 40
154.32334114967941
 41
2.415644171779141
 42
50.0
 43
0.0
 44
0.0
 50
0.0
 51
0.0
 71
     0
 72
   500
 73
     1
 74
     0
 75
     0
 76
     0
 77
     0
 78
     2
  0
ENDTAB
  0
TABLE
  2
LTYPE
 70
     4
  0
LTYPE
  2
CONTINUOUS
 70
     0
  3
Solid Line
 72
    65
 73
     0
 40
0.0
  0
LTYPE
  2
CENTER
 70
     0
  3
____ _ ____ _ ____ _ ____ _ ____ _ ____ _ ____
 72
    65
 73
     4
 40
2.0
 49
1.25
 49
-0.25
 49
0.25
 49
-0.25
  0
LTYPE
  2
HIDDEN
 70
     0
  3
_ _ _ _ _ _ _ _ _ _ _ _ _ _ _ _ _ _ _ _ _ _ _
 72
    65
 73
     2
 40
0.375
 49
0.25
 49
-0.125
  0
LTYPE
  2
PHANTOM2
 70
     0
  3
___ _ _ ___ _ _ ___ _ _ ___ _ _
 72
    65
 73
     6
 40
1.25
 49
0.625
 49
-0.125
 49
0.125
 49
-0.125
 49
0.125
 49
-0.125
  0
ENDTAB
  0
TABLE
  2
LAYER
 70
     5
  0
LAYER
  2
0
 70
     0
 62
     7
  6
CONTINUOUS
  0
LAYER
  2
1
 70
     0
 62
     1
  6
CENTER
  0
LAYER
  2
2
 70
     0
 62
     2
  6
HIDDEN
  0
LAYER
  2
DEFPOINTS
 70
     0
 62
     7
  6
CONTINUOUS
  0
LAYER
  2
3
 70
     0
 62
     3
  6
CONTINUOUS
  0
ENDTAB
  0
TABLE
  2
STYLE
 70
     2
  0
STYLE
  2
STANDARD
 70
     0
 40
0.0
 41
1.0
 50
0.0
 71
     0
 42
1.6000000000000489
  3
SIMPLEX
  4
BIGFONT
  0
STYLE
  2
STANDARD1
 70
     0
 40
0.0
 41
1.0
 50
0.0
 71
     0
 42
3.0
  3
txt
  4

  0
ENDTAB
  0
TABLE
  2
VIEW
 70
     1
  0
VIEW
  2
ALL
 70
     0
 40
87.5
 10
71.617647058823522
 20
43.75
 41
0.0
 11
0.0
 21
0.0
 31
1.0
 12
0.0
 22
0.0
 32
0.0
 42
50.0
 43
0.0
 44
0.0
 50
0.0
 71
     0
  0
ENDTAB
  0
TABLE
  2
UCS
 70
     0
  0
ENDTAB
  0
TABLE
  2
APPID
 70
     7
  0
APPID
  2
ACAD
 70
     0
  0
APPID
  2
ACAD_EXEMPT_FROM_CAD_STANDARDS
 70
     0
  0
APPID
  2
ACAD_DSTYLE_DIMJAG
 70
     0
  0
APPID
  2
ACAD_DSTYLE_DIMTALN
 70
     0
  0
APPID
  2
ACAD_MLEADERVER
 70
     0
  0
APPID
  2
ACAD_NAV_VCDISPLAY
 70
     0
  0
APPID
  2
ACAD_DSTYLE_DIMRADIAL_EXTENSION
 70
     0
  0
ENDTAB
  0
TABLE
  2
DIMSTYLE
 70
     2
  0
DIMSTYLE
  2
STANDARD
 70
     0
  3

  4

  5

  6

  7

 40
1.0
 41
0.18
 42
0.0625
 43
0.38
 44
0.18
 45
0.0
 46
0.0
 47
0.0
 48
0.0
140
0.18
141
0.09
142
0.0
143
25.399999999999999
144
1.0
145
0.0
146
1.0
147
0.09
 71
     0
 72
     0
 73
     1
 74
     1
 75
     0
 76
     0
 77
     0
 78
     0
170
     0
171
     2
172
     0
173
     0
174
     0
175
     0
176
     0
177
     0
178
     0
  0
DIMSTYLE
  2
ISO-25
 70
     0
  3

  4

  5

  6

  7

 40
1.0
 41
2.5
 42
0.625
 43
3.75
 44
1.25
 45
0.0
 46
0.0
 47
0.0
 48
0.0
140
2.5
141
2.5
142
0.0
143
0.03937007874016
144
1.0
145
0.0
146
1.0
147
0.625
 71
     0
 72
     0
 73
     0
 74
     0
 75
     0
 76
     0
 77
     1
 78
     8
170
     0
171
     3
172
     1
173
     0
174
     0
175
     0
176
     0
177
     0
178
     0
  0
ENDTAB
  0
ENDSEC
  0
SECTION
  2
BLOCKS
  0
BLOCK
  8
0
  2
$MODEL_SPACE
 70
     0
 10
0.0
 20
0.0
 30
0.0
  3
$MODEL_SPACE
  1

  0
ENDBLK
  5
BAB
  8
0
  0
BLOCK
 67
     1
  8
0
  2
$PAPER_SPACE
 70
     0
 10
0.0
 20
0.0
 30
0.0
  3
$PAPER_SPACE
  1

  0
ENDBLK
  5
BA9
 67
     1
  8
0
  0
ENDSEC
  0
SECTION
  2
ENTITIES
  0
TEXT
  5
2813
  8
0
 62
     3
 10
0.0
 20
0.0
 30
0.0
 40
5.0
  1
RLES3346IHH
  7
STANDARD1
  0
LINE
  5
53EF
  8
2
 10
113.1928203230275
 20
118.2
 30
0.0
 11
116.0
 21
118.2
 31
0.0
  0
LINE
  5
53F0
  8
2
 10
116.0
 20
145.80000000000001
 30
0.0
 11
113.1928203230275
 21
145.80000000000001
 31
0.0
  0
LINE
  5
53F1
  8
2
 10
116.0
 20
146.63077978398701
 30
0.0
 11
112.7020725942163
 21
146.63077978398701
 31
0.0
  0
LINE
  5
53F2
  8
2
 10
116.0
 20
145.7986813892054
 30
0.0
 11
113.19282032301371
 21
145.7986813892054
 31
0.0
  0
LINE
  5
53F3
  8
2
 10
116.0
 20
117.36922021601291
 30
0.0
 11
112.7020725942276
 21
117.36922021601291
 31
0.0
  0
LINE
  5
53F4
  8
2
 10
116.0
 20
118.2013186107945
 30
0.0
 11
113.1928203230275
 21
118.2013186107945
 31
0.0
  0
LINE
  5
53F5
  8
2
 10
116.0
 20
117.40334142269531
 30
0.0
 11
112.7020725942163
 21
117.40334142269531
 31
0.0
  0
LINE
  5
53F6
  8
2
 10
116.0
 20
146.59665857730471
 30
0.0
 11
112.70207259421279
 21
146.59665857730471
 31
0.0
  0
LINE
  5
53F7
  8
2
 10
116.0
 20
118.30386421680559
 30
0.0
 11
113.19282032299679
 21
118.30386421680559
 31
0.0
  0
LINE
  5
53F8
  8
2
 10
116.0
 20
145.69613578319439
 30
0.0
 11
113.1928203230275
 21
145.69613578319439
 31
0.0
  0
LINE
  5
53FB
  8
2
 10
125.5
 20
138.5
 30
0.0
 11
132.0
 21
138.5
 31
0.0
  0
LINE
  5
53FC
  8
2
 10
132.0
 20
143.5
 30
0.0
 11
125.5
 21
143.5
 31
0.0
  0
LINE
  5
53FD
  8
2
 10
125.5
 20
120.5
 30
0.0
 11
132.0
 21
120.5
 31
0.0
  0
LINE
  5
53FE
  8
2
 10
132.0
 20
125.5
 30
0.0
 11
125.5
 21
125.5
 31
0.0
  0
LINE
  5
53FF
  8
2
 10
116.0
 20
146.3923572457922
 30
0.0
 11
112.7020725942163
 21
146.3923572457922
 31
0.0
  0
LINE
  5
5400
  8
2
 10
116.0
 20
145.6441836690434
 30
0.0
 11
113.19282032297011
 21
145.6441836690434
 31
0.0
  0
LINE
  5
5401
  8
2
 10
116.0
 20
117.6076427542078
 30
0.0
 11
112.70207259422909
 21
117.6076427542078
 31
0.0
  0
LINE
  5
5402
  8
2
 10
116.0
 20
118.3558163309565
 30
0.0
 11
113.1928203230275
 21
118.3558163309565
 31
0.0
  0
LINE
  5
5409
  8
2
 10
116.0
 20
117.7093707607341
 30
0.0
 11
112.7020725942163
 21
117.7093707607341
 31
0.0
  0
LINE
  5
540A
  8
2
 10
116.0
 20
146.2906292392658
 30
0.0
 11
112.7020725942436
 21
146.2906292392658
 31
0.0
  0
LINE
  5
540B
  8
2
 10
116.0
 20
118.6615429183734
 30
0.0
 11
113.19282032298619
 21
118.6615429183734
 31
0.0
  0
LINE
  5
540C
  8
2
 10
116.0
 20
145.3384570816265
 30
0.0
 11
113.1928203230275
 21
145.3384570816265
 31
0.0
  0
LINE
  5
540D
  8
2
 10
116.0
 20
145.88583232349379
 30
0.0
 11
112.7020725942163
 21
145.88583232349379
 31
0.0
  0
LINE
  5
540E
  8
2
 10
116.0
 20
145.23552062291401
 30
0.0
 11
113.1928203230829
 21
145.23552062291401
 31
0.0
  0
LINE
  5
540F
  8
2
 10
116.0
 20
118.1141676765061
 30
0.0
 11
112.7020725942033
 21
118.1141676765061
 31
0.0
  0
LINE
  5
5410
  8
2
 10
116.0
 20
118.764479377086
 30
0.0
 11
113.1928203230275
 21
118.764479377086
 31
0.0
  0
LINE
  5
5411
  8
2
 10
116.0
 20
118.2816074825916
 30
0.0
 11
112.7020725942163
 21
118.2816074825916
 31
0.0
  0
LINE
  5
5412
  8
2
 10
116.0
 20
145.71839251740829
 30
0.0
 11
112.7020725941789
 21
145.71839251740829
 31
0.0
  0
LINE
  5
5413
  8
2
 10
116.0
 20
118.8820944540219
 30
0.0
 11
113.0022947341949
 21
118.8820944540219
 31
0.0
  0
LINE
  5
5414
  8
2
 10
112.8075102284201
 20
118.8178016377843
 30
0.0
 11
116.0
 21
118.8178016377843
 31
0.0
  0
POLYLINE
  5
5415
  8
2
 66
     1
 10
0.0
 20
0.0
 30
0.0
  0
VERTEX
  5
594B
  8
2
 10
112.8064629567985
 20
118.81780164376811
 30
0.0
  0
VERTEX
  5
594C
  8
2
 10
112.8559334831406
 20
118.82279192863869
 30
0.0
  0
VERTEX
  5
594D
  8
2
 10
113.0022947341949
 20
118.8820944540219
 30
0.0
  0
SEQEND
  5
594E
  8
2
  0
LINE
  5
5416
  8
2
 10
116.0
 20
145.11790554597809
 30
0.0
 11
113.0022947341949
 21
145.11790554597809
 31
0.0
  0
LINE
  5
5417
  8
2
 10
116.0
 20
145.1821983622157
 30
0.0
 11
112.8074825862422
 21
145.1821983622157
 31
0.0
  0
POLYLINE
  5
5418
  8
2
 66
     1
 10
0.0
 20
0.0
 30
0.0
  0
VERTEX
  5
594F
  8
2
 10
112.80647894969781
 20
145.18219835199329
 30
0.0
  0
VERTEX
  5
5950
  8
2
 10
112.7540256105098
 20
145.1754917720003
 30
0.0
  0
VERTEX
  5
5951
  8
2
 10
112.6890775469205
 20
145.143343395025
 30
0.0
  0
VERTEX
  5
5952
  8
2
 10
112.6359889330253
 20
145.08618918007599
 30
0.0
  0
VERTEX
  5
5953
  8
2
 10
112.5932443452898
 20
145.0036510916465
 30
0.0
  0
VERTEX
  5
5954
  8
2
 10
112.5603437047064
 20
144.8921162769895
 30
0.0
  0
VERTEX
  5
5955
  8
2
 10
112.5390074351449
 20
144.75452153695329
 30
0.0
  0
VERTEX
  5
5956
  8
2
 10
112.5288675134595
 20
144.5364259153539
 30
0.0
  0
SEQEND
  5
5957
  8
2
  0
LINE
  5
541E
  8
0
 10
139.19999999999999
 20
134.0095
 30
0.0
 11
138.70949999999999
 21
134.5
 31
0.0
  0
LINE
  5
541F
  8
0
 10
138.70949999999999
 20
129.5
 30
0.0
 11
139.19999999999999
 21
129.9905
 31
0.0
  0
LINE
  5
5420
  8
0
 10
139.19999999999999
 20
134.0095
 30
0.0
 11
139.19999999999999
 21
129.9905
 31
0.0
  0
LINE
  5
5421
  8
0
 10
132.0
 20
129.5
 30
0.0
 11
138.70949999999999
 21
129.5
 31
0.0
  0
LINE
  5
5423
  8
2
 10
132.0
 20
134.5
 30
0.0
 11
129.19999999999999
 21
134.5
 31
0.0
  0
LINE
  5
5424
  8
0
 10
138.70949999999999
 20
134.5
 30
0.0
 11
132.0
 21
134.5
 31
0.0
  0
LINE
  5
5425
  8
0
 10
138.70949999999999
 20
134.5
 30
0.0
 11
138.70949999999999
 21
129.5
 31
0.0
  0
LINE
  5
5426
  8
2
 10
129.19999999999999
 20
129.40000000000001
 30
0.0
 11
132.0
 21
129.40000000000001
 31
0.0
  0
LINE
  5
5428
  8
2
 10
116.0
 20
136.44114510157689
 30
0.0
 11
113.19282032306749
 21
136.44114510157689
 31
0.0
  0
LINE
  5
5429
  8
2
 10
116.0
 20
136.8006490425993
 30
0.0
 11
113.1928203230275
 21
136.8006490425993
 31
0.0
  0
LINE
  5
542A
  8
2
 10
116.0
 20
127.55885489842311
 30
0.0
 11
113.1928203230275
 21
127.55885489842311
 31
0.0
  0
LINE
  5
542B
  8
2
 10
116.0
 20
127.1993509574006
 30
0.0
 11
113.1928203230169
 21
127.1993509574006
 31
0.0
  0
LINE
  5
542C
  8
2
 10
116.0
 20
138.08360784039269
 30
0.0
 11
112.7829016319029
 21
138.08360784039269
 31
0.0
  0
LINE
  5
542D
  8
2
 10
116.0
 20
125.9163921596073
 30
0.0
 11
112.7829016319029
 21
125.9163921596073
 31
0.0
  0
LINE
  5
542E
  8
2
 10
125.7
 20
127.75
 30
0.0
 11
129.19999999999999
 21
127.75
 31
0.0
  0
LINE
  5
542F
  8
2
 10
129.19999999999999
 20
136.25
 30
0.0
 11
125.7
 21
136.25
 31
0.0
  0
LINE
  5
5433
  8
2
 10
125.7
 20
136.25
 30
0.0
 11
125.7
 21
127.75
 31
0.0
  0
LINE
  5
5434
  8
2
 10
116.0
 20
138.0650288980689
 30
0.0
 11
112.7020725942163
 21
138.0650288980689
 31
0.0
  0
LINE
  5
5435
  8
2
 10
116.0
 20
125.9349711019311
 30
0.0
 11
112.7020725942355
 21
125.9349711019311
 31
0.0
  0
LINE
  5
5436
  8
2
 10
125.5
 20
127.5
 30
0.0
 11
129.19999999999999
 21
127.5
 31
0.0
  0
LINE
  5
5437
  8
2
 10
129.19999999999999
 20
136.5
 30
0.0
 11
125.5
 21
136.5
 31
0.0
  0
LINE
  5
5438
  8
2
 10
129.19999999999999
 20
136.5
 30
0.0
 11
129.19999999999999
 21
127.5
 31
0.0
  0
LINE
  5
5439
  8
2
 10
116.0
 20
137.60642324731609
 30
0.0
 11
112.7020725941945
 21
137.60642324731609
 31
0.0
  0
LINE
  5
543A
  8
2
 10
116.0
 20
126.3935767526839
 30
0.0
 11
112.7020725942163
 21
126.3935767526839
 31
0.0
  0
LINE
  5
543B
  8
2
 10
116.0
 20
134.6206480979543
 30
0.0
 11
113.19282032299481
 21
134.6206480979543
 31
0.0
  0
LINE
  5
543C
  8
2
 10
116.0
 20
134.99420130370831
 30
0.0
 11
113.1928203230275
 21
134.99420130370831
 31
0.0
  0
LINE
  5
543D
  8
2
 10
116.0
 20
129.3793519020457
 30
0.0
 11
113.1928203230275
 21
129.3793519020457
 31
0.0
  0
LINE
  5
543E
  8
2
 10
116.0
 20
129.00579869629169
 30
0.0
 11
113.19282032303541
 21
129.00579869629169
 31
0.0
  0
LINE
  5
543F
  8
2
 10
117.5
 20
118.40000000000001
 30
0.0
 11
125.5
 21
118.40000000000001
 31
0.0
  0
LINE
  5
5440
  8
2
 10
125.5
 20
145.59999999999999
 30
0.0
 11
117.5
 21
145.59999999999999
 31
0.0
  0
LINE
  5
5441
  8
2
 10
125.5
 20
145.59999999999999
 30
0.0
 11
125.5
 21
118.40000000000001
 31
0.0
  0
LINE
  5
5442
  8
2
 10
116.0
 20
131.2486666212765
 30
0.0
 11
113.1928203230275
 21
131.2486666212765
 31
0.0
  0
LINE
  5
5443
  8
2
 10
116.0
 20
130.8680227402244
 30
0.0
 11
113.19282032300811
 21
130.8680227402244
 31
0.0
  0
LINE
  5
5444
  8
2
 10
116.0
 20
132.7513333787235
 30
0.0
 11
113.19282032301579
 21
132.7513333787235
 31
0.0
  0
LINE
  5
5445
  8
2
 10
116.0
 20
133.1319772597756
 30
0.0
 11
113.1928203230275
 21
133.1319772597756
 31
0.0
  0
LINE
  5
5446
  8
2
 10
116.0
 20
136.19267647232519
 30
0.0
 11
112.7020725942163
 21
136.19267647232519
 31
0.0
  0
LINE
  5
5447
  8
2
 10
116.0
 20
127.8073235276747
 30
0.0
 11
112.7020725941836
 21
127.8073235276747
 31
0.0
  0
LINE
  5
5448
  8
2
 10
116.0
 20
128.2887821713486
 30
0.0
 11
112.7020725942163
 21
128.2887821713486
 31
0.0
  0
LINE
  5
5449
  8
2
 10
116.0
 20
135.71121782865129
 30
0.0
 11
112.7020725942351
 21
135.71121782865129
 31
0.0
  0
LINE
  5
544A
  8
2
 10
116.0
 20
134.24222241675079
 30
0.0
 11
112.7020725942163
 21
134.24222241675079
 31
0.0
  0
LINE
  5
544B
  8
2
 10
116.0
 20
129.75777758324921
 30
0.0
 11
112.7020725941839
 21
129.75777758324921
 31
0.0
  0
LINE
  5
544C
  8
2
 10
116.0
 20
133.74687944373261
 30
0.0
 11
112.7020725941845
 21
133.74687944373261
 31
0.0
  0
LINE
  5
544D
  8
2
 10
116.0
 20
130.25312055626731
 30
0.0
 11
112.7020725942163
 21
130.25312055626731
 31
0.0
  0
LINE
  5
544E
  8
2
 10
116.0
 20
132.25
 30
0.0
 11
112.7020725942163
 21
132.25
 31
0.0
  0
LINE
  5
544F
  8
2
 10
116.0
 20
131.75
 30
0.0
 11
112.7020725942143
 21
131.75
 31
0.0
  0
LINE
  5
5450
  8
2
 10
116.0
 20
140.1611717460562
 30
0.0
 11
116.0
 21
123.8388285697911
 31
0.0
  0
LINE
  5
5451
  8
2
 10
116.0
 20
119.4635739255594
 30
0.0
 11
116.0
 21
117.05
 31
0.0
  0
LINE
  5
5452
  8
2
 10
116.0
 20
119.4635739255594
 30
0.0
 11
112.5288675134595
 21
119.4635739255594
 31
0.0
  0
LINE
  5
5453
  8
2
 10
116.0
 20
123.8388285697911
 30
0.0
 11
112.5288675134595
 21
123.8388285697911
 31
0.0
  0
LINE
  5
5454
  8
2
 10
116.0
 20
140.1611717460562
 30
0.0
 11
112.5288675134595
 21
140.1611717460562
 31
0.0
  0
LINE
  5
5455
  8
2
 10
116.0
 20
144.5364259153539
 30
0.0
 11
112.5288675134595
 21
144.5364259153539
 31
0.0
  0
LINE
  5
5456
  8
2
 10
116.0
 20
117.05
 30
0.0
 11
117.5
 21
117.05
 31
0.0
  0
LINE
  5
5457
  8
2
 10
117.5
 20
146.94999999999999
 30
0.0
 11
116.0
 21
146.94999999999999
 31
0.0
  0
LINE
  5
5458
  8
2
 10
116.0
 20
146.94999999999999
 30
0.0
 11
116.0
 21
144.5364259153539
 31
0.0
  0
LINE
  5
5459
  8
2
 10
117.5
 20
146.94999999999999
 30
0.0
 11
117.5
 21
117.05
 31
0.0
  0
LINE
  5
545A
  8
2
 10
113.192820322999
 20
118.764479377086
 30
0.0
 11
112.7020725942163
 21
118.1141676765061
 31
0.0
  0
POLYLINE
  5
545B
  8
2
 66
     1
 10
0.0
 20
0.0
 30
0.0
  0
VERTEX
  5
5958
  8
2
 10
112.8423475377831
 20
118.8204857354778
 30
0.0
  0
VERTEX
  5
5959
  8
2
 10
112.8290743552887
 20
118.8188922293416
 30
0.0
  0
VERTEX
  5
595A
  8
2
 10
112.80647894969781
 20
118.81780164800669
 30
0.0
  0
SEQEND
  5
595B
  8
2
  0
LINE
  5
545C
  8
2
 10
112.7829016319029
 20
125.9163921596073
 30
0.0
 11
112.7020725942163
 21
125.9349711019311
 31
0.0
  0
LINE
  5
545D
  8
2
 10
112.7020725941897
 20
126.3935767526839
 30
0.0
 11
113.1928203230275
 21
127.1993509574006
 31
0.0
  0
LINE
  5
545E
  8
2
 10
113.1928203230038
 20
129.3793519020457
 30
0.0
 11
112.7020725942163
 21
129.75777758324921
 31
0.0
  0
LINE
  5
545F
  8
2
 10
113.1928203229926
 20
131.2486666212765
 30
0.0
 11
112.7020725942163
 21
131.75
 31
0.0
  0
LINE
  5
5460
  8
2
 10
113.19282032299439
 20
133.1319772597756
 30
0.0
 11
112.7020725942163
 21
133.74687944373261
 31
0.0
  0
LINE
  5
5461
  8
2
 10
112.7020725941433
 20
134.24222241675079
 30
0.0
 11
113.1928203230275
 21
134.6206480979543
 31
0.0
  0
LINE
  5
5462
  8
2
 10
112.702072594204
 20
138.0650288980689
 30
0.0
 11
112.7826531077561
 21
138.08355061543139
 31
0.0
  0
POLYLINE
  5
5463
  8
2
 66
     1
 10
0.0
 20
0.0
 30
0.0
  0
VERTEX
  5
595C
  8
2
 10
112.5288675134595
 20
144.53642607444061
 30
0.0
  0
VERTEX
  5
595D
  8
2
 10
112.53402242122741
 20
144.69603570229111
 30
0.0
  0
VERTEX
  5
595E
  8
2
 10
112.5369371174523
 20
144.73299738861661
 30
0.0
  0
SEQEND
  5
595F
  8
2
  0
LINE
  5
5464
  8
2
 10
113.0022947341949
 20
145.11790554597809
 30
0.0
 11
112.7020725942163
 21
145.71839251740829
 31
0.0
  0
LINE
  5
5465
  8
2
 10
112.7020725942416
 20
146.3923572457922
 30
0.0
 11
113.1928203230275
 21
145.6441836690434
 31
0.0
  0
LINE
  5
5466
  8
2
 10
113.19282032301351
 20
145.69613578319439
 30
0.0
 11
112.7020725942163
 21
146.59665857730471
 31
0.0
  0
LINE
  5
5467
  8
2
 10
113.19282032301371
 20
145.7986813892054
 30
0.0
 11
112.7020725942163
 21
146.63077978398701
 31
0.0
  0
LINE
  5
5468
  8
2
 10
112.7020725942163
 20
146.63077978398701
 30
0.0
 11
112.70207259421279
 21
146.59665857730471
 31
0.0
  0
LINE
  5
5469
  8
2
 10
113.1928203230275
 20
145.69613578319439
 30
0.0
 11
113.19282032297011
 21
145.6441836690434
 31
0.0
  0
LINE
  5
546A
  8
2
 10
112.7020725942163
 20
146.3923572457922
 30
0.0
 11
112.7020725942436
 21
146.2906292392658
 31
0.0
  0
LINE
  5
546B
  8
2
 10
112.7020725942436
 20
146.2906292392658
 30
0.0
 11
113.1928203230275
 21
145.3384570816265
 31
0.0
  0
LINE
  5
546C
  8
2
 10
113.1928203230275
 20
145.3384570816265
 30
0.0
 11
113.1928203230829
 21
145.23552062291401
 31
0.0
  0
LINE
  5
546D
  8
2
 10
113.1928203230829
 20
145.23552062291401
 30
0.0
 11
112.7020725942163
 21
145.88583232349379
 31
0.0
  0
LINE
  5
546E
  8
2
 10
112.7020725942163
 20
145.88583232349379
 30
0.0
 11
112.7020725941789
 21
145.71839251740829
 31
0.0
  0
POLYLINE
  5
546F
  8
2
 66
     1
 10
0.0
 20
0.0
 30
0.0
  0
VERTEX
  5
5960
  8
2
 10
113.0022947341949
 20
145.11790554597809
 30
0.0
  0
VERTEX
  5
5961
  8
2
 10
112.9113644644099
 20
145.1614928992804
 30
0.0
  0
VERTEX
  5
5962
  8
2
 10
112.8290743552887
 20
145.18110777065829
 30
0.0
  0
VERTEX
  5
5963
  8
2
 10
112.80647894969781
 20
145.18219835199329
 30
0.0
  0
SEQEND
  5
5964
  8
2
  0
LINE
  5
5470
  8
2
 10
112.5288675134595
 20
144.5364259153539
 30
0.0
 11
112.5288675134595
 21
140.1611717460562
 31
0.0
  0
POLYLINE
  5
5471
  8
2
 66
     1
 10
0.0
 20
0.0
 30
0.0
  0
VERTEX
  5
5965
  8
2
 10
112.5288675134595
 20
140.1611717460562
 30
0.0
  0
VERTEX
  5
5966
  8
2
 10
112.53404172321071
 20
139.89282692566729
 30
0.0
  0
VERTEX
  5
5967
  8
2
 10
112.5494926628826
 20
139.6131209720908
 30
0.0
  0
VERTEX
  5
5968
  8
2
 10
112.5760776493254
 20
139.31526778311931
 30
0.0
  0
VERTEX
  5
5969
  8
2
 10
112.6132653713439
 20
139.0098392288908
 30
0.0
  0
VERTEX
  5
596A
  8
2
 10
112.6866082546963
 20
138.55234067742759
 30
0.0
  0
VERTEX
  5
596B
  8
2
 10
112.7829016319029
 20
138.08360784039269
 30
0.0
  0
SEQEND
  5
596C
  8
2
  0
LINE
  5
5472
  8
2
 10
112.7020725942163
 20
138.0650288980689
 30
0.0
 11
112.7020725941945
 21
137.60642324731609
 31
0.0
  0
LINE
  5
5473
  8
2
 10
112.7020725941945
 20
137.60642324731609
 30
0.0
 11
113.1928203230275
 21
136.8006490425993
 31
0.0
  0
LINE
  5
5474
  8
2
 10
113.1928203230275
 20
136.8006490425993
 30
0.0
 11
113.19282032306749
 21
136.44114510157689
 31
0.0
  0
LINE
  5
5475
  8
2
 10
113.19282032306749
 20
136.44114510157689
 30
0.0
 11
112.7020725942163
 21
136.19267647232519
 31
0.0
  0
LINE
  5
5476
  8
2
 10
112.7020725942163
 20
136.19267647232519
 30
0.0
 11
112.7020725942351
 21
135.71121782865129
 31
0.0
  0
LINE
  5
5477
  8
2
 10
112.7020725942351
 20
135.71121782865129
 30
0.0
 11
113.1928203230275
 21
134.99420130370831
 31
0.0
  0
LINE
  5
5478
  8
2
 10
113.1928203230275
 20
134.99420130370831
 30
0.0
 11
113.19282032299481
 21
134.6206480979543
 31
0.0
  0
LINE
  5
5479
  8
2
 10
112.7020725942163
 20
134.24222241675079
 30
0.0
 11
112.7020725941845
 21
133.74687944373261
 31
0.0
  0
LINE
  5
547A
  8
2
 10
113.1928203230275
 20
133.1319772597756
 30
0.0
 11
113.19282032301579
 21
132.7513333787235
 31
0.0
  0
LINE
  5
547B
  8
2
 10
113.19282032301579
 20
132.7513333787235
 30
0.0
 11
112.7020725942163
 21
132.25
 31
0.0
  0
LINE
  5
547C
  8
2
 10
112.7020725942163
 20
132.25
 30
0.0
 11
112.7020725942143
 21
131.75
 31
0.0
  0
LINE
  5
547D
  8
2
 10
113.1928203230275
 20
131.2486666212765
 30
0.0
 11
113.19282032300811
 21
130.8680227402244
 31
0.0
  0
LINE
  5
547E
  8
2
 10
113.19282032300811
 20
130.8680227402244
 30
0.0
 11
112.7020725942163
 21
130.25312055626731
 31
0.0
  0
LINE
  5
547F
  8
2
 10
112.7020725942163
 20
130.25312055626731
 30
0.0
 11
112.7020725941839
 21
129.75777758324921
 31
0.0
  0
LINE
  5
5480
  8
2
 10
113.1928203230275
 20
129.3793519020457
 30
0.0
 11
113.19282032303541
 21
129.00579869629169
 31
0.0
  0
LINE
  5
5481
  8
2
 10
113.19282032303541
 20
129.00579869629169
 30
0.0
 11
112.7020725942163
 21
128.2887821713486
 31
0.0
  0
LINE
  5
5482
  8
2
 10
112.7020725942163
 20
128.2887821713486
 30
0.0
 11
112.7020725941836
 21
127.8073235276747
 31
0.0
  0
LINE
  5
5483
  8
2
 10
112.7020725941836
 20
127.8073235276747
 30
0.0
 11
113.1928203230275
 21
127.55885489842311
 31
0.0
  0
LINE
  5
5484
  8
2
 10
113.1928203230275
 20
127.55885489842311
 30
0.0
 11
113.1928203230169
 21
127.1993509574006
 31
0.0
  0
LINE
  5
5485
  8
2
 10
112.7020725942163
 20
126.3935767526839
 30
0.0
 11
112.7020725942355
 21
125.9349711019311
 31
0.0
  0
POLYLINE
  5
5486
  8
2
 66
     1
 10
0.0
 20
0.0
 30
0.0
  0
VERTEX
  5
596D
  8
2
 10
112.7829016319029
 20
125.9163921596073
 30
0.0
  0
VERTEX
  5
596E
  8
2
 10
112.71772142098909
 20
125.6108212990014
 30
0.0
  0
VERTEX
  5
596F
  8
2
 10
112.6616788817509
 20
125.3058927058392
 30
0.0
  0
VERTEX
  5
5970
  8
2
 10
112.6139754826193
 20
124.9952519364455
 30
0.0
  0
VERTEX
  5
5971
  8
2
 10
112.5766069086342
 20
124.68981008134629
 30
0.0
  0
VERTEX
  5
5972
  8
2
 10
112.5410496335648
 20
124.2559007951036
 30
0.0
  0
VERTEX
  5
5973
  8
2
 10
112.5288675134595
 20
123.8388285697911
 30
0.0
  0
SEQEND
  5
5974
  8
2
  0
LINE
  5
5487
  8
2
 10
112.5288675134595
 20
123.8388285697911
 30
0.0
 11
112.5288675134595
 21
119.4635739255594
 31
0.0
  0
POLYLINE
  5
5488
  8
2
 66
     1
 10
0.0
 20
0.0
 30
0.0
  0
VERTEX
  5
5975
  8
2
 10
112.5288675134595
 20
119.4635739255594
 30
0.0
  0
VERTEX
  5
5976
  8
2
 10
112.53402242122741
 20
119.3039642977088
 30
0.0
  0
VERTEX
  5
5977
  8
2
 10
112.549415986
 20
119.16582101173429
 30
0.0
  0
VERTEX
  5
5978
  8
2
 10
112.57589901420501
 20
119.0470080070305
 30
0.0
  0
VERTEX
  5
5979
  8
2
 10
112.6129442205724
 20
118.9525814794617
 30
0.0
  0
VERTEX
  5
597A
  8
2
 10
112.6588084955476
 20
118.884733901282
 30
0.0
  0
VERTEX
  5
597B
  8
2
 10
112.7141026069653
 20
118.84041480408671
 30
0.0
  0
VERTEX
  5
597C
  8
2
 10
112.7804187798191
 20
118.819386446175
 30
0.0
  0
VERTEX
  5
597D
  8
2
 10
112.8064629567985
 20
118.81780164376811
 30
0.0
  0
SEQEND
  5
597E
  8
2
  0
LINE
  5
5489
  8
2
 10
113.0022947341949
 20
118.8820944540219
 30
0.0
 11
112.7020725942163
 21
118.2816074825916
 31
0.0
  0
LINE
  5
548A
  8
2
 10
112.7020725942163
 20
118.2816074825916
 30
0.0
 11
112.7020725942033
 21
118.1141676765061
 31
0.0
  0
LINE
  5
548B
  8
2
 10
113.1928203230275
 20
118.764479377086
 30
0.0
 11
113.19282032298619
 21
118.6615429183734
 31
0.0
  0
LINE
  5
548C
  8
2
 10
113.19282032298619
 20
118.6615429183734
 30
0.0
 11
112.7020725942163
 21
117.7093707607341
 31
0.0
  0
LINE
  5
548D
  8
2
 10
112.7020725942163
 20
117.7093707607341
 30
0.0
 11
112.70207259422909
 21
117.6076427542078
 31
0.0
  0
LINE
  5
548E
  8
2
 10
112.70207259422909
 20
117.6076427542078
 30
0.0
 11
113.1928203230275
 21
118.3558163309565
 31
0.0
  0
LINE
  5
548F
  8
2
 10
113.1928203230275
 20
118.3558163309565
 30
0.0
 11
113.19282032299679
 21
118.30386421680559
 31
0.0
  0
LINE
  5
5490
  8
2
 10
113.19282032299679
 20
118.30386421680559
 30
0.0
 11
112.7020725942163
 21
117.40334142269531
 31
0.0
  0
LINE
  5
5491
  8
2
 10
112.7020725942163
 20
117.40334142269531
 30
0.0
 11
112.7020725942276
 21
117.36922021601291
 31
0.0
  0
LINE
  5
5492
  8
2
 10
112.7020725942276
 20
117.36922021601291
 30
0.0
 11
113.1928203230275
 21
118.2013186107945
 31
0.0
  0
LINE
  5
5493
  8
2
 10
113.1928203230275
 20
118.2013186107945
 30
0.0
 11
113.1928203230115
 21
118.19999999997231
 31
0.0
  0
LINE
  5
5494
  8
2
 10
113.1928203230073
 20
145.80000000003511
 30
0.0
 11
112.5
 21
147.0
 31
0.0
  0
LINE
  5
5495
  8
2
 10
112.5
 20
117.0
 30
0.0
 11
113.1928203230115
 21
118.19999999997231
 31
0.0
  0
LINE
  5
5496
  8
2
 10
113.1928203230073
 20
145.80000000003511
 30
0.0
 11
113.19282032301371
 21
145.7986813892054
 31
0.0
  0
LINE
  5
5497
  8
0
 10
112.5
 20
115.5
 30
0.0
 11
132.0
 21
115.5
 31
0.0
  0
LINE
  5
5498
  8
0
 10
132.0
 20
148.5
 30
0.0
 11
112.5
 21
148.5
 31
0.0
  0
LINE
  5
5499
  8
0
 10
132.0
 20
148.5
 30
0.0
 11
132.0
 21
115.5
 31
0.0
  0
LINE
  5
549A
  8
0
 10
112.5
 20
148.5
 30
0.0
 11
112.5
 21
115.5
 31
0.0
  0
LINE
  5
549D
  8
3
 10
139.19999999999999
 20
134.0095
 30
0.0
 11
132.0
 21
134.0095
 31
0.0
  0
LINE
  5
549F
  8
3
 10
139.19999999999999
 20
129.9905
 30
0.0
 11
132.0
 21
129.9905
 31
0.0
  0
LINE
  5
54A1
  8
1
 10
109.5
 20
132.0
 30
0.0
 11
142.19999999999999
 21
132.0
 31
0.0
  0
LINE
  5
54A2
  8
1
 10
124.0
 20
123.0
 30
0.0
 11
133.5
 21
123.0
 31
0.0
  0
LINE
  5
54A3
  8
1
 10
124.0
 20
141.0
 30
0.0
 11
133.5
 21
141.0
 31
0.0
  0
LINE
  5
54A4
  8
0
 10
41.0
 20
133.7320508075689
 30
0.0
 11
39.5
 21
132.86602540378439
 31
0.0
  0
LINE
  5
54A5
  8
0
 10
42.5
 20
132.86602540378439
 30
0.0
 11
41.0
 21
133.7320508075689
 31
0.0
  0
LINE
  5
54A6
  8
0
 10
42.5
 20
131.13397459621561
 30
0.0
 11
42.5
 21
132.86602540378439
 31
0.0
  0
LINE
  5
54A7
  8
0
 10
41.0
 20
130.2679491924311
 30
0.0
 11
42.5
 21
131.13397459621561
 31
0.0
  0
LINE
  5
54A8
  8
0
 10
39.5
 20
131.13397459621561
 30
0.0
 11
41.0
 21
130.2679491924311
 31
0.0
  0
LINE
  5
54A9
  8
0
 10
39.5
 20
131.13397459621561
 30
0.0
 11
39.5
 21
132.86602540378439
 31
0.0
  0
CIRCLE
  5
54AA
  8
0
 10
41.0
 20
132.0
 30
0.0
 40
4.2499999999999982
  0
CIRCLE
  5
54AC
  8
0
 10
59.0
 20
132.0
 30
0.0
 40
4.25
  0
LINE
  5
54AE
  8
0
 10
59.0
 20
133.7320508075689
 30
0.0
 11
57.5
 21
132.86602540378439
 31
0.0
  0
LINE
  5
54AF
  8
0
 10
60.5
 20
132.86602540378439
 30
0.0
 11
59.0
 21
133.7320508075689
 31
0.0
  0
LINE
  5
54B0
  8
0
 10
60.5
 20
131.13397459621561
 30
0.0
 11
60.5
 21
132.86602540378439
 31
0.0
  0
LINE
  5
54B1
  8
0
 10
59.0
 20
130.2679491924311
 30
0.0
 11
60.5
 21
131.13397459621561
 31
0.0
  0
LINE
  5
54B2
  8
0
 10
57.5
 20
131.13397459621561
 30
0.0
 11
59.0
 21
130.2679491924311
 31
0.0
  0
LINE
  5
54B3
  8
0
 10
57.5
 20
131.13397459621561
 30
0.0
 11
57.5
 21
132.86602540378439
 31
0.0
  0
CIRCLE
  5
54B5
  8
0
 10
59.0
 20
132.0
 30
0.0
 40
4.5
  0
CIRCLE
  5
54B6
  8
0
 10
50.0
 20
141.0
 30
0.0
 40
2.4999999999999978
  0
CIRCLE
  5
54B7
  8
0
 10
41.0
 20
132.0
 30
0.0
 40
4.4999999999999991
  0
CIRCLE
  5
54B8
  8
0
 10
50.0
 20
132.0
 30
0.0
 40
3.1000000000000001
  0
CIRCLE
  5
54B9
  8
0
 10
50.0
 20
123.0
 30
0.0
 40
2.5
  0
CIRCLE
  5
54BA
  8
0
 10
50.0
 20
132.0
 30
0.0
 40
13.6
  0
LINE
  5
54BB
  8
0
 10
49.809233338354908
 20
118.2013186107945
 30
0.0
 11
49.249811415392372
 21
117.36922021601291
 31
0.0
  0
ARC
  5
54BC
  8
0
 10
50.000000004712973
 20
132.00000006122301
 30
0.0
 40
14.65000006138407
 50
265.10916538524782
 51
267.06474765413378
  0
LINE
  5
54BD
  8
0
 10
48.75097703079863
 20
117.4033414227131
 30
0.0
 11
48.31006964394922
 21
118.30386421680559
 31
0.0
  0
ARC
  5
54BE
  8
0
 10
49.999999983059347
 20
131.99999987674761
 30
0.0
 40
13.79999987560077
 50
261.38184979522708
 51
262.96597629173039
  0
LINE
  5
54BF
  8
0
 10
47.932089942621083
 20
118.3558163309566
 30
0.0
 11
47.264574455501702
 21
117.6076427542078
 31
0.0
  0
ARC
  5
54C0
  8
0
 10
50.000000124028958
 20
132.00000059685979
 30
0.0
 40
14.65000060952163
 50
257.2830784673622
 51
259.23866066307312
  0
LINE
  5
54C1
  8
0
 10
46.775032411660533
 20
117.7093707607341
 30
0.0
 11
46.46085283131557
 21
118.6615429183734
 31
0.0
  0
ARC
  5
54C2
  8
0
 10
49.999999990259937
 20
131.99999996523709
 30
0.0
 40
13.799999963901801
 50
253.5557628437744
 51
255.13988933014011
  0
LINE
  5
54C3
  8
0
 10
46.093467798620139
 20
118.764479377086
 30
0.0
 11
45.330293297881148
 21
118.1141676765061
 31
0.0
  0
ARC
  5
54C4
  8
0
 10
49.999999952991857
 20
131.9999998677317
 30
0.0
 40
14.64999985964711
 50
249.4569914607869
 51
251.4125737566045
  0
LINE
  5
54C5
  8
0
 10
44.859162836821717
 20
118.2816074825916
 30
0.0
 11
44.748575994380452
 21
118.8820944540219
 31
0.0
  0
POLYLINE
  5
54C6
  8
0
 66
     1
 10
0.0
 20
0.0
 30
0.0
  0
VERTEX
  5
597F
  8
0
 10
44.748575994380452
 20
118.8820944540219
 30
0.0
  0
VERTEX
  5
5980
  8
0
 10
44.440549779831173
 20
118.8385071007196
 30
0.0
  0
VERTEX
  5
5981
  8
0
 10
44.127686772031602
 20
118.8188922293416
 30
0.0
  0
VERTEX
  5
5982
  8
0
 10
43.803209856723242
 20
118.8245082279997
 30
0.0
  0
VERTEX
  5
5983
  8
0
 10
43.478112403483628
 20
118.856656604975
 30
0.0
  0
VERTEX
  5
5984
  8
0
 10
43.163285015265949
 20
118.9138108199239
 30
0.0
  0
VERTEX
  5
5985
  8
0
 10
42.852551259107081
 20
118.9963489083535
 30
0.0
  0
VERTEX
  5
5986
  8
0
 10
42.53887661400784
 20
119.1078837230105
 30
0.0
  0
VERTEX
  5
5987
  8
0
 10
42.234701595105257
 20
119.2454784630466
 30
0.0
  0
VERTEX
  5
5988
  8
0
 10
41.85503092209148
 20
119.4635739255594
 30
0.0
  0
SEQEND
  5
5989
  8
0
  0
ARC
  5
54C7
  8
0
 10
50.000000000000277
 20
132.00000000000031
 30
0.0
 40
14.950000000000371
 50
213.08603714187271
 51
236.9880470550068
  0
POLYLINE
  5
54C8
  8
0
 66
     1
 10
0.0
 20
0.0
 30
0.0
  0
VERTEX
  5
598A
  8
0
 10
37.47411595454156
 20
123.8388279714413
 30
0.0
  0
VERTEX
  5
598B
  8
0
 10
37.313880957941649
 20
124.1071727774693
 30
0.0
  0
VERTEX
  5
598C
  8
0
 10
37.175179538054977
 20
124.3868787187655
 30
0.0
  0
VERTEX
  5
598D
  8
0
 10
37.055857836977367
 20
124.68473189742249
 30
0.0
  0
VERTEX
  5
598E
  8
0
 10
36.961012405074541
 20
124.9901604437438
 30
0.0
  0
VERTEX
  5
598F
  8
0
 10
36.867031958773197
 20
125.4476591521799
 30
0.0
  0
VERTEX
  5
5990
  8
0
 10
36.826928389919317
 20
125.9163921596073
 30
0.0
  0
SEQEND
  5
5991
  8
0
  0
LINE
  5
54C9
  8
0
 10
36.826928389919317
 20
125.9163921596073
 30
0.0
 11
36.664411356614607
 21
125.9349711019311
 31
0.0
  0
ARC
  5
54CA
  8
0
 10
50.000000129673822
 20
132.00000005632529
 30
0.0
 40
14.6500001413578
 50
202.50046974046001
 51
204.4560519986714
  0
LINE
  5
54CB
  8
0
 10
36.465210811691463
 20
126.3935767526839
 30
0.0
 11
37.061925615850328
 21
127.1993509574006
 31
0.0
  0
ARC
  5
54CC
  8
0
 10
50.000000315568847
 20
132.00000011215329
 30
0.0
 40
13.80000033487404
 50
198.77315416941579
 51
200.35728061319321
  0
LINE
  5
54CD
  8
0
 10
36.934157884516587
 20
127.55885489842311
 30
0.0
 11
35.962765087154452
 21
127.8073235276747
 31
0.0
  0
ARC
  5
54CE
  8
0
 10
49.999999780456328
 20
131.99999993848661
 30
0.0
 40
14.6499997720347
 50
194.67438275928509
 51
196.62996506680051
  0
LINE
  5
54CF
  8
0
 10
35.827866701575942
 20
128.2887821713486
 30
0.0
 11
36.52874324523242
 21
129.00579869629161
 31
0.0
  0
ARC
  5
54D0
  8
0
 10
49.999999670950437
 20
131.9999999316226
 30
0.0
 40
13.79999966395313
 50
190.9470671743826
 51
192.53119369518251
  0
LINE
  5
54D1
  8
0
 10
36.451117996429048
 20
129.3793519020457
 30
0.0
 11
35.522605944652192
 21
129.75777758324921
 31
0.0
  0
ARC
  5
54D2
  8
0
 10
49.99999949064172
 20
131.99999992999031
 30
0.0
 40
14.6499994859278
 50
186.8482957836664
 51
188.8038781293773
  0
LINE
  5
54D3
  8
0
 10
35.454522620104058
 20
130.25312055626731
 30
0.0
 11
36.246504899359202
 21
130.8680227402244
 31
0.0
  0
ARC
  5
54D4
  8
0
 10
49.99999889332662
 20
131.99999992430159
 30
0.0
 40
13.799998890846689
 50
183.12098017348569
 51
184.70510678303711
  0
LINE
  5
54D5
  8
0
 10
36.220468144598811
 20
131.2486666212765
 30
0.0
 11
35.352133261119548
 21
131.75
 31
0.0
  0
ARC
  5
54D6
  8
0
 10
50.000000290665021
 20
132.0
 30
0.0
 40
14.650000290622669
 50
179.0222088808577
 51
180.97779111914221
  0
LINE
  5
54D7
  8
0
 10
35.352133261119548
 20
132.25
 30
0.0
 11
36.220468144598811
 21
132.75133337872339
 31
0.0
  0
ARC
  5
54D8
  8
0
 10
49.999999865063067
 20
132.00000000923001
 30
0.0
 40
13.7999998647607
 50
175.29489327286601
 51
176.87901977061281
  0
LINE
  5
54D9
  8
0
 10
36.246504899359202
 20
133.1319772597756
 30
0.0
 11
35.454522620104058
 21
133.74687944373261
 31
0.0
  0
ARC
  5
54DA
  8
0
 10
49.999999599574863
 20
132.00000005503711
 30
0.0
 40
14.64999959586908
 50
171.1961218779611
 51
173.15170420899469
  0
LINE
  5
54DB
  8
0
 10
35.522605944652192
 20
134.24222241675079
 30
0.0
 11
36.451117996429048
 21
134.6206480979543
 31
0.0
  0
ARC
  5
54DC
  8
0
 10
49.99999943215041
 20
132.00000011800049
 30
0.0
 40
13.799999420075009
 50
167.468806290819
 51
169.05293283961561
  0
LINE
  5
54DD
  8
0
 10
36.52874324523242
 20
134.99420130370831
 30
0.0
 11
35.827866701575942
 21
135.71121782865129
 31
0.0
  0
ARC
  5
54DE
  8
0
 10
49.999999956939398
 20
132.00000001206499
 30
0.0
 40
14.64999995528761
 50
163.3700349454306
 51
165.32561722848189
  0
LINE
  5
54DF
  8
0
 10
35.962765087154452
 20
136.19267647232519
 30
0.0
 11
36.934157884516587
 21
136.44114510157689
 31
0.0
  0
ARC
  5
54E0
  8
0
 10
50.000001478871177
 20
131.99999947440909
 30
0.0
 40
13.800001569342241
 50
159.64271945766481
 51
161.2268457597269
  0
LINE
  5
54E1
  8
0
 10
37.061925615850328
 20
136.80064904259939
 30
0.0
 11
36.465210811691463
 21
137.60642324731609
 31
0.0
  0
ARC
  5
54E2
  8
0
 10
49.999999696620343
 20
132.0000001317764
 30
0.0
 40
14.64999966928505
 50
155.54394796981779
 51
157.4995302910516
  0
LINE
  5
54E3
  8
0
 10
36.664411356614607
 20
138.0650288980689
 30
0.0
 11
36.826928389919352
 21
138.08360784039269
 31
0.0
  0
POLYLINE
  5
54E4
  8
0
 66
     1
 10
0.0
 20
0.0
 30
0.0
  0
VERTEX
  5
5992
  8
0
 10
36.826928389919352
 20
138.08360784039269
 30
0.0
  0
VERTEX
  5
5993
  8
0
 10
36.890222481081018
 20
138.6941072920699
 30
0.0
  0
VERTEX
  5
5994
  8
0
 10
36.95968307700889
 20
139.00474806036729
 30
0.0
  0
VERTEX
  5
5995
  8
0
 10
37.054030839360507
 20
139.31018991443219
 30
0.0
  0
VERTEX
  5
5996
  8
0
 10
37.236733210104042
 20
139.74409936748441
 30
0.0
  0
VERTEX
  5
5997
  8
0
 10
37.474115770478591
 20
140.1611717460562
 30
0.0
  0
SEQEND
  5
5998
  8
0
  0
ARC
  5
54E5
  8
0
 10
50.00000000000415
 20
131.99999999999579
 30
0.0
 40
14.950000000005719
 50
123.011952944999
 51
146.91396415034319
  0
POLYLINE
  5
54E6
  8
0
 66
     1
 10
0.0
 20
0.0
 30
0.0
  0
VERTEX
  5
5999
  8
0
 10
41.855030922091522
 20
144.53642607444061
 30
0.0
  0
VERTEX
  5
599A
  8
0
 10
42.123070657544751
 20
144.69603570229111
 30
0.0
  0
VERTEX
  5
599B
  8
0
 10
42.402405277824272
 20
144.83417898826571
 30
0.0
  0
VERTEX
  5
599C
  8
0
 10
42.699783335917367
 20
144.95299199296949
 30
0.0
  0
VERTEX
  5
599D
  8
0
 10
43.004688335233823
 20
145.04741852053829
 30
0.0
  0
VERTEX
  5
599E
  8
0
 10
43.609558743598022
 20
145.15958519591319
 30
0.0
  0
VERTEX
  5
599F
  8
0
 10
43.92248821074935
 20
145.180613553825
 30
0.0
  0
VERTEX
  5
59A0
  8
0
 10
44.234030257634338
 20
145.17720807136129
 30
0.0
  0
VERTEX
  5
59A1
  8
0
 10
44.748575994380467
 20
145.11790554597809
 30
0.0
  0
SEQEND
  5
59A2
  8
0
  0
LINE
  5
54E7
  8
0
 10
44.748575994380467
 20
145.11790554597809
 30
0.0
 11
44.859162836821717
 21
145.71839251740829
 31
0.0
  0
ARC
  5
54E8
  8
0
 10
49.999999923924122
 20
132.00000021405739
 30
0.0
 40
14.649999772858861
 50
108.5874262376021
 51
110.5430085450074
  0
LINE
  5
54E9
  8
0
 10
45.330293297881148
 20
145.88583232349379
 30
0.0
 11
46.093467798620168
 21
145.23552062291401
 31
0.0
  0
ARC
  5
54EA
  8
0
 10
49.999999801191699
 20
132.00000070955619
 30
0.0
 40
13.79999926318863
 50
104.8601106296406
 51
106.44423719644691
  0
LINE
  5
54EB
  8
0
 10
46.460852831315542
 20
145.3384570816265
 30
0.0
 11
46.775032411660533
 21
146.2906292392658
 31
0.0
  0
ARC
  5
54EC
  8
0
 10
49.999999976197522
 20
132.0000001145437
 30
0.0
 40
14.649999883026309
 50
100.761339288434
 51
102.7169215811321
  0
LINE
  5
54ED
  8
0
 10
47.264574455501702
 20
146.3923572457922
 30
0.0
 11
47.932089942621083
 21
145.6441836690434
 31
0.0
  0
ARC
  5
54EE
  8
0
 10
49.999999865576058
 20
132.000000978006
 30
0.0
 40
13.79999901289345
 50
97.034023658750456
 51
98.618150254291237
  0
LINE
  5
54EF
  8
0
 10
48.31006964394922
 20
145.69613578319439
 30
0.0
 11
48.75097703079706
 21
146.59665857730471
 31
0.0
  0
ARC
  5
54F0
  8
0
 10
49.999999986740413
 20
132.00000019384811
 30
0.0
 40
14.649999805727161
 50
92.935252326752533
 51
94.890834629769003
  0
LINE
  5
54F1
  8
0
 10
49.249811415392337
 20
146.63077978398701
 30
0.0
 11
49.809233338354879
 21
145.7986813892054
 31
0.0
  0
ARC
  5
54F2
  8
0
 10
50.0
 20
132.00000036712501
 30
0.0
 40
13.79999963291012
 50
89.207936737818144
 51
90.792063262181841
  0
LINE
  5
54F3
  8
0
 10
50.190766661645121
 20
145.7986813892054
 30
0.0
 11
50.750188584607621
 21
146.63077978398701
 31
0.0
  0
ARC
  5
54F4
  8
0
 10
49.999999997166867
 20
131.999999958579
 30
0.0
 40
14.650000041511699
 50
85.109165385970243
 51
87.064747657509074
  0
LINE
  5
54F5
  8
0
 10
51.249022969202912
 20
146.59665857730471
 30
0.0
 11
51.68993035605078
 21
145.69613578319439
 31
0.0
  0
ARC
  5
54F6
  8
0
 10
49.999999986352861
 20
131.99999990070989
 30
0.0
 40
13.800000100213969
 50
81.38184980812008
 51
82.96597627883709
  0
LINE
  5
54F7
  8
0
 10
52.067910057378917
 20
145.6441836690434
 30
0.0
 11
52.735425544498291
 21
146.3923572457922
 31
0.0
  0
ARC
  5
54F8
  8
0
 10
49.999999912034802
 20
131.99999957668811
 30
0.0
 40
14.650000432292019
 50
77.283078455531111
 51
79.238660674903343
  0
LINE
  5
54F9
  8
0
 10
53.22496758833946
 20
146.2906292392658
 30
0.0
 11
53.539147168684451
 21
145.3384570816265
 31
0.0
  0
ARC
  5
54FA
  8
0
 10
49.999999937337321
 20
131.99999977635389
 30
0.0
 40
13.800000232236689
 50
73.555762859176099
 51
75.139889314737644
  0
LINE
  5
54FB
  8
0
 10
53.906532201379832
 20
145.23552062291401
 30
0.0
 11
54.669706702118837
 21
145.88583232349379
 31
0.0
  0
ARC
  5
54FC
  8
0
 10
50.000000093778702
 20
132.00000026386809
 30
0.0
 40
14.64999972000361
 50
69.456991451463949
 51
71.412573765926751
  0
LINE
  5
54FD
  8
0
 10
55.140837163178269
 20
145.71839251740829
 30
0.0
 11
55.251424005619533
 21
145.11790554597809
 31
0.0
  0
POLYLINE
  5
54FE
  8
0
 66
     1
 10
0.0
 20
0.0
 30
0.0
  0
VERTEX
  5
59A3
  8
0
 10
55.251424005619533
 20
145.11790554597809
 30
0.0
  0
VERTEX
  5
59A4
  8
0
 10
55.559450220168799
 20
145.1614928992804
 30
0.0
  0
VERTEX
  5
59A5
  8
0
 10
55.872313227968391
 20
145.18110777065829
 30
0.0
  0
VERTEX
  5
59A6
  8
0
 10
56.196790143276758
 20
145.1754917720003
 30
0.0
  0
VERTEX
  5
59A7
  8
0
 10
56.521887596516358
 20
145.143343395025
 30
0.0
  0
VERTEX
  5
59A8
  8
0
 10
56.836714984734051
 20
145.08618918007599
 30
0.0
  0
VERTEX
  5
59A9
  8
0
 10
57.147448740892912
 20
145.0036510916465
 30
0.0
  0
VERTEX
  5
59AA
  8
0
 10
57.461123385992153
 20
144.8921162769895
 30
0.0
  0
VERTEX
  5
59AB
  8
0
 10
57.765298404894729
 20
144.75452153695329
 30
0.0
  0
VERTEX
  5
59AC
  8
0
 10
58.144969322768702
 20
144.5364259153539
 30
0.0
  0
SEQEND
  5
59AD
  8
0
  0
ARC
  5
54FF
  8
0
 10
49.999999999995282
 20
131.9999999999952
 30
0.0
 40
14.95000000000652
 50
33.086035849657399
 51
56.988045935905689
  0
POLYLINE
  5
5500
  8
0
 66
     1
 10
0.0
 20
0.0
 30
0.0
  0
VERTEX
  5
59AE
  8
0
 10
62.525884229521409
 20
140.1611717460562
 30
0.0
  0
VERTEX
  5
59AF
  8
0
 10
62.686119203967252
 20
139.89282692566729
 30
0.0
  0
VERTEX
  5
59B0
  8
0
 10
62.824820600457173
 20
139.6131209720908
 30
0.0
  0
VERTEX
  5
59B1
  8
0
 10
62.944142276384689
 20
139.31526778311931
 30
0.0
  0
VERTEX
  5
59B2
  8
0
 10
63.038987682368798
 20
139.0098392288908
 30
0.0
  0
VERTEX
  5
59B3
  8
0
 10
63.132968065967219
 20
138.55234067742759
 30
0.0
  0
VERTEX
  5
59B4
  8
0
 10
63.173071610080648
 20
138.08360784039269
 30
0.0
  0
SEQEND
  5
59B5
  8
0
  0
LINE
  5
5501
  8
0
 10
63.173071610080648
 20
138.08360784039269
 30
0.0
 11
63.335588643385393
 21
138.0650288980689
 31
0.0
  0
ARC
  5
5502
  8
0
 10
49.999999777936857
 20
131.99999990354439
 30
0.0
 40
14.6500002420716
 50
22.500469747181789
 51
24.456051991948652
  0
LINE
  5
5503
  8
0
 10
63.534789188308537
 20
137.60642324731609
 30
0.0
 11
62.938074384149672
 21
136.8006490425993
 31
0.0
  0
ARC
  5
5504
  8
0
 10
49.999999472412412
 20
131.9999998124953
 30
0.0
 40
13.80000055986317
 50
18.7731541823299
 51
20.35728060027996
  0
LINE
  5
5505
  8
0
 10
63.065842115483399
 20
136.44114510157689
 30
0.0
 11
64.037234912845548
 21
136.19267647232519
 31
0.0
  0
ARC
  5
5506
  8
0
 10
49.99999971303464
 20
131.99999991959609
 30
0.0
 40
14.650000297973209
 50
14.674382794392161
 51
16.629965031694979
  0
LINE
  5
5507
  8
0
 10
64.172133298424058
 20
135.71121782865129
 30
0.0
 11
63.47125675476758
 21
134.99420130370831
 31
0.0
  0
ARC
  5
5508
  8
0
 10
49.999999398139948
 20
131.99999987493189
 30
0.0
 40
13.800000614658691
 50
10.94706722895314
 51
12.531193640612781
  0
LINE
  5
5509
  8
0
 10
63.548882003570952
 20
134.6206480979543
 30
0.0
 11
64.477394055347816
 21
134.24222241675079
 31
0.0
  0
ARC
  5
550A
  8
0
 10
50.000000360001529
 20
132.000000049481
 30
0.0
 40
14.64999963666677
 50
6.848295793728397
 51
8.8038781193153817
  0
LINE
  5
550B
  8
0
 10
64.545477379895942
 20
133.74687944373261
 30
0.0
 11
63.753495100640798
 21
133.1319772597756
 31
0.0
  0
ARC
  5
550C
  8
0
 10
49.999999718698398
 20
131.99999998075839
 30
0.0
 40
13.80000028193195
 50
3.1209802533327302
 51
4.7051067031888927
  0
LINE
  5
550D
  8
0
 10
63.779531855401189
 20
132.7513333787235
 30
0.0
 11
64.647866738880452
 21
132.25
 31
0.0
  0
ARC
  5
550E
  8
0
 10
49.999999719411051
 20
132.0
 30
0.0
 40
14.65000028054809
 50
359.02220888018547
 51
0.9777911198144881
  0
LINE
  5
550F
  8
0
 10
64.647866738880452
 20
131.75
 30
0.0
 11
63.779531855401189
 21
131.2486666212765
 31
0.0
  0
ARC
  5
5510
  8
0
 10
50.000000275461957
 20
131.99999998115791
 30
0.0
 40
13.799999723920759
 50
355.29489326478159
 51
356.87901977869649
  0
LINE
  5
5511
  8
0
 10
63.753495100640798
 20
130.8680227402244
 30
0.0
 11
64.545477379895942
 21
130.25312055626731
 31
0.0
  0
ARC
  5
5512
  8
0
 10
50.000000063378359
 20
131.99999999128889
 30
0.0
 40
14.649999936035091
 50
351.19612190066732
 51
353.15170418628861
  0
LINE
  5
5513
  8
0
 10
64.477394055347816
 20
129.75777758324921
 30
0.0
 11
63.548882003570952
 21
129.3793519020457
 31
0.0
  0
ARC
  5
5514
  8
0
 10
49.999999456341072
 20
132.00000011297351
 30
0.0
 40
13.800000555219899
 50
347.46880635597643
 51
349.05293277445912
  0
LINE
  5
5515
  8
0
 10
63.47125675476758
 20
129.00579869629169
 30
0.0
 11
64.172133298424058
 21
128.2887821713486
 31
0.0
  0
ARC
  5
5516
  8
0
 10
50.000000484164133
 20
131.99999986434361
 30
0.0
 40
14.64999949726352
 50
343.3700349148578
 51
345.32561725905538
  0
LINE
  5
5517
  8
0
 10
64.037234912845548
 20
127.8073235276747
 30
0.0
 11
63.065842115483399
 21
127.55885489842311
 31
0.0
  0
ARC
  5
5518
  8
0
 10
49.999999767343979
 20
132.000000082686
 30
0.0
 40
13.80000024688896
 50
339.64271938175619
 51
341.22684583563438
  0
LINE
  5
5519
  8
0
 10
62.938074384149672
 20
127.1993509574006
 30
0.0
 11
63.534789188308537
 21
126.3935767526839
 31
0.0
  0
ARC
  5
551A
  8
0
 10
50.000000723442888
 20
131.99999968576429
 30
0.0
 40
14.64999921137303
 50
335.54394793925309
 51
337.49953032161721
  0
LINE
  5
551B
  8
0
 10
63.335588643385393
 20
125.9349711019311
 30
0.0
 11
63.173071610080648
 21
125.9163921596073
 31
0.0
  0
POLYLINE
  5
551C
  8
0
 66
     1
 10
0.0
 20
0.0
 30
0.0
  0
VERTEX
  5
59B6
  8
0
 10
63.173071610080648
 20
125.9163921596073
 30
0.0
  0
VERTEX
  5
59B7
  8
0
 10
63.109777518538259
 20
125.3058927058392
 30
0.0
  0
VERTEX
  5
59B8
  8
0
 10
63.040316922143909
 20
124.9952519364455
 30
0.0
  0
VERTEX
  5
59B9
  8
0
 10
62.945969159147921
 20
124.68981008134629
 30
0.0
  0
VERTEX
  5
59BA
  8
0
 10
62.763266869927072
 20
124.2559007951036
 30
0.0
  0
VERTEX
  5
59BB
  8
0
 10
62.525884435310068
 20
123.8388285697911
 30
0.0
  0
SEQEND
  5
59BC
  8
0
  0
ARC
  5
551D
  8
0
 10
49.999999999998117
 20
132.00000000000179
 30
0.0
 40
14.950000000002619
 50
303.01195294499519
 51
326.91396559509133
  0
POLYLINE
  5
551E
  8
0
 66
     1
 10
0.0
 20
0.0
 30
0.0
  0
VERTEX
  5
59BD
  8
0
 10
58.144969077908513
 20
119.4635739255594
 30
0.0
  0
VERTEX
  5
59BE
  8
0
 10
57.876929342455263
 20
119.3039642977088
 30
0.0
  0
VERTEX
  5
59BF
  8
0
 10
57.597594722175728
 20
119.16582101173429
 30
0.0
  0
VERTEX
  5
59C0
  8
0
 10
57.300216664082619
 20
119.0470080070305
 30
0.0
  0
VERTEX
  5
59C1
  8
0
 10
56.99531166476617
 20
118.9525814794617
 30
0.0
  0
VERTEX
  5
59C2
  8
0
 10
56.390441256401999
 20
118.84041480408671
 30
0.0
  0
VERTEX
  5
59C3
  8
0
 10
56.07751178925065
 20
118.819386446175
 30
0.0
  0
VERTEX
  5
59C4
  8
0
 10
55.765969742365648
 20
118.82279192863869
 30
0.0
  0
VERTEX
  5
59C5
  8
0
 10
55.251424005619548
 20
118.8820944540219
 30
0.0
  0
SEQEND
  5
59C6
  8
0
  0
LINE
  5
551F
  8
0
 10
55.251424005619548
 20
118.8820944540219
 30
0.0
 11
55.14083716317824
 21
118.2816074825916
 31
0.0
  0
ARC
  5
5520
  8
0
 10
50.000000016906263
 20
131.9999999524305
 30
0.0
 40
14.64999994952289
 50
288.58742624939322
 51
290.54300853321519
  0
LINE
  5
5521
  8
0
 10
54.669706702118837
 20
118.1141676765061
 30
0.0
 11
53.906532201379861
 21
118.764479377086
 31
0.0
  0
ARC
  5
5522
  8
0
 10
50.000000307417871
 20
131.99999890281131
 30
0.0
 40
13.799998860666539
 50
284.86011060653539
 51
286.44423721955189
  0
LINE
  5
5523
  8
0
 10
53.539147168684423
 20
118.6615429183734
 30
0.0
 11
53.22496758833946
 21
117.7093707607341
 31
0.0
  0
ARC
  5
5524
  8
0
 10
49.999999955058847
 20
132.00000021626849
 30
0.0
 40
14.65000022085643
 50
280.76133931098389
 51
282.71692155858187
  0
LINE
  5
5525
  8
0
 10
52.735425544498291
 20
117.6076427542078
 30
0.0
 11
52.067910057378917
 21
118.3558163309566
 31
0.0
  0
ARC
  5
5526
  8
0
 10
49.99999996717694
 20
132.00000023880531
 30
0.0
 40
13.800000241027471
 50
277.03402372924552
 51
278.61815018379792
  0
LINE
  5
5527
  8
0
 10
51.689930356050752
 20
118.30386421680559
 30
0.0
 11
51.249022969202912
 21
117.40334142269531
 31
0.0
  0
ARC
  5
5528
  8
0
 10
49.999999994866577
 20
132.00000007504809
 30
0.0
 40
14.650000075212549
 50
272.93525234473952
 51
274.89083461178092
  0
LINE
  5
5529
  8
0
 10
50.750188584607649
 20
117.36922021601291
 30
0.0
 11
50.190766661645078
 21
118.2013186107945
 31
0.0
  0
ARC
  5
552A
  8
0
 10
49.999999999999943
 20
131.99999971023729
 30
0.0
 40
13.79999971026499
 50
269.20793674225928
 51
270.79206325774072
  0
CIRCLE
  5
552B
  8
0
 10
50.0
 20
132.0
 30
0.0
 40
16.5
  0
CIRCLE
  5
552C
  8
0
 10
50.0
 20
132.0
 30
0.0
 40
15.0
  0
LINE
  5
5530
  8
1
 10
59.0
 20
126.25
 30
0.0
 11
59.0
 21
137.75
 31
0.0
  0
LINE
  5
5531
  8
1
 10
54.0
 20
141.0
 30
0.0
 11
46.0
 21
141.0
 31
0.0
  0
LINE
  5
5532
  8
1
 10
41.0
 20
126.25
 30
0.0
 11
41.0
 21
137.75
 31
0.0
  0
LINE
  5
5533
  8
1
 10
54.0
 20
123.0
 30
0.0
 11
46.0
 21
123.0
 31
0.0
  0
LINE
  5
5534
  8
1
 10
50.0
 20
112.5
 30
0.0
 11
50.0
 21
151.5
 31
0.0
  0
LINE
  5
5536
  8
2
 10
64.647866738880452
 20
66.0
 30
0.0
 11
64.647866738880452
 21
69.297927405766444
 31
0.0
  0
LINE
  5
5537
  8
2
 10
64.650000000000006
 20
66.0
 30
0.0
 11
64.650000000000006
 21
69.297927405783625
 31
0.0
  0
LINE
  5
5538
  8
2
 10
35.352133261119548
 20
66.0
 30
0.0
 11
35.352133261119548
 21
69.297927405783625
 31
0.0
  0
LINE
  5
5539
  8
2
 10
35.350000000000001
 20
69.297927405783625
 30
0.0
 11
35.350000000000001
 21
66.0
 31
0.0
  0
LINE
  5
553A
  8
2
 10
63.779531855401189
 20
66.0
 30
0.0
 11
63.779531855401189
 21
68.807179676972453
 31
0.0
  0
LINE
  5
553B
  8
2
 10
36.220468144598811
 20
66.0
 30
0.0
 11
36.220468144598811
 21
68.807179676984248
 31
0.0
  0
LINE
  5
5544
  8
2
 10
64.545477379895942
 20
66.0
 30
0.0
 11
64.545477379895942
 21
69.297927405783625
 31
0.0
  0
LINE
  5
5545
  8
2
 10
63.753495100640798
 20
66.0
 30
0.0
 11
63.753495100640798
 21
68.807179677005536
 31
0.0
  0
LINE
  5
5546
  8
2
 10
35.454522620104058
 20
66.0
 30
0.0
 11
35.454522620104058
 21
69.2979274058155
 31
0.0
  0
LINE
  5
5547
  8
2
 10
36.246504899359202
 20
66.0
 30
0.0
 11
36.246504899359202
 21
68.807179676972453
 31
0.0
  0
LINE
  5
5548
  8
2
 10
64.477394055347816
 20
66.0
 30
0.0
 11
64.477394055347816
 21
69.297927405856598
 31
0.0
  0
LINE
  5
5549
  8
2
 10
35.522605944652192
 20
66.0
 30
0.0
 11
35.522605944652192
 21
69.297927405783625
 31
0.0
  0
LINE
  5
554C
  8
0
 10
61.009500000000003
 20
42.799999999999997
 30
0.0
 11
56.99049999999999
 21
42.799999999999997
 31
0.0
  0
LINE
  5
554D
  8
0
 10
61.009500000000003
 20
42.799999999999997
 30
0.0
 11
61.5
 21
43.290500000000002
 31
0.0
  0
LINE
  5
554E
  8
0
 10
56.5
 20
43.290500000000002
 30
0.0
 11
56.99049999999999
 21
42.799999999999997
 31
0.0
  0
LINE
  5
554F
  8
0
 10
61.5
 20
43.290500000000002
 30
0.0
 11
56.5
 21
43.290500000000002
 31
0.0
  0
LINE
  5
5550
  8
0
 10
56.5
 20
50.0
 30
0.0
 11
56.5
 21
43.290500000000002
 31
0.0
  0
LINE
  5
5551
  8
2
 10
56.5
 20
52.799999999999997
 30
0.0
 11
56.5
 21
50.0
 31
0.0
  0
LINE
  5
5552
  8
2
 10
61.5
 20
50.0
 30
0.0
 11
61.5
 21
52.799999999999997
 31
0.0
  0
LINE
  5
5553
  8
0
 10
61.5
 20
43.290500000000002
 30
0.0
 11
61.5
 21
50.0
 31
0.0
  0
LINE
  5
5554
  8
0
 10
43.009500000000003
 20
42.799999999999997
 30
0.0
 11
38.990499999999997
 21
42.799999999999997
 31
0.0
  0
LINE
  5
5555
  8
0
 10
43.009500000000003
 20
42.799999999999997
 30
0.0
 11
43.5
 21
43.290500000000002
 31
0.0
  0
LINE
  5
5556
  8
0
 10
38.5
 20
43.290500000000002
 30
0.0
 11
38.990499999999997
 21
42.799999999999997
 31
0.0
  0
LINE
  5
5557
  8
0
 10
43.5
 20
43.290500000000002
 30
0.0
 11
38.5
 21
43.290500000000002
 31
0.0
  0
LINE
  5
5558
  8
0
 10
38.5
 20
50.0
 30
0.0
 11
38.5
 21
43.290500000000002
 31
0.0
  0
LINE
  5
5559
  8
2
 10
38.5
 20
52.799999999999997
 30
0.0
 11
38.5
 21
50.0
 31
0.0
  0
LINE
  5
555A
  8
2
 10
43.5
 20
50.0
 30
0.0
 11
43.5
 21
52.799999999999997
 31
0.0
  0
LINE
  5
555B
  8
0
 10
43.5
 20
43.290500000000002
 30
0.0
 11
43.5
 21
50.0
 31
0.0
  0
LINE
  5
555C
  8
2
 10
56.399999999999999
 20
52.799999999999997
 30
0.0
 11
56.399999999999999
 21
50.0
 31
0.0
  0
LINE
  5
555D
  8
2
 10
61.600000000000001
 20
50.0
 30
0.0
 11
61.600000000000001
 21
52.799999999999997
 31
0.0
  0
LINE
  5
555E
  8
2
 10
38.399999999999977
 20
52.799999999999997
 30
0.0
 11
38.399999999999977
 21
50.0
 31
0.0
  0
LINE
  5
555F
  8
2
 10
43.599999999999987
 20
50.0
 30
0.0
 11
43.599999999999987
 21
52.799999999999997
 31
0.0
  0
LINE
  5
5560
  8
2
 10
63.548882003570952
 20
66.0
 30
0.0
 11
63.548882003570952
 21
68.807179676972453
 31
0.0
  0
LINE
  5
5561
  8
2
 10
36.451117996429048
 20
66.0
 30
0.0
 11
36.451117996429048
 21
68.807179677005209
 31
0.0
  0
LINE
  5
5568
  8
2
 10
35.827866701575942
 20
66.0
 30
0.0
 11
35.827866701575942
 21
69.297927405764881
 31
0.0
  0
LINE
  5
5569
  8
2
 10
36.52874324523242
 20
66.0
 30
0.0
 11
36.52874324523242
 21
68.807179676972453
 31
0.0
  0
LINE
  5
556A
  8
2
 10
64.172133298424058
 20
66.0
 30
0.0
 11
64.172133298424058
 21
69.297927405783625
 31
0.0
  0
LINE
  5
556B
  8
2
 10
63.47125675476758
 20
66.0
 30
0.0
 11
63.47125675476758
 21
68.807179676996014
 31
0.0
  0
LINE
  5
556C
  8
2
 10
64.037234912845548
 20
66.0
 30
0.0
 11
64.037234912845548
 21
69.29792740581226
 31
0.0
  0
LINE
  5
556D
  8
2
 10
35.962765087154452
 20
66.0
 30
0.0
 11
35.962765087154452
 21
69.297927405783625
 31
0.0
  0
LINE
  5
556E
  8
2
 10
54.75000000000005
 20
56.299999999999997
 30
0.0
 11
54.75
 21
52.799999999999997
 31
0.0
  0
LINE
  5
556F
  8
2
 10
63.25
 20
52.799999999999997
 30
0.0
 11
63.25
 21
56.29999999999999
 31
0.0
  0
LINE
  5
5571
  8
2
 10
63.25
 20
56.29999999999999
 30
0.0
 11
54.75000000000005
 21
56.299999999999997
 31
0.0
  0
LINE
  5
5574
  8
2
 10
45.25
 20
56.29999999999999
 30
0.0
 11
36.750000000000028
 21
56.299999999999997
 31
0.0
  0
LINE
  5
5578
  8
2
 10
36.750000000000028
 20
56.299999999999997
 30
0.0
 11
36.75
 21
52.799999999999997
 31
0.0
  0
LINE
  5
5579
  8
2
 10
45.25
 20
52.799999999999997
 30
0.0
 11
45.25
 21
56.29999999999999
 31
0.0
  0
LINE
  5
557A
  8
2
 10
63.065842115483399
 20
66.0
 30
0.0
 11
63.065842115483399
 21
68.807179676972453
 31
0.0
  0
LINE
  5
557B
  8
2
 10
36.934157884516587
 20
66.0
 30
0.0
 11
36.934157884516587
 21
68.807179676932435
 31
0.0
  0
LINE
  5
557C
  8
2
 10
63.5
 20
52.799999999999997
 30
0.0
 11
54.5
 21
52.799999999999997
 31
0.0
  0
LINE
  5
557D
  8
2
 10
54.5
 20
56.5
 30
0.0
 11
54.5
 21
52.799999999999997
 31
0.0
  0
LINE
  5
557E
  8
2
 10
63.5
 20
52.799999999999997
 30
0.0
 11
63.5
 21
56.5
 31
0.0
  0
LINE
  5
557F
  8
2
 10
45.499999999999993
 20
52.799999999999997
 30
0.0
 11
36.5
 21
52.799999999999997
 31
0.0
  0
LINE
  5
5580
  8
2
 10
36.5
 20
56.5
 30
0.0
 11
36.5
 21
52.799999999999997
 31
0.0
  0
LINE
  5
5581
  8
2
 10
45.499999999999993
 20
52.799999999999997
 30
0.0
 11
45.499999999999993
 21
56.5
 31
0.0
  0
LINE
  5
5582
  8
2
 10
63.534789188308537
 20
66.0
 30
0.0
 11
63.534789188308537
 21
69.297927405783625
 31
0.0
  0
LINE
  5
5583
  8
2
 10
62.938074384149672
 20
66.0
 30
0.0
 11
62.938074384149672
 21
68.807179676962903
 31
0.0
  0
LINE
  5
5584
  8
2
 10
36.465210811691463
 20
66.0
 30
0.0
 11
36.465210811691463
 21
69.297927405805467
 31
0.0
  0
LINE
  5
5585
  8
2
 10
37.061925615850328
 20
66.0
 30
0.0
 11
37.061925615850328
 21
68.807179676972453
 31
0.0
  0
LINE
  5
5586
  8
2
 10
63.335588643385393
 20
66.0
 30
0.0
 11
63.335588643385393
 21
69.29792740579596
 31
0.0
  0
LINE
  5
5587
  8
2
 10
36.664411356614607
 20
66.0
 30
0.0
 11
36.664411356614607
 21
69.297927405783625
 31
0.0
  0
LINE
  5
5588
  8
2
 10
63.173071610080648
 20
66.0
 30
0.0
 11
63.173071610080648
 21
69.217098368097083
 31
0.0
  0
LINE
  5
5589
  8
2
 10
36.826928389919352
 20
66.0
 30
0.0
 11
36.826928389919352
 21
69.217098368097083
 31
0.0
  0
LINE
  5
558C
  8
2
 10
55.251424005619533
 20
66.0
 30
0.0
 11
55.251424005619533
 21
68.997705265805024
 31
0.0
  0
LINE
  5
558D
  8
2
 10
44.748575994380467
 20
66.0
 30
0.0
 11
44.748575994380467
 21
68.997705265805024
 31
0.0
  0
LINE
  5
558E
  8
2
 10
53.539147168684451
 20
66.0
 30
0.0
 11
53.539147168684451
 21
68.807179676955869
 31
0.0
  0
LINE
  5
558F
  8
2
 10
53.906532201379832
 20
66.0
 30
0.0
 11
53.906532201379832
 21
68.807179676972453
 31
0.0
  0
LINE
  5
5590
  8
2
 10
46.460852831315542
 20
66.0
 30
0.0
 11
46.460852831315542
 21
68.807179676972453
 31
0.0
  0
LINE
  5
5591
  8
2
 10
46.093467798620168
 20
66.0
 30
0.0
 11
46.093467798620168
 21
68.807179676917045
 31
0.0
  0
LINE
  5
5592
  8
2
 10
63.599999999999987
 20
56.5
 30
0.0
 11
36.400000000000013
 21
56.5
 31
0.0
  0
LINE
  5
5593
  8
2
 10
36.400000000000013
 20
64.5
 30
0.0
 11
36.400000000000013
 21
56.5
 31
0.0
  0
LINE
  5
5594
  8
2
 10
63.599999999999987
 20
56.5
 30
0.0
 11
63.599999999999987
 21
64.5
 31
0.0
  0
LINE
  5
5595
  8
2
 10
51.689930356050752
 20
66.0
 30
0.0
 11
51.689930356050752
 21
68.807179676986451
 31
0.0
  0
LINE
  5
5596
  8
2
 10
52.067910057378917
 20
66.0
 30
0.0
 11
52.067910057378917
 21
68.807179676972453
 31
0.0
  0
LINE
  5
5597
  8
2
 10
48.31006964394922
 20
66.0
 30
0.0
 11
48.31006964394922
 21
68.807179676972453
 31
0.0
  0
LINE
  5
5598
  8
2
 10
47.932089942621083
 20
66.0
 30
0.0
 11
47.932089942621083
 21
68.807179677029964
 31
0.0
  0
LINE
  5
5599
  8
2
 10
55.140837163178269
 20
66.0
 30
0.0
 11
55.140837163178269
 21
69.297927405783625
 31
0.0
  0
LINE
  5
559A
  8
2
 10
44.859162836821717
 20
66.0
 30
0.0
 11
44.859162836821717
 21
69.297927405821085
 31
0.0
  0
LINE
  5
559B
  8
2
 10
50.190766661645121
 20
66.0
 30
0.0
 11
50.190766661645121
 21
68.807179676972453
 31
0.0
  0
LINE
  5
559C
  8
2
 10
49.809233338354879
 20
66.0
 30
0.0
 11
49.809233338354879
 21
68.80717967698628
 31
0.0
  0
LINE
  5
559D
  8
2
 10
45.330293297881148
 20
66.0
 30
0.0
 11
45.330293297881148
 21
69.297927405783625
 31
0.0
  0
LINE
  5
559E
  8
2
 10
54.669706702118837
 20
66.0
 30
0.0
 11
54.669706702118837
 21
69.297927405841634
 31
0.0
  0
LINE
  5
559F
  8
2
 10
46.775032411660533
 20
66.0
 30
0.0
 11
46.775032411660533
 21
69.29792740575634
 31
0.0
  0
LINE
  5
55A0
  8
2
 10
53.22496758833946
 20
66.0
 30
0.0
 11
53.22496758833946
 21
69.297927405783625
 31
0.0
  0
LINE
  5
55A1
  8
2
 10
47.264574455501702
 20
66.0
 30
0.0
 11
47.264574455501702
 21
69.297927405783625
 31
0.0
  0
LINE
  5
55A2
  8
2
 10
52.735425544498291
 20
66.0
 30
0.0
 11
52.735425544498291
 21
69.297927405758372
 31
0.0
  0
LINE
  5
55A3
  8
2
 10
51.24902296920294
 20
66.0
 30
0.0
 11
51.24902296920294
 21
69.297927405783625
 31
0.0
  0
LINE
  5
55A4
  8
2
 10
48.750977030797088
 20
66.0
 30
0.0
 11
48.750977030797088
 21
69.297927405787178
 31
0.0
  0
LINE
  5
55A5
  8
2
 10
49.249811415392337
 20
66.0
 30
0.0
 11
49.249811415392337
 21
69.297927405783625
 31
0.0
  0
LINE
  5
55A6
  8
2
 10
50.750188584607649
 20
66.0
 30
0.0
 11
50.750188584607649
 21
69.297927405787533
 31
0.0
  0
LINE
  5
55A7
  8
2
 10
58.144969077908478
 20
66.0
 30
0.0
 11
41.855030677231291
 21
66.0
 31
0.0
  0
LINE
  5
55A8
  8
2
 10
58.144969077908478
 20
66.0
 30
0.0
 11
58.144969077908478
 21
69.471132486540441
 31
0.0
  0
LINE
  5
55A9
  8
2
 10
62.525884229521409
 20
66.0
 30
0.0
 11
62.525884229521409
 21
69.471132486540512
 31
0.0
  0
LINE
  5
55AA
  8
2
 10
37.474115770478591
 20
66.0
 30
0.0
 11
35.050000000000011
 21
66.0
 31
0.0
  0
LINE
  5
55AB
  8
2
 10
37.474115770478591
 20
66.0
 30
0.0
 11
37.474115770478591
 21
69.471132486540441
 31
0.0
  0
LINE
  5
55AC
  8
2
 10
41.855030677231291
 20
66.0
 30
0.0
 11
41.855030677231291
 21
69.471132486540512
 31
0.0
  0
LINE
  5
55AD
  8
2
 10
64.949999999999989
 20
64.5
 30
0.0
 11
35.050000000000011
 21
64.5
 31
0.0
  0
LINE
  5
55AE
  8
2
 10
35.050000000000011
 20
66.0
 30
0.0
 11
35.050000000000011
 21
64.5
 31
0.0
  0
LINE
  5
55AF
  8
2
 10
64.949999999999989
 20
64.5
 30
0.0
 11
64.949999999999989
 21
66.0
 31
0.0
  0
LINE
  5
55B0
  8
2
 10
64.949999999999989
 20
66.0
 30
0.0
 11
62.525884229521409
 21
66.0
 31
0.0
  0
LINE
  5
55B1
  8
2
 10
50.190766661645078
 20
68.807179676984248
 30
0.0
 11
50.750188584607621
 21
69.297927405783625
 31
0.0
  0
LINE
  5
55B2
  8
2
 10
52.067910057378917
 20
68.807179676979558
 30
0.0
 11
52.735425544498291
 21
69.297927405783625
 31
0.0
  0
LINE
  5
55B3
  8
2
 10
64.647866738880452
 20
69.297927405766444
 30
0.0
 11
63.779531855401189
 21
68.807179676972453
 31
0.0
  0
LINE
  5
55B4
  8
2
 10
63.779531855401189
 20
68.807179676972453
 30
0.0
 11
63.753495100640798
 21
68.807179677005536
 31
0.0
  0
LINE
  5
55B5
  8
2
 10
63.753495100640798
 20
68.807179677005536
 30
0.0
 11
64.545477379895942
 21
69.297927405783625
 31
0.0
  0
LINE
  5
55B6
  8
2
 10
64.545477379895942
 20
69.297927405783625
 30
0.0
 11
64.477394055347816
 21
69.297927405856598
 31
0.0
  0
LINE
  5
55B7
  8
2
 10
64.477394055347816
 20
69.297927405856598
 30
0.0
 11
63.548882003570952
 21
68.807179676972453
 31
0.0
  0
LINE
  5
55B8
  8
2
 10
63.548882003570952
 20
68.807179676972453
 30
0.0
 11
63.47125675476758
 21
68.807179676996014
 31
0.0
  0
LINE
  5
55B9
  8
2
 10
63.47125675476758
 20
68.807179676996014
 30
0.0
 11
64.172133298424058
 21
69.297927405783625
 31
0.0
  0
LINE
  5
55BA
  8
2
 10
64.172133298424058
 20
69.297927405783625
 30
0.0
 11
64.037234912845548
 21
69.29792740581226
 31
0.0
  0
LINE
  5
55BB
  8
2
 10
64.037234912845548
 20
69.29792740581226
 30
0.0
 11
63.065842115483399
 21
68.807179676972453
 31
0.0
  0
LINE
  5
55BC
  8
2
 10
63.065842115483399
 20
68.807179676972453
 30
0.0
 11
62.938074384149672
 21
68.807179676962903
 31
0.0
  0
LINE
  5
55BD
  8
2
 10
62.938074384149672
 20
68.807179676962903
 30
0.0
 11
63.534789188308537
 21
69.297927405783625
 31
0.0
  0
LINE
  5
55BE
  8
2
 10
63.534789188308537
 20
69.297927405783625
 30
0.0
 11
63.335588643385393
 21
69.29792740579596
 31
0.0
  0
LINE
  5
55BF
  8
2
 10
63.335588643385393
 20
69.29792740579596
 30
0.0
 11
63.173071610080648
 21
69.217098368097083
 31
0.0
  0
POLYLINE
  5
55C0
  8
2
 66
     1
 10
0.0
 20
0.0
 30
0.0
  0
VERTEX
  5
59C7
  8
2
 10
63.173071610080648
 20
69.217098368097083
 30
0.0
  0
VERTEX
  5
59C8
  8
2
 10
63.153222706072143
 20
69.282278578802192
 30
0.0
  0
VERTEX
  5
59C9
  8
2
 10
63.109777518918968
 20
69.338321117895873
 30
0.0
  0
VERTEX
  5
59CA
  8
2
 10
63.04031692299111
 20
69.386024516940765
 30
0.0
  0
VERTEX
  5
59CB
  8
2
 10
62.945969160639493
 20
69.423393090917287
 30
0.0
  0
VERTEX
  5
59CC
  8
2
 10
62.763266789895972
 20
69.458950375625449
 30
0.0
  0
VERTEX
  5
59CD
  8
2
 10
62.525884229521409
 20
69.471132486540512
 30
0.0
  0
SEQEND
  5
59CE
  8
2
  0
LINE
  5
55C1
  8
2
 10
62.525884229521409
 20
69.471132486540512
 30
0.0
 11
58.144969077908478
 21
69.471132486540441
 31
0.0
  0
POLYLINE
  5
55C2
  8
2
 66
     1
 10
0.0
 20
0.0
 30
0.0
  0
VERTEX
  5
59CF
  8
2
 10
58.144969077908478
 20
69.471132486540441
 30
0.0
  0
VERTEX
  5
59D0
  8
2
 10
57.876929342455242
 20
69.465977578772609
 30
0.0
  0
VERTEX
  5
59D1
  8
2
 10
57.597594722175728
 20
69.450584013999986
 30
0.0
  0
VERTEX
  5
59D2
  8
2
 10
57.300216664082619
 20
69.424100985794979
 30
0.0
  0
VERTEX
  5
59D3
  8
2
 10
56.99531166476617
 20
69.387055779427541
 30
0.0
  0
VERTEX
  5
59D4
  8
2
 10
56.69427401358044
 20
69.341191504452368
 30
0.0
  0
VERTEX
  5
59D5
  8
2
 10
56.390441256401971
 20
69.28589739303473
 30
0.0
  0
VERTEX
  5
59D6
  8
2
 10
56.07751178925065
 20
69.219581220180814
 30
0.0
  0
VERTEX
  5
59D7
  8
2
 10
55.765969742365648
 20
69.144066516859354
 30
0.0
  0
VERTEX
  5
59D8
  8
2
 10
55.251424005619533
 20
68.997705265805024
 30
0.0
  0
SEQEND
  5
59D9
  8
2
  0
LINE
  5
55C3
  8
2
 10
55.251424005619533
 20
68.997705265805024
 30
0.0
 11
55.140837163178269
 21
69.297927405783625
 31
0.0
  0
LINE
  5
55C4
  8
2
 10
55.140837163178269
 20
69.297927405783625
 30
0.0
 11
54.669706702118837
 21
69.297927405841634
 31
0.0
  0
LINE
  5
55C5
  8
2
 10
54.669706702118837
 20
69.297927405841634
 30
0.0
 11
53.906532201379832
 21
68.807179676972453
 31
0.0
  0
LINE
  5
55C6
  8
2
 10
53.906532201379832
 20
68.807179676972453
 30
0.0
 11
53.539147168684451
 21
68.807179676955869
 31
0.0
  0
LINE
  5
55C7
  8
2
 10
53.539147168684451
 20
68.807179676955869
 30
0.0
 11
53.22496758833946
 21
69.297927405783625
 31
0.0
  0
LINE
  5
55C8
  8
2
 10
53.22496758833946
 20
69.297927405783625
 30
0.0
 11
52.735425544498291
 21
69.297927405758372
 31
0.0
  0
LINE
  5
55C9
  8
2
 10
52.067910057378917
 20
68.807179676972453
 30
0.0
 11
51.689930356050752
 21
68.807179676986451
 31
0.0
  0
LINE
  5
55CA
  8
2
 10
51.689930356050752
 20
68.807179676986451
 30
0.0
 11
51.24902296920294
 21
69.297927405783625
 31
0.0
  0
LINE
  5
55CB
  8
2
 10
51.24902296920294
 20
69.297927405783625
 30
0.0
 11
50.750188584607649
 21
69.297927405787533
 31
0.0
  0
LINE
  5
55CC
  8
2
 10
50.190766661645121
 20
68.807179676972453
 30
0.0
 11
49.809233338354879
 21
68.80717967698628
 31
0.0
  0
LINE
  5
55CD
  8
2
 10
49.809233338354879
 20
68.80717967698628
 30
0.0
 11
49.249811415392337
 21
69.297927405783625
 31
0.0
  0
LINE
  5
55CE
  8
2
 10
49.249811415392337
 20
69.297927405783625
 30
0.0
 11
48.750977030797088
 21
69.297927405787178
 31
0.0
  0
LINE
  5
55CF
  8
2
 10
48.750977030797088
 20
69.297927405787178
 30
0.0
 11
48.31006964394922
 21
68.807179676972453
 31
0.0
  0
LINE
  5
55D0
  8
2
 10
48.31006964394922
 20
68.807179676972453
 30
0.0
 11
47.932089942621083
 21
68.807179677029964
 31
0.0
  0
LINE
  5
55D1
  8
2
 10
47.264574455501702
 20
69.297927405783625
 30
0.0
 11
46.775032411660533
 21
69.29792740575634
 31
0.0
  0
LINE
  5
55D2
  8
2
 10
46.775032411660533
 20
69.29792740575634
 30
0.0
 11
46.460852831315542
 21
68.807179676972453
 31
0.0
  0
LINE
  5
55D3
  8
2
 10
46.460852831315542
 20
68.807179676972453
 30
0.0
 11
46.093467798620168
 21
68.807179676917045
 31
0.0
  0
LINE
  5
55D4
  8
2
 10
45.330293297881148
 20
69.297927405783625
 30
0.0
 11
44.859162836821717
 21
69.297927405821085
 31
0.0
  0
POLYLINE
  5
55D5
  8
2
 66
     1
 10
0.0
 20
0.0
 30
0.0
  0
VERTEX
  5
59DA
  8
2
 10
44.748575994380467
 20
68.997705265805024
 30
0.0
  0
VERTEX
  5
59DB
  8
2
 10
44.440549779831201
 20
69.088635535590143
 30
0.0
  0
VERTEX
  5
59DC
  8
2
 10
44.127686772031602
 20
69.170925644711232
 30
0.0
  0
VERTEX
  5
59DD
  8
2
 10
43.803209856723242
 20
69.245974389490087
 30
0.0
  0
VERTEX
  5
59DE
  8
2
 10
43.478112403483628
 20
69.310922453079442
 30
0.0
  0
VERTEX
  5
59DF
  8
2
 10
43.163285015265949
 20
69.364011066974584
 30
0.0
  0
VERTEX
  5
59E0
  8
2
 10
42.852551259107081
 20
69.406755654710167
 30
0.0
  0
VERTEX
  5
59E1
  8
2
 10
42.53887661400784
 20
69.439656295293645
 30
0.0
  0
VERTEX
  5
59E2
  8
2
 10
42.234701595105257
 20
69.46099256485499
 30
0.0
  0
VERTEX
  5
59E3
  8
2
 10
41.855030677231291
 20
69.471132486540512
 30
0.0
  0
SEQEND
  5
59E4
  8
2
  0
LINE
  5
55D6
  8
2
 10
41.855030677231291
 20
69.471132486540512
 30
0.0
 11
37.474115770478591
 21
69.471132486540441
 31
0.0
  0
POLYLINE
  5
55D7
  8
2
 66
     1
 10
0.0
 20
0.0
 30
0.0
  0
VERTEX
  5
59E5
  8
2
 10
37.474115770478591
 20
69.471132486540441
 30
0.0
  0
VERTEX
  5
59E6
  8
2
 10
37.313880796032748
 20
69.465958276789308
 30
0.0
  0
VERTEX
  5
59E7
  8
2
 10
37.175179399542827
 20
69.450507337117372
 30
0.0
  0
VERTEX
  5
59E8
  8
2
 10
37.055857723615297
 20
69.42392235067463
 30
0.0
  0
VERTEX
  5
59E9
  8
2
 10
36.961012317631202
 20
69.386734628656086
 30
0.0
  0
VERTEX
  5
59EA
  8
2
 10
36.867031934032781
 20
69.313391745303633
 30
0.0
  0
VERTEX
  5
59EB
  8
2
 10
36.826928389919352
 20
69.217098368097083
 30
0.0
  0
SEQEND
  5
59EC
  8
2
  0
LINE
  5
55D8
  8
2
 10
36.664411356614607
 20
69.297927405783625
 30
0.0
 11
36.465210811691463
 21
69.297927405805467
 31
0.0
  0
LINE
  5
55D9
  8
2
 10
37.061925615850328
 20
68.807179676972453
 30
0.0
 11
36.934157884516587
 21
68.807179676932435
 31
0.0
  0
LINE
  5
55DA
  8
2
 10
36.934157884516587
 20
68.807179676932435
 30
0.0
 11
35.962765087154452
 21
69.297927405783625
 31
0.0
  0
LINE
  5
55DB
  8
2
 10
35.962765087154452
 20
69.297927405783625
 30
0.0
 11
35.827866701575942
 21
69.297927405764881
 31
0.0
  0
LINE
  5
55DC
  8
2
 10
35.827866701575942
 20
69.297927405764881
 30
0.0
 11
36.52874324523242
 21
68.807179676972453
 31
0.0
  0
LINE
  5
55DD
  8
2
 10
36.52874324523242
 20
68.807179676972453
 30
0.0
 11
36.451117996429048
 21
68.807179677005209
 31
0.0
  0
LINE
  5
55DE
  8
2
 10
35.522605944652192
 20
69.297927405783625
 30
0.0
 11
35.454522620104058
 21
69.2979274058155
 31
0.0
  0
LINE
  5
55DF
  8
2
 10
36.246504899359202
 20
68.807179676972453
 30
0.0
 11
36.220468144598811
 21
68.807179676984248
 31
0.0
  0
LINE
  5
55E0
  8
2
 10
36.220468144598811
 20
68.807179676984248
 30
0.0
 11
35.352133261119548
 21
69.297927405783625
 31
0.0
  0
LINE
  5
55E1
  8
2
 10
35.352133261119548
 20
69.297927405783625
 30
0.0
 11
35.350000000040843
 21
69.297927405760035
 31
0.0
  0
LINE
  5
55E2
  8
2
 10
36.246504899359202
 20
68.807179676991822
 30
0.0
 11
35.454522620104058
 21
69.297927405783625
 31
0.0
  0
LINE
  5
55E3
  8
2
 10
35.522605944652192
 20
69.297927405816012
 30
0.0
 11
36.451117996429048
 21
68.807179676972453
 31
0.0
  0
LINE
  5
55E4
  8
2
 10
37.061925615850328
 20
68.807179676983097
 30
0.0
 11
36.465210811691463
 21
69.297927405783625
 31
0.0
  0
LINE
  5
55E5
  8
2
 10
36.664411356614607
 20
69.297927405764483
 30
0.0
 11
36.826928389919317
 21
69.217098368097083
 31
0.0
  0
LINE
  5
55E6
  8
2
 10
44.748575994380452
 20
68.997705265805024
 30
0.0
 11
44.859162836821717
 21
69.297927405783625
 31
0.0
  0
LINE
  5
55E7
  8
2
 10
45.330293297881148
 20
69.297927405796713
 30
0.0
 11
46.093467798620139
 21
68.807179676972453
 31
0.0
  0
LINE
  5
55E8
  8
2
 10
47.264574455501702
 20
69.29792740577092
 30
0.0
 11
47.932089942621083
 21
68.807179676972453
 31
0.0
  0
LINE
  5
55E9
  8
2
 10
64.649999999957686
 20
69.297927405759197
 30
0.0
 11
65.0
 21
69.5
 31
0.0
  0
LINE
  5
55EA
  8
2
 10
35.0
 20
69.5
 30
0.0
 11
35.350000000040843
 21
69.297927405760035
 31
0.0
  0
LINE
  5
55EB
  8
2
 10
64.649999999957686
 20
69.297927405759197
 30
0.0
 11
64.647866738880452
 21
69.297927405766444
 31
0.0
  0
LINE
  5
55EC
  8
0
 10
66.5
 20
69.5
 30
0.0
 11
33.5
 21
69.5
 31
0.0
  0
LINE
  5
55ED
  8
0
 10
66.5
 20
50.0
 30
0.0
 11
33.5
 21
50.0
 31
0.0
  0
LINE
  5
55EE
  8
0
 10
33.5
 20
69.5
 30
0.0
 11
33.5
 21
50.0
 31
0.0
  0
LINE
  5
55EF
  8
0
 10
66.5
 20
50.0
 30
0.0
 11
66.5
 21
69.5
 31
0.0
  0
LINE
  5
55F0
  8
2
 10
46.899999999999999
 20
50.0
 30
0.0
 11
46.899999999999999
 21
56.5
 31
0.0
  0
LINE
  5
55F1
  8
2
 10
53.100000000000001
 20
50.0
 30
0.0
 11
53.100000000000001
 21
56.5
 31
0.0
  0
LINE
  5
55F2
  8
3
 10
61.009500000000003
 20
42.799999999999997
 30
0.0
 11
61.009500000000003
 21
50.0
 31
0.0
  0
LINE
  5
55F4
  8
3
 10
56.99049999999999
 20
42.799999999999997
 30
0.0
 11
56.99049999999999
 21
50.0
 31
0.0
  0
LINE
  5
55F6
  8
3
 10
43.009500000000003
 20
42.799999999999997
 30
0.0
 11
43.009500000000003
 21
50.0
 31
0.0
  0
LINE
  5
55F8
  8
3
 10
38.990499999999997
 20
42.799999999999997
 30
0.0
 11
38.990499999999997
 21
50.0
 31
0.0
  0
LINE
  5
5651
  8
2
 10
38.990499999999997
 20
50.0
 30
0.0
 11
38.990499999999997
 21
52.799999999999997
 31
0.0
  0
LINE
  5
5652
  8
2
 10
43.009500000000003
 20
50.0
 30
0.0
 11
43.009500000000003
 21
52.799999999999997
 31
0.0
  0
LINE
  5
5653
  8
2
 10
56.99049999999999
 20
50.0
 30
0.0
 11
56.99049999999999
 21
52.799999999999997
 31
0.0
  0
LINE
  5
5654
  8
2
 10
61.009500000000003
 20
50.0
 30
0.0
 11
61.009500000000003
 21
52.799999999999997
 31
0.0
  0
LINE
  5
5655
  8
2
 10
132.0
 20
134.0095
 30
0.0
 11
129.19999999999999
 21
134.0095
 31
0.0
  0
LINE
  5
5656
  8
2
 10
132.0
 20
129.9905
 30
0.0
 11
129.19999999999999
 21
129.9905
 31
0.0
  0
LINE
  5
56FB
  8
1
 10
41.0
 20
41.29999999999999
 30
0.0
 11
41.0
 21
57.799999999999997
 31
0.0
  0
LINE
  5
56FC
  8
1
 10
59.000000000000028
 20
57.799999999999997
 30
0.0
 11
59.000000000000028
 21
41.29999999999999
 31
0.0
  0
LINE
  5
56FF
  8
1
 10
50.0
 20
47.0
 30
0.0
 11
50.0
 21
72.5
 31
0.0
  0
LINE
  5
5704
  8
1
 10
69.5
 20
132.0
 30
0.0
 11
30.5
 21
132.0
 31
0.0
  0
LINE
  5
57BE
  8
2
 10
132.0
 20
129.5
 30
0.0
 11
129.19999999999999
 21
129.5
 31
0.0
  0
LINE
  5
57BF
  8
2
 10
129.19999999999999
 20
134.59999999999999
 30
0.0
 11
132.0
 21
134.59999999999999
 31
0.0
  0
LINE
  5
57C4
  8
2
 10
125.5
 20
135.09999999999999
 30
0.0
 11
132.0
 21
135.09999999999999
 31
0.0
  0
LINE
  5
57C5
  8
2
 10
132.0
 20
128.90000000000001
 30
0.0
 11
125.5
 21
128.90000000000001
 31
0.0
  0
LINE
  5
58B0
  8
2
 10
47.5
 20
50.0
 30
0.0
 11
47.5
 21
56.5
 31
0.0
  0
LINE
  5
58B1
  8
2
 10
52.5
 20
50.0
 30
0.0
 11
52.5
 21
56.5
 31
0.0
  0
ENDSEC
  0
EOF
