  0
SECTION
  2
HEADER
  9
$ACADVER
  1
AC1009
  9
$INSBASE
 10
0.0
 20
0.0
 30
0.0
  9
$EXTMIN
 10
0.0
 20
-1.4802182810368341
 30
0.0
  9
$EXTMAX
 10
126.3
 20
140.59999999999999
 30
0.0
  9
$LIMMIN
 10
0.0
 20
0.0
  9
$LIMMAX
 10
192.5
 20
135.0
  9
$ORTHOMODE
 70
     1
  9
$REGENMODE
 70
     1
  9
$FILLMODE
 70
     1
  9
$QTEXTMODE
 70
     0
  9
$MIRRTEXT
 70
     0
  9
$DRAGMODE
 70
     2
  9
$LTSCALE
 40
5.0
  9
$OSMODE
 70
    37
  9
$ATTMODE
 70
     1
  9
$TEXTSIZE
 40
1.6000000000000489
  9
$TRACEWID
 40
0.05
  9
$TEXTSTYLE
  7
STANDARD
  9
$CLAYER
  8
0
  9
$CELTYPE
  6
BYLAYER
  9
$CECOLOR
 62
   256
  9
$DIMSCALE
 40
1.0
  9
$DIMASZ
 40
3.0
  9
$DIMEXO
 40
2.0
  9
$DIMDLI
 40
0.38
  9
$DIMRND
 40
0.0
  9
$DIMDLE
 40
0.0
  9
$DIMEXE
 40
2.0
  9
$DIMTP
 40
0.0
  9
$DIMTM
 40
0.0
  9
$DIMTXT
 40
3.0
  9
$DIMCEN
 40
0.0
  9
$DIMTSZ
 40
0.0
  9
$DIMTOL
 70
     0
  9
$DIMLIM
 70
     0
  9
$DIMTIH
 70
     0
  9
$DIMTOH
 70
     0
  9
$DIMSE1
 70
     0
  9
$DIMSE2
 70
     0
  9
$DIMTAD
 70
     1
  9
$DIMZIN
 70
     9
  9
$DIMBLK
  1

  9
$DIMASO
 70
     0
  9
$DIMSHO
 70
     0
  9
$DIMPOST
  1

  9
$DIMAPOST
  1

  9
$DIMALT
 70
     0
  9
$DIMALTD
 70
     2
  9
$DIMALTF
 40
25.399999999999999
  9
$DIMLFAC
 40
1.0
  9
$DIMTOFL
 70
     1
  9
$DIMTVP
 40
1.6000000000000001
  9
$DIMTIX
 70
     1
  9
$DIMSOXD
 70
     0
  9
$DIMSAH
 70
     0
  9
$DIMBLK1
  1

  9
$DIMBLK2
  1

  9
$DIMSTYLE
  2
STANDARD
  9
$DIMCLRD
 70
     0
  9
$DIMCLRE
 70
     0
  9
$DIMCLRT
 70
     0
  9
$DIMTFAC
 40
1.0
  9
$DIMGAP
 40
0.09
  9
$LUNITS
 70
     2
  9
$LUPREC
 70
     1
  9
$SKETCHINC
 40
0.1
  9
$FILLETRAD
 40
0.3
  9
$AUNITS
 70
     0
  9
$AUPREC
 70
     1
  9
$MENU
  1
E:\r13\win\SUPPORT\ACAD
  9
$ELEVATION
 40
0.0
  9
$PELEVATION
 40
0.0
  9
$THICKNESS
 40
0.0
  9
$LIMCHECK
 70
     0
  9
$BLIPMODE
 70
     0
  9
$CHAMFERA
 40
0.0
  9
$CHAMFERB
 40
0.0
  9
$SKPOLY
 70
     0
  9
$TDCREATE
 40
2448328.489641204
  9
$TDUPDATE
 40
2459200.3879573378
  9
$TDINDWG
 40
1.1447105093000001
  9
$TDUSRTIMER
 40
2456598.9489769679
  9
$USRTIMER
 70
     1
  9
$ANGBASE
 50
0.0
  9
$ANGDIR
 70
     0
  9
$PDMODE
 70
    35
  9
$PDSIZE
 40
0.0
  9
$PLINEWID
 40
0.0
  9
$COORDS
 70
     1
  9
$SPLFRAME
 70
     0
  9
$SPLINETYPE
 70
     6
  9
$SPLINESEGS
 70
     8
  9
$ATTDIA
 70
     0
  9
$ATTREQ
 70
     1
  9
$HANDLING
 70
     1
  9
$HANDSEED
  5
5F5F
  9
$SURFTAB1
 70
     6
  9
$SURFTAB2
 70
     6
  9
$SURFTYPE
 70
     6
  9
$SURFU
 70
     6
  9
$SURFV
 70
     6
  9
$UCSNAME
  2

  9
$UCSORG
 10
0.0
 20
0.0
 30
0.0
  9
$UCSXDIR
 10
1.0
 20
0.0
 30
0.0
  9
$UCSYDIR
 10
0.0
 20
1.0
 30
0.0
  9
$PUCSNAME
  2

  9
$PUCSORG
 10
0.0
 20
0.0
 30
0.0
  9
$PUCSXDIR
 10
1.0
 20
0.0
 30
0.0
  9
$PUCSYDIR
 10
0.0
 20
1.0
 30
0.0
  9
$USERI1
 70
     3
  9
$USERI2
 70
     1
  9
$USERI3
 70
     1
  9
$USERI4
 70
     0
  9
$USERI5
 70
     0
  9
$USERR1
 40
0.5
  9
$USERR2
 40
3.0
  9
$USERR3
 40
3.0
  9
$USERR4
 40
3.0
  9
$USERR5
 40
10.0
  9
$WORLDVIEW
 70
     1
  9
$SHADEDGE
 70
     3
  9
$SHADEDIF
 70
    70
  9
$TILEMODE
 70
     1
  9
$MAXACTVP
 70
    16
  9
$PLIMCHECK
 70
     0
  9
$PEXTMIN
 10
1.0000000000000000E+020
 20
1.0000000000000000E+020
 30
1.0000000000000000E+020
  9
$PEXTMAX
 10
-1.0000000000000000E+020
 20
-1.0000000000000000E+020
 30
-1.0000000000000000E+020
  9
$PLIMMIN
 10
0.0
 20
0.0
  9
$PLIMMAX
 10
12.0
 20
9.0
  9
$UNITMODE
 70
     0
  9
$VISRETAIN
 70
     0
  9
$PLINEGEN
 70
     1
  9
$PSLTSCALE
 70
     0
  0
ENDSEC
  0
SECTION
  2
TABLES
  0
TABLE
  2
VPORT
 70
     1
  0
VPORT
  2
*ACTIVE
 70
     0
 10
0.0
 20
0.0
 11
1.0
 21
1.0
 12
97.613724620318024
 22
69.555465264050227
 13
0.0
 23
0.0
 14
2.5
 24
2.5
 15
5.0
 25
5.0
 16
0.0
 26
0.0
 36
1.0
 17
0.0
 27
0.0
 37
0.0
 40
143.32650247753509
 41
2.415644171779141
 42
50.0
 43
0.0
 44
0.0
 50
0.0
 51
0.0
 71
     0
 72
   500
 73
     1
 74
     0
 75
     0
 76
     0
 77
     0
 78
     2
  0
ENDTAB
  0
TABLE
  2
LTYPE
 70
     4
  0
LTYPE
  2
CONTINUOUS
 70
     0
  3
Solid Line
 72
    65
 73
     0
 40
0.0
  0
LTYPE
  2
CENTER
 70
     0
  3
____ _ ____ _ ____ _ ____ _ ____ _ ____ _ ____
 72
    65
 73
     4
 40
2.0
 49
1.25
 49
-0.25
 49
0.25
 49
-0.25
  0
LTYPE
  2
HIDDEN
 70
     0
  3
_ _ _ _ _ _ _ _ _ _ _ _ _ _ _ _ _ _ _ _ _ _ _
 72
    65
 73
     2
 40
0.375
 49
0.25
 49
-0.125
  0
LTYPE
  2
PHANTOM2
 70
     0
  3
___ _ _ ___ _ _ ___ _ _ ___ _ _
 72
    65
 73
     6
 40
1.25
 49
0.625
 49
-0.125
 49
0.125
 49
-0.125
 49
0.125
 49
-0.125
  0
ENDTAB
  0
TABLE
  2
LAYER
 70
     5
  0
LAYER
  2
0
 70
     0
 62
     7
  6
CONTINUOUS
  0
LAYER
  2
1
 70
     0
 62
     1
  6
CENTER
  0
LAYER
  2
2
 70
     0
 62
     2
  6
HIDDEN
  0
LAYER
  2
DEFPOINTS
 70
     0
 62
     7
  6
CONTINUOUS
  0
LAYER
  2
3
 70
     0
 62
     3
  6
CONTINUOUS
  0
ENDTAB
  0
TABLE
  2
STYLE
 70
     2
  0
STYLE
  2
STANDARD
 70
     0
 40
0.0
 41
1.0
 50
0.0
 71
     0
 42
1.6000000000000489
  3
SIMPLEX
  4
BIGFONT
  0
STYLE
  2
STANDARD1
 70
     0
 40
0.0
 41
1.0
 50
0.0
 71
     0
 42
3.0
  3
txt
  4

  0
ENDTAB
  0
TABLE
  2
VIEW
 70
     1
  0
VIEW
  2
ALL
 70
     0
 40
87.5
 10
71.617647058823522
 20
43.75
 41
0.0
 11
0.0
 21
0.0
 31
1.0
 12
0.0
 22
0.0
 32
0.0
 42
50.0
 43
0.0
 44
0.0
 50
0.0
 71
     0
  0
ENDTAB
  0
TABLE
  2
UCS
 70
     0
  0
ENDTAB
  0
TABLE
  2
APPID
 70
     7
  0
APPID
  2
ACAD
 70
     0
  0
APPID
  2
ACAD_EXEMPT_FROM_CAD_STANDARDS
 70
     0
  0
APPID
  2
ACAD_DSTYLE_DIMJAG
 70
     0
  0
APPID
  2
ACAD_DSTYLE_DIMTALN
 70
     0
  0
APPID
  2
ACAD_MLEADERVER
 70
     0
  0
APPID
  2
ACAD_NAV_VCDISPLAY
 70
     0
  0
APPID
  2
ACAD_DSTYLE_DIMRADIAL_EXTENSION
 70
     0
  0
ENDTAB
  0
TABLE
  2
DIMSTYLE
 70
     2
  0
DIMSTYLE
  2
STANDARD
 70
     0
  3

  4

  5

  6

  7

 40
1.0
 41
0.18
 42
0.0625
 43
0.38
 44
0.18
 45
0.0
 46
0.0
 47
0.0
 48
0.0
140
0.18
141
0.09
142
0.0
143
25.399999999999999
144
1.0
145
0.0
146
1.0
147
0.09
 71
     0
 72
     0
 73
     1
 74
     1
 75
     0
 76
     0
 77
     0
 78
     0
170
     0
171
     2
172
     0
173
     0
174
     0
175
     0
176
     0
177
     0
178
     0
  0
DIMSTYLE
  2
ISO-25
 70
     0
  3

  4

  5

  6

  7

 40
1.0
 41
2.5
 42
0.625
 43
3.75
 44
1.25
 45
0.0
 46
0.0
 47
0.0
 48
0.0
140
2.5
141
2.5
142
0.0
143
0.03937007874016
144
1.0
145
0.0
146
1.0
147
0.625
 71
     0
 72
     0
 73
     0
 74
     0
 75
     0
 76
     0
 77
     1
 78
     8
170
     0
171
     3
172
     1
173
     0
174
     0
175
     0
176
     0
177
     0
178
     0
  0
ENDTAB
  0
ENDSEC
  0
SECTION
  2
BLOCKS
  0
BLOCK
  8
0
  2
$MODEL_SPACE
 70
     0
 10
0.0
 20
0.0
 30
0.0
  3
$MODEL_SPACE
  1

  0
ENDBLK
  5
BAB
  8
0
  0
BLOCK
 67
     1
  8
0
  2
$PAPER_SPACE
 70
     0
 10
0.0
 20
0.0
 30
0.0
  3
$PAPER_SPACE
  1

  0
ENDBLK
  5
BA9
 67
     1
  8
0
  0
ENDSEC
  0
SECTION
  2
ENTITIES
  0
TEXT
  5
2813
  8
0
 62
     3
 10
0.0
 20
0.0
 30
0.0
 40
5.0
  1
RLES3346ETH-SUS
  7
STANDARD1
  0
LINE
  5
5A9D
  8
0
 10
120.3
 20
137.5815436159383
 30
0.0
 11
122.8
 21
137.5815436159383
 31
0.0
  0
LINE
  5
5A9E
  8
0
 10
120.3
 20
109.01845638406169
 30
0.0
 11
122.8
 21
109.01845638406169
 31
0.0
  0
LINE
  5
5A9F
  8
0
 10
120.3
 20
137.5815436159383
 30
0.0
 11
120.3
 21
137.54742240925589
 31
0.0
  0
LINE
  5
5AA0
  8
0
 10
120.3
 20
137.5815436159383
 30
0.0
 11
119.8
 21
137.0942397634019
 31
0.0
  0
LINE
  5
5AA1
  8
0
 10
120.3
 20
109.05257759074399
 30
0.0
 11
120.3
 21
109.01845638406169
 31
0.0
  0
LINE
  5
5AA2
  8
0
 10
119.8
 20
109.50576023659811
 30
0.0
 11
120.3
 21
109.01845638406169
 31
0.0
  0
LINE
  5
5AA3
  8
0
 10
120.3
 20
137.54742240925589
 30
0.0
 11
122.8
 21
137.54742240925589
 31
0.0
  0
LINE
  5
5AA4
  8
0
 10
119.8
 20
137.02004700555511
 30
0.0
 11
120.3
 21
137.54742240925589
 31
0.0
  0
LINE
  5
5AA5
  8
0
 10
120.3
 20
109.05257759074399
 30
0.0
 11
122.8
 21
109.05257759074409
 31
0.0
  0
LINE
  5
5AA6
  8
0
 10
120.3
 20
109.05257759074399
 30
0.0
 11
119.8
 21
109.5799529944448
 31
0.0
  0
LINE
  5
5AAC
  8
2
 10
123.3
 20
125.8
 30
0.0
 11
115.3
 21
125.8
 31
0.0
  0
LINE
  5
5AAD
  8
2
 10
110.3
 20
129.80000000000001
 30
0.0
 11
123.3
 21
129.80000000000001
 31
0.0
  0
LINE
  5
5AAE
  8
2
 10
123.3
 20
134.80000000000001
 30
0.0
 11
110.3
 21
134.80000000000001
 31
0.0
  0
LINE
  5
5AAF
  8
2
 10
110.3
 20
111.8
 30
0.0
 11
123.3
 21
111.8
 31
0.0
  0
LINE
  5
5AB0
  8
2
 10
123.3
 20
116.8
 30
0.0
 11
110.3
 21
116.8
 31
0.0
  0
LINE
  5
5AB7
  8
0
 10
120.3
 20
137.34962668677389
 30
0.0
 11
122.8
 21
137.34962668677389
 31
0.0
  0
LINE
  5
5AB8
  8
0
 10
120.3
 20
109.25037331322611
 30
0.0
 11
122.8
 21
109.25037331322611
 31
0.0
  0
LINE
  5
5AB9
  8
0
 10
120.3
 20
137.34962668677389
 30
0.0
 11
120.3
 21
137.2478986802476
 31
0.0
  0
LINE
  5
5ABA
  8
0
 10
120.3
 20
137.34962668677389
 30
0.0
 11
119.8
 21
136.91147193416049
 31
0.0
  0
LINE
  5
5ABB
  8
0
 10
120.3
 20
109.35210131975241
 30
0.0
 11
120.3
 21
109.25037331322611
 31
0.0
  0
LINE
  5
5ABC
  8
0
 10
119.8
 20
109.68852806583951
 30
0.0
 11
120.3
 21
109.25037331322611
 31
0.0
  0
LINE
  5
5ABD
  8
0
 10
120.3
 20
137.2478986802476
 30
0.0
 11
122.8
 21
137.2478986802476
 31
0.0
  0
LINE
  5
5ABE
  8
0
 10
119.8
 20
136.6902757313207
 30
0.0
 11
120.3
 21
137.2478986802476
 31
0.0
  0
LINE
  5
5ABF
  8
0
 10
120.3
 20
109.35210131975241
 30
0.0
 11
122.8
 21
109.35210131975241
 31
0.0
  0
LINE
  5
5AC0
  8
0
 10
120.3
 20
109.35210131975241
 30
0.0
 11
119.8
 21
109.9097242686793
 31
0.0
  0
LINE
  5
5AC5
  8
2
 10
115.3
 20
128.05000000000001
 30
0.0
 11
110.3
 21
128.05000000000001
 31
0.0
  0
LINE
  5
5AC6
  8
2
 10
110.3
 20
118.55
 30
0.0
 11
115.3
 21
118.55
 31
0.0
  0
LINE
  5
5AC7
  8
0
 10
120.3
 20
136.8559917953495
 30
0.0
 11
122.8
 21
136.8559917953495
 31
0.0
  0
LINE
  5
5AC8
  8
0
 10
120.3
 20
109.7440082046505
 30
0.0
 11
122.8
 21
109.7440082046505
 31
0.0
  0
LINE
  5
5AC9
  8
0
 10
120.3
 20
136.8559917953495
 30
0.0
 11
120.3
 21
136.688551989264
 31
0.0
  0
LINE
  5
5ACA
  8
0
 10
120.3
 20
136.8559917953495
 30
0.0
 11
119.8
 21
136.47514813667959
 31
0.0
  0
LINE
  5
5ACB
  8
0
 10
120.3
 20
109.911448010736
 30
0.0
 11
120.3
 21
109.7440082046505
 31
0.0
  0
LINE
  5
5ACC
  8
0
 10
119.8
 20
110.1248518633204
 30
0.0
 11
120.3
 21
109.7440082046505
 31
0.0
  0
LINE
  5
5ACD
  8
0
 10
120.3
 20
136.688551989264
 30
0.0
 11
122.8
 21
136.688551989264
 31
0.0
  0
LINE
  5
5ACE
  8
0
 10
119.8
 20
136.1110689555864
 30
0.0
 11
120.3
 21
136.688551989264
 31
0.0
  0
LINE
  5
5ACF
  8
0
 10
120.3
 20
109.911448010736
 30
0.0
 11
122.8
 21
109.911448010736
 31
0.0
  0
LINE
  5
5AD0
  8
0
 10
120.3
 20
109.911448010736
 30
0.0
 11
119.8
 21
110.4889310444136
 31
0.0
  0
LINE
  5
5AD4
  8
0
 10
119.8
 20
135.87779271682149
 30
0.0
 11
119.9333537917036
 21
135.87779271682149
 31
0.0
  0
LINE
  5
5AD8
  8
0
 10
119.8
 20
110.72220728317851
 30
0.0
 11
119.9333537917036
 21
110.72220728317851
 31
0.0
  0
LINE
  5
5AD9
  8
0
 10
120.3
 20
136.1098344256992
 30
0.0
 11
122.8
 21
136.1098344256992
 31
0.0
  0
LINE
  5
5ADA
  8
0
 10
120.3
 20
110.4901655743008
 30
0.0
 11
122.8
 21
110.4901655743008
 31
0.0
  0
LINE
  5
5ADB
  8
0
 10
120.3
 20
136.1098344256992
 30
0.0
 11
120.3
 21
135.87980190683371
 31
0.0
  0
LINE
  5
5ADC
  8
0
 10
120.3
 20
136.1098344256992
 30
0.0
 11
119.8
 21
135.79339625774989
 31
0.0
  0
LINE
  5
5ADD
  8
0
 10
120.3
 20
110.7201980931663
 30
0.0
 11
120.3
 21
110.4901655743008
 31
0.0
  0
LINE
  5
5ADE
  8
0
 10
119.8
 20
110.8066037422501
 30
0.0
 11
120.3
 21
110.4901655743008
 31
0.0
  0
LINE
  5
5ADF
  8
0
 10
120.3
 20
135.87980190683371
 30
0.0
 11
122.8
 21
135.87980190683371
 31
0.0
  0
LINE
  5
5AE0
  8
0
 10
119.8
 20
135.29321620468281
 30
0.0
 11
120.3
 21
135.87980190683371
 31
0.0
  0
LINE
  5
5AE1
  8
0
 10
120.3
 20
110.7201980931663
 30
0.0
 11
122.8
 21
110.7201980931663
 31
0.0
  0
LINE
  5
5AE2
  8
0
 10
120.3
 20
110.7201980931663
 30
0.0
 11
119.8
 21
111.3067837953171
 31
0.0
  0
LINE
  5
5AE6
  8
0
 10
119.8
 20
135.05626291197811
 30
0.0
 11
120.160258967191
 21
135.05626291197811
 31
0.0
  0
LINE
  5
5AEA
  8
0
 10
119.8
 20
111.5437370880218
 30
0.0
 11
120.160258967191
 21
111.5437370880218
 31
0.0
  0
LINE
  5
5AEB
  8
0
 10
120.3
 20
135.1250540778357
 30
0.0
 11
119.8
 21
134.87891604495189
 31
0.0
  0
LINE
  5
5AEC
  8
0
 10
119.8
 20
134.25195252792261
 30
0.0
 11
120.3
 21
134.83671391677819
 31
0.0
  0
LINE
  5
5AED
  8
0
 10
120.3
 20
135.1250540778357
 30
0.0
 11
122.8
 21
135.1250540778357
 31
0.0
  0
LINE
  5
5AEE
  8
0
 10
120.3
 20
135.1250540778357
 30
0.0
 11
120.3
 21
134.83671391677819
 31
0.0
  0
LINE
  5
5AEF
  8
0
 10
120.3
 20
134.83671391677819
 30
0.0
 11
122.8
 21
134.83671391677819
 31
0.0
  0
LINE
  5
5AF0
  8
0
 10
120.3
 20
111.4749459221643
 30
0.0
 11
122.8
 21
111.4749459221643
 31
0.0
  0
LINE
  5
5AF1
  8
0
 10
120.3
 20
111.7632860832217
 30
0.0
 11
122.8
 21
111.7632860832217
 31
0.0
  0
LINE
  5
5AF2
  8
0
 10
120.3
 20
111.7632860832217
 30
0.0
 11
120.3
 21
111.4749459221643
 31
0.0
  0
LINE
  5
5AF3
  8
0
 10
120.3
 20
111.7632860832217
 30
0.0
 11
119.8
 21
112.3480474720774
 31
0.0
  0
LINE
  5
5AF4
  8
0
 10
119.8
 20
111.7210839550481
 30
0.0
 11
120.3
 21
111.4749459221643
 31
0.0
  0
LINE
  5
5AF7
  8
0
 10
119.8
 20
134.01573617278831
 30
0.0
 11
122.8
 21
134.01573617278831
 31
0.0
  0
LINE
  5
5AFA
  8
0
 10
119.8
 20
112.5842638272117
 30
0.0
 11
122.8
 21
112.5842638272117
 31
0.0
  0
LINE
  5
5AFB
  8
0
 10
120.3
 20
133.91999534636361
 30
0.0
 11
119.8
 21
133.74874253438691
 31
0.0
  0
LINE
  5
5AFC
  8
0
 10
120.3
 20
133.91999534636361
 30
0.0
 11
122.8
 21
133.91999534636361
 31
0.0
  0
LINE
  5
5AFD
  8
0
 10
120.3
 20
133.91999534636361
 30
0.0
 11
120.3
 21
133.57871877475429
 31
0.0
  0
LINE
  5
5AFE
  8
0
 10
120.3
 20
133.57871877475429
 30
0.0
 11
122.8
 21
133.57871877475429
 31
0.0
  0
LINE
  5
5AFF
  8
0
 10
119.8
 20
133.0066746974571
 30
0.0
 11
120.3
 21
133.57871877475429
 31
0.0
  0
LINE
  5
5B00
  8
0
 10
120.3
 20
113.0212812252457
 30
0.0
 11
122.8
 21
113.0212812252457
 31
0.0
  0
LINE
  5
5B01
  8
0
 10
120.3
 20
112.6800046536364
 30
0.0
 11
122.8
 21
112.6800046536364
 31
0.0
  0
LINE
  5
5B02
  8
0
 10
120.3
 20
113.0212812252457
 30
0.0
 11
120.3
 21
112.6800046536364
 31
0.0
  0
LINE
  5
5B03
  8
0
 10
120.3
 20
113.0212812252457
 30
0.0
 11
119.8
 21
113.59332530254299
 31
0.0
  0
LINE
  5
5B04
  8
0
 10
119.8
 20
112.8512574656131
 30
0.0
 11
120.3
 21
112.6800046536364
 31
0.0
  0
LINE
  5
5B05
  8
0
 10
111.8
 20
136.75
 30
0.0
 11
110.3
 21
135.8839745962155
 31
0.0
  0
LINE
  5
5B06
  8
0
 10
110.3
 20
135.8839745962155
 30
0.0
 11
110.3
 21
125.3
 31
0.0
  0
LINE
  5
5B07
  8
0
 10
115.0
 20
125.3
 30
0.0
 11
110.3
 21
125.3
 31
0.0
  0
LINE
  5
5B09
  8
0
 10
110.3
 20
121.3
 30
0.0
 11
110.3
 21
110.7160254037844
 31
0.0
  0
LINE
  5
5B0A
  8
0
 10
110.3
 20
110.7160254037844
 30
0.0
 11
111.8
 21
109.84999999999999
 31
0.0
  0
LINE
  5
5B0B
  8
0
 10
115.0
 20
121.3
 30
0.0
 11
110.3
 21
121.3
 31
0.0
  0
LINE
  5
5B0E
  8
0
 10
119.8
 20
132.77559554365089
 30
0.0
 11
122.8
 21
132.77559554365089
 31
0.0
  0
LINE
  5
5B10
  8
0
 10
119.8
 20
113.8244044563491
 30
0.0
 11
122.8
 21
113.8244044563491
 31
0.0
  0
LINE
  5
5B11
  8
0
 10
120.3
 20
132.51710619539159
 30
0.0
 11
119.8
 21
132.42392872018641
 31
0.0
  0
LINE
  5
5B12
  8
0
 10
119.8
 20
131.58057988311171
 30
0.0
 11
120.3
 21
132.12925055003939
 31
0.0
  0
LINE
  5
5B13
  8
0
 10
120.3
 20
132.51710619539159
 30
0.0
 11
122.8
 21
132.51710619539159
 31
0.0
  0
LINE
  5
5B14
  8
0
 10
120.3
 20
132.51710619539159
 30
0.0
 11
120.3
 21
132.12925055003939
 31
0.0
  0
LINE
  5
5B15
  8
0
 10
120.3
 20
132.12925055003939
 30
0.0
 11
122.8
 21
132.12925055003939
 31
0.0
  0
LINE
  5
5B16
  8
0
 10
120.3
 20
114.0828938046084
 30
0.0
 11
122.8
 21
114.0828938046084
 31
0.0
  0
LINE
  5
5B17
  8
0
 10
120.3
 20
114.47074944996061
 30
0.0
 11
122.8
 21
114.47074944996061
 31
0.0
  0
LINE
  5
5B18
  8
0
 10
120.3
 20
114.47074944996061
 30
0.0
 11
120.3
 21
114.0828938046084
 31
0.0
  0
LINE
  5
5B19
  8
0
 10
120.3
 20
114.47074944996061
 30
0.0
 11
119.8
 21
115.0194201168883
 31
0.0
  0
LINE
  5
5B1A
  8
0
 10
119.8
 20
114.1760712798136
 30
0.0
 11
120.3
 21
114.0828938046084
 31
0.0
  0
LINE
  5
5B1C
  8
0
 10
119.8
 20
131.3589424980506
 30
0.0
 11
122.8
 21
131.3589424980506
 31
0.0
  0
LINE
  5
5B1E
  8
0
 10
119.8
 20
115.2410575019495
 30
0.0
 11
122.8
 21
115.2410575019495
 31
0.0
  0
LINE
  5
5B1F
  8
2
 10
115.0
 20
120.65000000000001
 30
0.0
 11
123.3
 21
120.65000000000001
 31
0.0
  0
LINE
  5
5B20
  8
2
 10
123.3
 20
125.95
 30
0.0
 11
115.0
 21
125.95
 31
0.0
  0
LINE
  5
5B21
  8
0
 10
120.3
 20
130.94251979543421
 30
0.0
 11
119.8
 21
130.92915337706489
 31
0.0
  0
LINE
  5
5B22
  8
0
 10
120.3
 20
130.94251979543421
 30
0.0
 11
122.8
 21
130.94251979543421
 31
0.0
  0
LINE
  5
5B23
  8
0
 10
120.3
 20
130.94251979543421
 30
0.0
 11
120.3
 21
130.51531009316091
 31
0.0
  0
LINE
  5
5B24
  8
0
 10
119.8
 20
129.79216660181629
 30
0.0
 11
122.8
 21
129.79216660181629
 31
0.0
  0
LINE
  5
5B25
  8
0
 10
120.3
 20
130.51531009316091
 30
0.0
 11
122.8
 21
130.51531009316091
 31
0.0
  0
LINE
  5
5B26
  8
0
 10
119.8
 20
130.0002335330029
 30
0.0
 11
120.3
 21
130.51531009316091
 31
0.0
  0
LINE
  5
5B27
  8
0
 10
119.8
 20
115.6708466229351
 30
0.0
 11
120.3
 21
115.6574802045658
 31
0.0
  0
LINE
  5
5B28
  8
0
 10
119.8
 20
116.8078333981837
 30
0.0
 11
122.8
 21
116.8078333981837
 31
0.0
  0
LINE
  5
5B29
  8
0
 10
120.3
 20
116.0846899068391
 30
0.0
 11
119.8
 21
116.5997664669971
 31
0.0
  0
LINE
  5
5B2A
  8
0
 10
120.3
 20
116.0846899068391
 30
0.0
 11
122.8
 21
116.0846899068391
 31
0.0
  0
LINE
  5
5B2B
  8
0
 10
120.3
 20
116.0846899068391
 30
0.0
 11
120.3
 21
115.6574802045658
 31
0.0
  0
LINE
  5
5B2C
  8
0
 10
120.3
 20
115.6574802045658
 30
0.0
 11
122.8
 21
115.6574802045658
 31
0.0
  0
LINE
  5
5B2D
  8
0
 10
119.8
 20
129.31920246030339
 30
0.0
 11
122.8
 21
129.31920246030339
 31
0.0
  0
LINE
  5
5B2E
  8
0
 10
119.8
 20
117.28079753969659
 30
0.0
 11
122.8
 21
117.28079753969659
 31
0.0
  0
LINE
  5
5B2F
  8
0
 10
120.3
 20
129.22556771189051
 30
0.0
 11
119.8
 21
129.29226134144119
 31
0.0
  0
LINE
  5
5B30
  8
0
 10
119.8
 20
117.3077386585587
 30
0.0
 11
120.3
 21
117.3744322881095
 31
0.0
  0
LINE
  5
5B31
  8
0
 10
119.8
 20
128.10445392544111
 30
0.0
 11
122.8
 21
128.10445392544111
 31
0.0
  0
LINE
  5
5B32
  8
0
 10
119.8
 20
128.29507450950291
 30
0.0
 11
120.3
 21
128.7669620611378
 31
0.0
  0
LINE
  5
5B33
  8
0
 10
120.3
 20
129.22556771189051
 30
0.0
 11
122.8
 21
129.22556771189051
 31
0.0
  0
LINE
  5
5B34
  8
0
 10
120.3
 20
129.22556771189051
 30
0.0
 11
120.3
 21
128.7669620611378
 31
0.0
  0
LINE
  5
5B35
  8
0
 10
120.3
 20
128.7669620611378
 30
0.0
 11
122.8
 21
128.7669620611378
 31
0.0
  0
LINE
  5
5B36
  8
0
 10
120.3
 20
117.8330379388622
 30
0.0
 11
120.3
 21
117.3744322881095
 31
0.0
  0
LINE
  5
5B37
  8
0
 10
120.3
 20
117.3744322881095
 30
0.0
 11
122.8
 21
117.3744322881095
 31
0.0
  0
LINE
  5
5B38
  8
0
 10
120.3
 20
117.8330379388622
 30
0.0
 11
122.8
 21
117.8330379388622
 31
0.0
  0
LINE
  5
5B39
  8
0
 10
119.8
 20
118.4955460745589
 30
0.0
 11
122.8
 21
118.4955460745589
 31
0.0
  0
LINE
  5
5B3A
  8
0
 10
120.3
 20
117.8330379388622
 30
0.0
 11
119.8
 21
118.3049254904971
 31
0.0
  0
LINE
  5
5B3B
  8
0
 10
111.8
 20
132.2570909974593
 30
0.0
 11
115.0
 21
132.2570909974593
 31
0.0
  0
LINE
  5
5B3C
  8
0
 10
115.0
 20
114.34290900254069
 30
0.0
 11
115.0
 21
132.2570909974593
 31
0.0
  0
LINE
  5
5B3D
  8
0
 10
115.0
 20
114.34290900254069
 30
0.0
 11
111.8
 21
114.34290900254069
 31
0.0
  0
LINE
  5
5B3E
  8
0
 10
111.8
 20
114.34290900254069
 30
0.0
 11
111.8
 21
109.84999999999999
 31
0.0
  0
LINE
  5
5B3F
  8
0
 10
111.8
 20
109.84999999999999
 30
0.0
 11
119.8
 21
109.84999999999999
 31
0.0
  0
LINE
  5
5B40
  8
0
 10
119.8
 20
136.75
 30
0.0
 11
111.8
 21
136.75
 31
0.0
  0
LINE
  5
5B41
  8
0
 10
111.8
 20
136.75
 30
0.0
 11
111.8
 21
132.2570909974593
 31
0.0
  0
LINE
  5
5B42
  8
0
 10
122.8
 20
109.8
 30
0.0
 11
123.3
 21
109.8
 31
0.0
  0
LINE
  5
5B43
  8
0
 10
123.3
 20
136.80000000000001
 30
0.0
 11
122.8
 21
136.80000000000001
 31
0.0
  0
LINE
  5
5B44
  8
0
 10
123.3
 20
136.80000000000001
 30
0.0
 11
123.3
 21
109.8
 31
0.0
  0
LINE
  5
5B45
  8
0
 10
119.8
 20
127.6025246007104
 30
0.0
 11
122.8
 21
127.6025246007104
 31
0.0
  0
LINE
  5
5B46
  8
0
 10
119.8
 20
118.9974753992896
 30
0.0
 11
122.8
 21
118.9974753992896
 31
0.0
  0
LINE
  5
5B47
  8
0
 10
120.3
 20
127.398233513479
 30
0.0
 11
119.8
 21
127.5437448148204
 31
0.0
  0
LINE
  5
5B48
  8
0
 10
119.8
 20
119.05625518517959
 30
0.0
 11
120.3
 21
119.201766486521
 31
0.0
  0
LINE
  5
5B49
  8
0
 10
120.3
 20
127.398233513479
 30
0.0
 11
122.8
 21
127.398233513479
 31
0.0
  0
LINE
  5
5B4A
  8
0
 10
120.3
 20
127.398233513479
 30
0.0
 11
120.3
 21
126.9167748698052
 31
0.0
  0
LINE
  5
5B4B
  8
0
 10
119.8
 20
126.3272433628109
 30
0.0
 11
122.8
 21
126.3272433628109
 31
0.0
  0
LINE
  5
5B4C
  8
0
 10
120.3
 20
126.9167748698052
 30
0.0
 11
122.8
 21
126.9167748698052
 31
0.0
  0
LINE
  5
5B4D
  8
0
 10
119.8
 20
126.4968666989347
 30
0.0
 11
120.3
 21
126.9167748698052
 31
0.0
  0
LINE
  5
5B4E
  8
0
 10
120.3
 20
119.6832251301948
 30
0.0
 11
120.3
 21
119.201766486521
 31
0.0
  0
LINE
  5
5B4F
  8
0
 10
120.3
 20
119.201766486521
 30
0.0
 11
122.8
 21
119.201766486521
 31
0.0
  0
LINE
  5
5B50
  8
0
 10
120.3
 20
119.6832251301948
 30
0.0
 11
122.8
 21
119.6832251301948
 31
0.0
  0
LINE
  5
5B51
  8
0
 10
119.8
 20
120.2727566371891
 30
0.0
 11
122.8
 21
120.2727566371891
 31
0.0
  0
LINE
  5
5B52
  8
0
 10
120.3
 20
119.6832251301948
 30
0.0
 11
119.8
 21
120.1031333010653
 31
0.0
  0
LINE
  5
5B53
  8
0
 10
119.8
 20
125.8056988484954
 30
0.0
 11
122.8
 21
125.8056988484954
 31
0.0
  0
LINE
  5
5B54
  8
0
 10
119.8
 20
120.7943011515046
 30
0.0
 11
122.8
 21
120.7943011515046
 31
0.0
  0
LINE
  5
5B55
  8
0
 10
120.3
 20
125.494556978867
 30
0.0
 11
119.8
 21
125.716175351773
 31
0.0
  0
LINE
  5
5B56
  8
0
 10
119.8
 20
120.88382464822701
 30
0.0
 11
120.3
 21
121.105443021133
 31
0.0
  0
LINE
  5
5B57
  8
0
 10
120.3
 20
125.494556978867
 30
0.0
 11
122.8
 21
125.494556978867
 31
0.0
  0
LINE
  5
5B58
  8
0
 10
120.3
 20
125.494556978867
 30
0.0
 11
120.3
 21
124.9992140058489
 31
0.0
  0
LINE
  5
5B59
  8
0
 10
119.8
 20
124.493640984096
 30
0.0
 11
122.8
 21
124.493640984096
 31
0.0
  0
LINE
  5
5B5A
  8
0
 10
120.3
 20
124.9992140058489
 30
0.0
 11
122.8
 21
124.9992140058489
 31
0.0
  0
LINE
  5
5B5B
  8
0
 10
119.8
 20
124.6391073104695
 30
0.0
 11
120.3
 21
124.9992140058489
 31
0.0
  0
LINE
  5
5B5C
  8
0
 10
122.8
 20
137.5815436159383
 30
0.0
 11
122.8
 21
109.01845638406169
 31
0.0
  0
LINE
  5
5B5D
  8
0
 10
119.8
 20
122.106359015904
 30
0.0
 11
122.8
 21
122.106359015904
 31
0.0
  0
LINE
  5
5B5E
  8
0
 10
120.3
 20
121.6007859941511
 30
0.0
 11
119.8
 21
121.9608926895304
 31
0.0
  0
LINE
  5
5B5F
  8
0
 10
120.3
 20
121.6007859941511
 30
0.0
 11
122.8
 21
121.6007859941511
 31
0.0
  0
LINE
  5
5B60
  8
0
 10
120.3
 20
121.6007859941511
 30
0.0
 11
120.3
 21
121.105443021133
 31
0.0
  0
LINE
  5
5B61
  8
0
 10
120.3
 20
121.105443021133
 30
0.0
 11
122.8
 21
121.105443021133
 31
0.0
  0
LINE
  5
5B62
  8
0
 10
119.8
 20
123.9621966676972
 30
0.0
 11
122.8
 21
123.9621966676972
 31
0.0
  0
LINE
  5
5B63
  8
0
 10
119.8
 20
109.50576023659811
 30
0.0
 11
119.8
 21
137.0942397634019
 31
0.0
  0
LINE
  5
5B64
  8
0
 10
119.8
 20
122.63780333230279
 30
0.0
 11
122.8
 21
122.63780333230279
 31
0.0
  0
LINE
  5
5B65
  8
0
 10
120.3
 20
123.55
 30
0.0
 11
122.8
 21
123.55
 31
0.0
  0
LINE
  5
5B66
  8
0
 10
120.3
 20
123.05
 30
0.0
 11
122.8
 21
123.05
 31
0.0
  0
LINE
  5
5B67
  8
0
 10
120.3
 20
123.55
 30
0.0
 11
120.3
 21
123.05
 31
0.0
  0
LINE
  5
5B68
  8
0
 10
120.3
 20
123.55
 30
0.0
 11
119.8
 21
123.8435971135014
 31
0.0
  0
LINE
  5
5B69
  8
0
 10
119.8
 20
122.75640288649861
 30
0.0
 11
120.3
 21
123.05
 31
0.0
  0
LINE
  5
5B6A
  8
2
 10
123.3
 20
126.3
 30
0.0
 11
115.3
 21
126.3
 31
0.0
  0
LINE
  5
5B6C
  8
1
 10
107.3
 20
123.3
 30
0.0
 11
126.3
 21
123.3
 31
0.0
  0
LINE
  5
5B6D
  8
1
 10
108.8
 20
114.3
 30
0.0
 11
124.8
 21
114.3
 31
0.0
  0
LINE
  5
5B6E
  8
1
 10
108.8
 20
132.30000000000001
 30
0.0
 11
124.8
 21
132.30000000000001
 31
0.0
  0
LINE
  5
5B70
  8
0
 10
37.276902009403777
 20
118.4955460745588
 30
0.0
 11
36.786282664515632
 21
117.8330379388622
 31
0.0
  0
ARC
  5
5B71
  8
0
 10
50.0000000000488
 20
123.3000000000213
 30
0.0
 40
14.30000000005322
 50
202.4765353705051
 51
204.4799863686253
  0
LINE
  5
5B72
  8
0
 10
36.985483209438769
 20
117.3744322881095
 30
0.0
 11
37.804541757610032
 21
117.28079753969659
 31
0.0
  0
LINE
  5
5B73
  8
0
 10
36.632821042544208
 20
125.8056988484954
 30
0.0
 11
35.869397759950012
 21
125.494556978867
 31
0.0
  0
LINE
  5
5B74
  8
0
 10
35.801314435401878
 20
124.9992140058489
 30
0.0
 11
36.45248283997816
 21
124.493640984096
 31
0.0
  0
ARC
  5
5B75
  8
0
 10
50.00000000005172
 20
123.29999999999281
 30
0.0
 40
14.30000000005222
 50
171.17218754441731
 51
173.17563854253871
  0
LINE
  5
5B76
  8
0
 10
36.416131052852052
 20
123.9621966676972
 30
0.0
 11
35.702185481689867
 21
123.55
 31
0.0
  0
LINE
  5
5B77
  8
0
 10
35.702185481689867
 20
123.05
 30
0.0
 11
36.416131052852052
 21
122.63780333230279
 31
0.0
  0
ARC
  5
5B78
  8
0
 10
50.000000000041211
 20
123.2999999999999
 30
0.0
 40
14.300000000041219
 50
178.99827450093889
 51
181.00172549906111
  0
LINE
  5
5B79
  8
0
 10
36.45248283997816
 20
122.106359015904
 30
0.0
 11
35.801314435401878
 21
121.6007859941511
 31
0.0
  0
LINE
  5
5B7A
  8
0
 10
35.869397759950012
 20
121.105443021133
 30
0.0
 11
36.632821042544208
 21
120.7943011515046
 31
0.0
  0
ARC
  5
5B7B
  8
0
 10
50.000000000064773
 20
123.30000000000889
 30
0.0
 40
14.30000000006538
 50
186.82436145746209
 51
188.82781245558181
  0
LINE
  5
5B7C
  8
0
 10
36.741199238908621
 20
120.2727566371891
 30
0.0
 11
36.164938036237572
 21
119.6832251301948
 31
0.0
  0
LINE
  5
5B7D
  8
0
 10
36.299836421816082
 20
119.2017664865209
 30
0.0
 11
37.098516284539933
 21
118.9974753992895
 31
0.0
  0
ARC
  5
5B7E
  8
0
 10
50.00000000004075
 20
123.30000000001149
 30
0.0
 40
14.30000000004236
 50
194.65044841398301
 51
196.65389941210509
  0
LINE
  5
5B7F
  8
0
 10
36.164938036237572
 20
126.9167748698051
 30
0.0
 11
36.741199238908621
 21
126.3272433628109
 31
0.0
  0
LINE
  5
5B80
  8
0
 10
37.098516284539933
 20
127.6025246007104
 30
0.0
 11
36.299836421816082
 21
127.398233513479
 31
0.0
  0
ARC
  5
5B81
  8
0
 10
50.000000000029381
 20
123.2999999999917
 30
0.0
 40
14.30000000003054
 50
163.34610058789411
 51
165.34955158601849
  0
LINE
  5
5B82
  8
0
 10
37.653773845440469
 20
130.51531009316091
 30
0.0
 11
38.049612022437877
 21
129.79216660181629
 31
0.0
  0
ARC
  5
5B83
  8
0
 10
50.000000000066727
 20
123.2999999999594
 30
0.0
 40
14.3000000000781
 50
147.69392667485471
 51
149.6973776729711
  0
LINE
  5
5B84
  8
0
 10
38.737745543042713
 20
130.92375396682931
 30
0.0
 11
37.91356582045816
 21
130.94251979543421
 31
0.0
  0
LINE
  5
5B85
  8
0
 10
37.804541757610032
 20
129.31920246030339
 30
0.0
 11
36.985483209438769
 21
129.22556771189051
 31
0.0
  0
ARC
  5
5B86
  8
0
 10
50.000000000037339
 20
123.2999999999838
 30
0.0
 40
14.300000000040709
 50
155.5200136313747
 51
157.52346462949609
  0
LINE
  5
5B87
  8
0
 10
36.786282664515632
 20
128.7669620611378
 30
0.0
 11
37.276902009403777
 21
128.10445392544111
 31
0.0
  0
ARC
  5
5B88
  8
0
 10
50.000000000051863
 20
123.3000000000315
 30
0.0
 40
14.30000000006067
 50
210.30262232702751
 51
212.30607332514629
  0
LINE
  5
5B89
  8
0
 10
37.913565820458189
 20
115.6574802045658
 30
0.0
 11
38.737745543042713
 21
115.6762460331707
 31
0.0
  0
LINE
  5
5B8A
  8
0
 10
38.049612022437877
 20
116.8078333981837
 30
0.0
 11
37.653773845440469
 21
116.084689906839
 31
0.0
  0
ARC
  5
5B8B
  8
0
 10
50.000000000023668
 20
123.3000000000191
 30
0.0
 40
14.30000000003044
 50
218.12870928354531
 51
220.1321602816702
  0
LINE
  5
5B8C
  8
0
 10
39.066795831830753
 20
114.0828938046084
 30
0.0
 11
39.880743820004767
 21
114.21371063835031
 31
0.0
  0
LINE
  5
5B8D
  8
0
 10
39.044935152491568
 20
115.2410575019494
 30
0.0
 11
38.751251859667747
 21
114.47074944996061
 31
0.0
  0
LINE
  5
5B8E
  8
0
 10
40.244330412875648
 20
113.8244044563491
 30
0.0
 11
40.058272768300583
 21
113.0212812252457
 31
0.0
  0
ARC
  5
5B8F
  8
0
 10
50.0000000000326
 20
123.3000000000348
 30
0.0
 40
14.30000000004771
 50
225.95479624006899
 51
227.95824723819149
  0
LINE
  5
5B90
  8
0
 10
40.42369075043964
 20
112.6800046536364
 30
0.0
 11
41.212244693232151
 21
112.9204356224178
 31
0.0
  0
LINE
  5
5B91
  8
0
 10
46.075001277925963
 20
136.3213050433402
 30
0.0
 11
45.447518649745291
 21
136.8559917953495
 31
0.0
  0
ARC
  5
5B92
  8
0
 10
50.000000000013472
 20
123.2999999999621
 30
0.0
 40
14.300000000040249
 50
108.5634918922437
 51
110.5669428903676
  0
LINE
  5
5B93
  8
0
 10
44.97638818868591
 20
136.688551989264
 30
0.0
 11
44.827077192469197
 21
135.87779271682149
 31
0.0
  0
ARC
  5
5B94
  8
0
 10
50.000000000019952
 20
123.2999999999614
 30
0.0
 40
14.300000000043481
 50
116.3895788487644
 51
118.3930298468859
  0
LINE
  5
5B95
  8
0
 10
43.200104119560017
 20
135.87980190683371
 30
0.0
 11
43.162582187371697
 21
135.05626291197811
 31
0.0
  0
LINE
  5
5B96
  8
0
 10
44.338491453219
 20
135.66556998179729
 30
0.0
 11
43.644046728761218
 21
136.1098344256992
 31
0.0
  0
LINE
  5
5B97
  8
0
 10
41.550489244789667
 20
134.83671391677819
 30
0.0
 11
41.625455339232097
 21
134.01573617278831
 31
0.0
  0
ARC
  5
5B98
  8
0
 10
50.000000000028479
 20
123.2999999999596
 30
0.0
 40
14.300000000049449
 50
124.21566580528889
 51
126.219116803407
  0
LINE
  5
5B99
  8
0
 10
42.707444820753032
 20
134.77948774805029
 30
0.0
 11
41.958974191294878
 21
135.1250540778357
 31
0.0
  0
LINE
  5
5B9A
  8
0
 10
40.058272768300583
 20
133.57871877475429
 30
0.0
 11
40.24433041287562
 21
132.77559554365089
 31
0.0
  0
ARC
  5
5B9B
  8
0
 10
50.000000000051386
 20
123.2999999999449
 30
0.0
 40
14.300000000075331
 50
132.04175276180871
 51
134.0452037599305
  0
LINE
  5
5B9C
  8
0
 10
41.212244693232151
 20
133.67956437758221
 30
0.0
 11
40.423690750439619
 21
133.91999534636361
 31
0.0
  0
LINE
  5
5B9D
  8
0
 10
39.880743820004739
 20
132.38628936164969
 30
0.0
 11
39.066795831830753
 21
132.51710619539159
 31
0.0
  0
ARC
  5
5B9E
  8
0
 10
50.000000000039449
 20
123.29999999996789
 30
0.0
 40
14.30000000005084
 50
139.86783971833131
 51
141.8712907164506
  0
LINE
  5
5B9F
  8
0
 10
38.751251859667747
 20
132.12925055003939
 30
0.0
 11
39.044935152491568
 21
131.3589424980506
 31
0.0
  0
ARC
  5
5BA0
  8
0
 10
50.000000000021203
 20
123.3000000000409
 30
0.0
 40
14.30000000004603
 50
241.60697015311399
 51
243.61042115123561
  0
LINE
  5
5BA1
  8
0
 10
43.644046728761218
 20
110.4901655743008
 30
0.0
 11
44.338491453219
 21
110.9344300182027
 31
0.0
  0
LINE
  5
5BA2
  8
0
 10
43.162582187371697
 20
111.5437370880218
 30
0.0
 11
43.200104119560052
 21
110.7201980931663
 31
0.0
  0
LINE
  5
5BA3
  8
0
 10
45.447518649745291
 20
109.7440082046505
 30
0.0
 11
46.075001277925992
 21
110.27869495665981
 31
0.0
  0
ARC
  5
5BA4
  8
0
 10
50.000000000016989
 20
123.3000000000475
 30
0.0
 40
14.300000000050471
 50
249.4330571096358
 51
251.43650810775631
  0
LINE
  5
5BA5
  8
0
 10
44.827077192469233
 20
110.72220728317851
 30
0.0
 11
44.97638818868591
 21
109.911448010736
 31
0.0
  0
LINE
  5
5BA6
  8
0
 10
41.625455339232133
 20
112.5842638272117
 30
0.0
 11
41.550489244789667
 21
111.7632860832217
 31
0.0
  0
ARC
  5
5BA7
  8
0
 10
50.000000000024272
 20
123.3000000000345
 30
0.0
 40
14.300000000042139
 50
233.7808831965892
 51
235.78433419471469
  0
LINE
  5
5BA8
  8
0
 10
41.958974191294878
 20
111.4749459221643
 30
0.0
 11
42.707444820753032
 21
111.82051225194959
 31
0.0
  0
LINE
  5
5BA9
  8
0
 10
49.733656934640742
 20
136.89739171207239
 30
0.0
 11
49.273699823727704
 21
137.5815436159383
 31
0.0
  0
LINE
  5
5BAA
  8
0
 10
48.774865439132441
 20
137.54742240925589
 30
0.0
 11
48.412351065793651
 21
136.807011914621
 31
0.0
  0
ARC
  5
5BAB
  8
0
 10
50.000000000003872
 20
123.29999999994359
 30
0.0
 40
14.3000000000565
 50
92.911317979201655
 51
94.914768977319895
  0
LINE
  5
5BAC
  8
0
 10
50.726300176272268
 20
137.5815436159383
 30
0.0
 11
50.266343065359223
 21
136.89739171207239
 31
0.0
  0
LINE
  5
5BAD
  8
0
 10
51.587648934206328
 20
136.807011914621
 30
0.0
 11
51.225134560867531
 21
137.54742240925589
 31
0.0
  0
ARC
  5
5BAE
  8
0
 10
49.999999999996191
 20
123.29999999994639
 30
0.0
 40
14.30000000005372
 50
85.085231022676822
 51
87.088682020798359
  0
LINE
  5
5BAF
  8
0
 10
47.884626402442393
 20
136.734477829181
 30
0.0
 11
47.335794684659113
 21
137.34962668677389
 31
0.0
  0
ARC
  5
5BB0
  8
0
 10
50.000000000013891
 20
123.29999999993299
 30
0.0
 40
14.30000000006838
 50
100.7374049357242
 51
102.7408559338421
  0
LINE
  5
5BB1
  8
0
 10
46.846252640817958
 20
137.2478986802476
 30
0.0
 11
46.587933961925181
 21
136.46502204144821
 31
0.0
  0
LINE
  5
5BB2
  8
0
 10
47.335794684659163
 20
109.25037331322611
 30
0.0
 11
47.884626402442393
 21
109.86552217081901
 31
0.0
  0
ARC
  5
5BB3
  8
0
 10
50.000000000006359
 20
123.3000000000312
 30
0.0
 40
14.300000000031829
 50
257.25914406615789
 51
259.26259506427908
  0
LINE
  5
5BB4
  8
0
 10
46.587933961925209
 20
110.1349779585518
 30
0.0
 11
46.846252640817987
 21
109.35210131975241
 31
0.0
  0
LINE
  5
5BB5
  8
0
 10
48.412351065793672
 20
109.79298808537899
 30
0.0
 11
48.774865439132469
 21
109.05257759074409
 31
0.0
  0
ARC
  5
5BB6
  8
0
 10
50.000000000003013
 20
123.3000000000457
 30
0.0
 40
14.300000000045809
 50
265.08523102268009
 51
267.08868202080163
  0
LINE
  5
5BB7
  8
0
 10
49.273699823727732
 20
109.01845638406169
 30
0.0
 11
49.733656934640742
 21
109.7026082879276
 31
0.0
  0
ARC
  5
5BB8
  8
0
 10
49.999999999996703
 20
123.3000000000477
 30
0.0
 40
14.30000000004784
 50
272.91131797919837
 51
274.91476897731991
  0
LINE
  5
5BB9
  8
0
 10
51.225134560867559
 20
109.05257759074409
 30
0.0
 11
51.587648934206349
 21
109.79298808537899
 31
0.0
  0
LINE
  5
5BBA
  8
0
 10
50.266343065359251
 20
109.7026082879276
 30
0.0
 11
50.726300176272296
 21
109.01845638406169
 31
0.0
  0
LINE
  5
5BBB
  8
0
 10
53.153747359182027
 20
109.35210131975241
 30
0.0
 11
53.412066038074776
 21
110.1349779585518
 31
0.0
  0
ARC
  5
5BBC
  8
0
 10
49.999999999988603
 20
123.30000000005521
 30
0.0
 40
14.30000000005632
 50
280.73740493572421
 51
282.74085593384211
  0
LINE
  5
5BBD
  8
0
 10
52.115373597557607
 20
109.86552217081901
 30
0.0
 11
52.664205315340887
 21
109.25037331322611
 31
0.0
  0
ARC
  5
5BBE
  8
0
 10
49.999999999989761
 20
123.2999999999508
 30
0.0
 40
14.300000000050259
 50
77.259144066157916
 51
79.262595064279139
  0
LINE
  5
5BBF
  8
0
 10
52.664205315340887
 20
137.34962668677389
 30
0.0
 11
52.115373597557607
 21
136.734477829181
 31
0.0
  0
LINE
  5
5BC0
  8
0
 10
53.412066038074776
 20
136.46502204144821
 30
0.0
 11
53.153747359182013
 21
137.2478986802476
 31
0.0
  0
LINE
  5
5BC1
  8
0
 10
58.041025808705122
 20
135.1250540778357
 30
0.0
 11
57.292555179246961
 21
134.77948774805029
 31
0.0
  0
LINE
  5
5BC2
  8
0
 10
58.374544660767867
 20
134.01573617278831
 30
0.0
 11
58.449510755210298
 21
134.83671391677819
 31
0.0
  0
ARC
  5
5BC3
  8
0
 10
49.999999999972943
 20
123.2999999999618
 30
0.0
 40
14.30000000004685
 50
53.780883196589208
 51
55.784334194711121
  0
LINE
  5
5BC4
  8
0
 10
59.576309249560381
 20
133.91999534636361
 30
0.0
 11
58.787755306767849
 21
133.67956437758221
 31
0.0
  0
LINE
  5
5BC5
  8
0
 10
59.75566958712438
 20
132.77559554365089
 30
0.0
 11
59.941727231699417
 21
133.57871877475429
 31
0.0
  0
ARC
  5
5BC6
  8
0
 10
49.99999999996578
 20
123.2999999999633
 30
0.0
 40
14.30000000005016
 50
45.954796240069307
 51
47.958247238191653
  0
ARC
  5
5BC7
  8
0
 10
49.999999999970008
 20
123.2999999999422
 30
0.0
 40
14.30000000006509
 50
61.606970153114162
 51
63.610421151235592
  0
LINE
  5
5BC8
  8
0
 10
56.355953271238768
 20
136.1098344256992
 30
0.0
 11
55.661508546780958
 21
135.66556998179729
 31
0.0
  0
LINE
  5
5BC9
  8
0
 10
56.837417812628303
 20
135.05626291197811
 30
0.0
 11
56.799895880439919
 21
135.87980190683371
 31
0.0
  0
ARC
  5
5BCA
  8
0
 10
49.999999999967912
 20
123.3000000000619
 30
0.0
 40
14.300000000069719
 50
296.38957884876788
 51
298.3930298468859
  0
LINE
  5
5BCB
  8
0
 10
56.799895880439941
 20
110.7201980931663
 30
0.0
 11
56.837417812628303
 21
111.5437370880218
 31
0.0
  0
LINE
  5
5BCC
  8
0
 10
55.661508546780993
 20
110.9344300182027
 30
0.0
 11
56.355953271238768
 21
110.4901655743008
 31
0.0
  0
LINE
  5
5BCD
  8
0
 10
55.02361181131409
 20
109.911448010736
 30
0.0
 11
55.172922807530789
 21
110.72220728317851
 31
0.0
  0
LINE
  5
5BCE
  8
0
 10
53.924998722074037
 20
110.27869495665981
 30
0.0
 11
54.552481350254702
 21
109.7440082046505
 31
0.0
  0
ARC
  5
5BCF
  8
0
 10
49.999999999982919
 20
123.300000000048
 30
0.0
 40
14.300000000050909
 50
288.56349189224369
 51
290.5669428903642
  0
ARC
  5
5BD0
  8
0
 10
49.99999999998127
 20
123.2999999999476
 30
0.0
 40
14.300000000055659
 50
69.433057109635769
 51
71.43650810775631
  0
LINE
  5
5BD1
  8
0
 10
54.552481350254681
 20
136.8559917953495
 30
0.0
 11
53.924998722074008
 21
136.3213050433402
 31
0.0
  0
LINE
  5
5BD2
  8
0
 10
55.172922807530767
 20
135.87779271682149
 30
0.0
 11
55.02361181131409
 21
136.688551989264
 31
0.0
  0
ARC
  5
5BD3
  8
0
 10
49.999999999974449
 20
123.30000000003621
 30
0.0
 40
14.30000000004433
 50
304.21566580528889
 51
306.21911680341083
  0
LINE
  5
5BD4
  8
0
 10
58.449510755210319
 20
111.7632860832217
 30
0.0
 11
58.374544660767889
 21
112.5842638272117
 31
0.0
  0
LINE
  5
5BD5
  8
0
 10
57.292555179246961
 20
111.82051225194959
 30
0.0
 11
58.041025808705122
 21
111.4749459221643
 31
0.0
  0
ARC
  5
5BD6
  8
0
 10
49.999999999968061
 20
123.3000000000342
 30
0.0
 40
14.30000000004677
 50
312.04175276180831
 51
314.04520375993093
  0
LINE
  5
5BD7
  8
0
 10
59.941727231699417
 20
113.0212812252457
 30
0.0
 11
59.75566958712438
 21
113.8244044563491
 31
0.0
  0
LINE
  5
5BD8
  8
0
 10
58.78775530676787
 20
112.9204356224178
 30
0.0
 11
59.576309249560381
 21
112.6800046536364
 31
0.0
  0
LINE
  5
5BD9
  8
0
 10
60.119256179995261
 20
114.21371063835031
 30
0.0
 11
60.933204168169262
 21
114.0828938046084
 31
0.0
  0
LINE
  5
5BDA
  8
0
 10
61.248748140332253
 20
114.47074944996061
 30
0.0
 11
60.955064847508417
 21
115.2410575019495
 31
0.0
  0
ARC
  5
5BDB
  8
0
 10
49.999999999963393
 20
123.3000000000298
 30
0.0
 40
14.30000000004719
 50
319.86783971833131
 51
321.87129071645057
  0
LINE
  5
5BDC
  8
0
 10
62.346226154559531
 20
116.0846899068391
 30
0.0
 11
61.950387977562109
 21
116.8078333981837
 31
0.0
  0
LINE
  5
5BDD
  8
0
 10
61.262254456957287
 20
115.6762460331707
 30
0.0
 11
62.08643417954184
 21
115.6574802045658
 31
0.0
  0
ARC
  5
5BDE
  8
0
 10
49.999999999946219
 20
123.3000000000327
 30
0.0
 40
14.300000000062891
 50
327.69392667485369
 51
329.69737767297249
  0
LINE
  5
5BDF
  8
0
 10
63.014516790561231
 20
129.22556771189051
 30
0.0
 11
62.195458242389982
 21
129.31920246030339
 31
0.0
  0
LINE
  5
5BE0
  8
0
 10
62.723097990596209
 20
128.10445392544111
 30
0.0
 11
63.213717335484347
 21
128.7669620611378
 31
0.0
  0
ARC
  5
5BE1
  8
0
 10
49.999999999964672
 20
123.29999999998461
 30
0.0
 40
14.300000000038519
 50
22.476535370503871
 51
24.479986368626712
  0
LINE
  5
5BE2
  8
0
 10
61.950387977562109
 20
129.79216660181629
 30
0.0
 11
62.346226154559531
 21
130.51531009316091
 31
0.0
  0
LINE
  5
5BE3
  8
0
 10
62.086434179541811
 20
130.94251979543421
 30
0.0
 11
61.262254456957287
 21
130.92375396682931
 31
0.0
  0
ARC
  5
5BE4
  8
0
 10
49.99999999995805
 20
123.2999999999744
 30
0.0
 40
14.300000000049129
 50
30.302622327027489
 51
32.306073325147722
  0
ARC
  5
5BE5
  8
0
 10
49.999999999963869
 20
123.29999999997069
 30
0.0
 40
14.3000000000465
 50
38.12870928354679
 51
40.132160281668668
  0
LINE
  5
5BE6
  8
0
 10
60.933204168169262
 20
132.51710619539159
 30
0.0
 11
60.119256179995233
 21
132.38628936164969
 31
0.0
  0
LINE
  5
5BE7
  8
0
 10
60.955064847508417
 20
131.3589424980506
 30
0.0
 11
61.248748140332253
 21
132.12925055003939
 31
0.0
  0
ARC
  5
5BE8
  8
0
 10
49.999999999944123
 20
123.2999999999962
 30
0.0
 40
13.60000000005601
 50
2.7908883904229489
 51
5.0351985660984706
  0
ARC
  5
5BE9
  8
0
 10
49.999999999964963
 20
123.30000000002489
 30
0.0
 40
13.60000000004295
 50
323.66045360781209
 51
325.90476378349172
  0
ARC
  5
5BEA
  8
0
 10
49.999999999945771
 20
123.30000000002811
 30
0.0
 40
13.600000000061071
 50
331.48654056433662
 51
333.73085074001148
  0
LINE
  5
5BEB
  8
0
 10
62.901483715460067
 20
118.9974753992896
 30
0.0
 11
63.700163578183918
 21
119.201766486521
 31
0.0
  0
LINE
  5
5BEC
  8
0
 10
63.54751716002184
 20
124.493640984096
 30
0.0
 11
64.198685564598122
 21
124.9992140058489
 31
0.0
  0
ARC
  5
5BED
  8
0
 10
49.999999999937359
 20
123.29999999998699
 30
0.0
 40
13.600000000063959
 50
10.61697534694501
 51
12.861285522619649
  0
LINE
  5
5BEE
  8
0
 10
63.258800761091379
 20
126.3272433628109
 30
0.0
 11
63.835061963762421
 21
126.9167748698052
 31
0.0
  0
LINE
  5
5BEF
  8
0
 10
62.195458242389982
 20
117.28079753969659
 30
0.0
 11
63.014516790561231
 21
117.3744322881095
 31
0.0
  0
LINE
  5
5BF0
  8
0
 10
64.130602240049996
 20
125.494556978867
 30
0.0
 11
63.367178957455792
 21
125.8056988484954
 31
0.0
  0
LINE
  5
5BF1
  8
0
 10
64.297814518310133
 20
123.55
 30
0.0
 11
63.583868947147948
 21
123.9621966676972
 31
0.0
  0
LINE
  5
5BF2
  8
0
 10
63.213717335484382
 20
117.8330379388622
 30
0.0
 11
62.723097990596209
 21
118.4955460745589
 31
0.0
  0
ARC
  5
5BF3
  8
0
 10
49.99999999995913
 20
123.30000000001461
 30
0.0
 40
13.60000000004338
 50
339.31262752085632
 51
341.55693769653442
  0
LINE
  5
5BF4
  8
0
 10
63.835061963762421
 20
119.6832251301948
 30
0.0
 11
63.258800761091379
 21
120.2727566371891
 31
0.0
  0
ARC
  5
5BF5
  8
0
 10
49.999999999947811
 20
123.3000000000108
 30
0.0
 40
13.60000000005328
 50
347.13871447737961
 51
349.38302465305583
  0
LINE
  5
5BF6
  8
0
 10
63.367178957455792
 20
120.7943011515046
 30
0.0
 11
64.130602240049996
 21
121.105443021133
 31
0.0
  0
LINE
  5
5BF7
  8
0
 10
64.198685564598122
 20
121.6007859941511
 30
0.0
 11
63.54751716002184
 21
122.106359015904
 31
0.0
  0
ARC
  5
5BF8
  8
0
 10
49.999999999939291
 20
123.3000000000041
 30
0.0
 40
13.60000000006082
 50
354.96480143390153
 51
357.20911160957712
  0
LINE
  5
5BF9
  8
0
 10
63.583868947147948
 20
122.63780333230279
 30
0.0
 11
64.297814518310133
 21
123.05
 31
0.0
  0
ARC
  5
5BFA
  8
0
 10
49.999999999942013
 20
123.29999999997
 30
0.0
 40
13.600000000065259
 50
26.269149259988541
 51
28.513459435663471
  0
ARC
  5
5BFB
  8
0
 10
49.999999999946958
 20
123.29999999996249
 30
0.0
 40
13.60000000006492
 50
34.095236216511474
 51
36.339546392184673
  0
LINE
  5
5BFC
  8
0
 10
63.700163578183918
 20
127.398233513479
 30
0.0
 11
62.901483715460067
 21
127.6025246007104
 31
0.0
  0
ARC
  5
5BFD
  8
0
 10
49.999999999947221
 20
123.2999999999812
 30
0.0
 40
13.600000000055999
 50
18.443062303466249
 51
20.687372479141771
  0
ARC
  5
5BFE
  8
0
 10
50.0
 20
123.2999999999367
 30
0.0
 40
13.60000000006322
 50
88.877844912162942
 51
91.122155087837044
  0
ARC
  5
5C00
  8
0
 10
50.000000000005457
 20
123.29999999995989
 30
0.0
 40
13.600000000040501
 50
96.703931868683014
 51
98.948242044358935
  0
ARC
  5
5C02
  8
0
 10
50.000000000013301
 20
123.2999999999526
 30
0.0
 40
13.60000000004924
 50
104.5300188252061
 51
106.7743290008833
  0
ARC
  5
5C04
  8
0
 10
50.000000000025288
 20
123.2999999999417
 30
0.0
 40
13.60000000006351
 50
112.3561057817285
 51
114.6004159574026
  0
ARC
  5
5C06
  8
0
 10
50.000000000026937
 20
123.2999999999557
 30
0.0
 40
13.600000000051811
 50
120.1821927382466
 51
122.4265029139254
  0
ARC
  5
5C08
  8
0
 10
50.000000000030731
 20
123.2999999999624
 30
0.0
 40
13.60000000004851
 50
128.00827969476899
 51
130.2525898704493
  0
ARC
  5
5C0A
  8
0
 10
50.00000000002192
 20
123.29999999997951
 30
0.0
 40
13.600000000030031
 50
135.834366651289
 51
138.07867682697099
  0
ARC
  5
5C0C
  8
0
 10
50.00000000005241
 20
123.29999999996301
 30
0.0
 40
13.60000000006413
 50
143.6604536078153
 51
145.90476378349021
  0
ARC
  5
5C0E
  8
0
 10
50.000000000052637
 20
123.2999999999727
 30
0.0
 40
13.60000000005928
 50
151.48654056433651
 51
153.73085074001139
  0
ARC
  5
5C10
  8
0
 10
50.000000000066557
 20
123.29999999997639
 30
0.0
 40
13.60000000007062
 50
159.31262752085951
 51
161.55693769653291
  0
ARC
  5
5C12
  8
0
 10
50.000000000065199
 20
123.2999999999865
 30
0.0
 40
13.60000000006656
 50
167.13871447738029
 51
169.383024653055
  0
ARC
  5
5C14
  8
0
 10
50.000000000046072
 20
123.2999999999969
 30
0.0
 40
13.600000000046171
 50
174.9648014339007
 51
177.20911160957789
  0
ARC
  5
5C16
  8
0
 10
50.000000000057518
 20
123.30000000000391
 30
0.0
 40
13.60000000005763
 50
182.79088839042291
 51
185.03519856609839
  0
ARC
  5
5C18
  8
0
 10
50.000000000063352
 20
123.3000000000132
 30
0.0
 40
13.6000000000647
 50
190.616975346945
 51
192.8612855226196
  0
ARC
  5
5C1A
  8
0
 10
50.00000000007941
 20
123.30000000002821
 30
0.0
 40
13.60000000008427
 50
198.44306230346811
 51
200.6873724791397
  0
ARC
  5
5C1C
  8
0
 10
50.000000000058613
 20
123.30000000003039
 30
0.0
 40
13.60000000006602
 50
206.26914925998909
 51
208.51345943566349
  0
ARC
  5
5C1E
  8
0
 10
50.000000000054683
 20
123.30000000003869
 30
0.0
 40
13.600000000066951
 50
214.09523621651149
 51
216.33954639218479
  0
ARC
  5
5C20
  8
0
 10
50.00000000004281
 20
123.30000000004
 30
0.0
 40
13.60000000005858
 50
221.92132317303211
 51
224.16563334870671
  0
ARC
  5
5C22
  8
0
 10
50.000000000039897
 20
123.3000000000491
 30
0.0
 40
13.60000000006327
 50
229.74741012955451
 51
231.9917203052309
  0
ARC
  5
5C24
  8
0
 10
50.000000000020293
 20
123.30000000003329
 30
0.0
 40
13.600000000039
 50
237.57349708607441
 51
239.8178072617535
  0
ARC
  5
5C26
  8
0
 10
50.00000000003007
 20
123.3000000000692
 30
0.0
 40
13.60000000007545
 50
245.3995840425973
 51
247.6438942182715
  0
ARC
  5
5C28
  8
0
 10
50.000000000015483
 20
123.30000000005541
 30
0.0
 40
13.600000000057481
 50
253.22567099911669
 51
255.4699811747939
  0
ARC
  5
5C2A
  8
0
 10
50.000000000009607
 20
123.3000000000705
 30
0.0
 40
13.600000000071169
 50
261.05175795564111
 51
263.29606813131369
  0
ARC
  5
5C2C
  8
0
 10
50.0
 20
123.30000000005489
 30
0.0
 40
13.60000000005488
 50
268.87784491216291
 51
271.12215508783709
  0
ARC
  5
5C2E
  8
0
 10
49.999999999995062
 20
123.30000000003631
 30
0.0
 40
13.60000000003663
 50
276.70393186868313
 51
278.94824204436219
  0
ARC
  5
5C30
  8
0
 10
49.999999999983572
 20
123.3000000000589
 30
0.0
 40
13.600000000061099
 50
284.53001882520613
 51
286.7743290008799
  0
ARC
  5
5C32
  8
0
 10
49.999999999979387
 20
123.3000000000474
 30
0.0
 40
13.600000000051651
 50
292.3561057817285
 51
294.60041595740279
  0
ARC
  5
5C34
  8
0
 10
49.999999999976467
 20
123.30000000003869
 30
0.0
 40
13.60000000004533
 50
300.18219273824661
 51
302.42650291392539
  0
ARC
  5
5C36
  8
0
 10
49.999999999969098
 20
123.3000000000378
 30
0.0
 40
13.60000000004883
 50
308.00827969476899
 51
310.25258987044572
  0
ARC
  5
5C38
  8
0
 10
49.999999999973561
 20
123.3000000000247
 30
0.0
 40
13.60000000003614
 50
315.83436665129273
 51
318.07867682697059
  0
ARC
  5
5C3E
  8
0
 10
49.999999999943981
 20
123.2999999999475
 30
0.0
 40
13.600000000076751
 50
41.921323173034011
 51
44.16563334870672
  0
ARC
  5
5C40
  8
0
 10
49.999999999956863
 20
123.29999999994681
 30
0.0
 40
13.60000000006851
 50
49.747410129554559
 51
51.991720305230949
  0
ARC
  5
5C42
  8
0
 10
49.999999999963869
 20
123.2999999999405
 30
0.0
 40
13.600000000069601
 50
57.57349708607827
 51
59.817807261749742
  0
ARC
  5
5C44
  8
0
 10
49.999999999976467
 20
123.299999999946
 30
0.0
 40
13.600000000058859
 50
65.399584042597255
 51
67.643894218271456
  0
ARC
  5
5C46
  8
0
 10
49.999999999981412
 20
123.2999999999337
 30
0.0
 40
13.60000000006886
 50
73.225670999120084
 51
75.469981174793887
  0
ARC
  5
5C48
  8
0
 10
49.999999999995161
 20
123.29999999996519
 30
0.0
 40
13.600000000035079
 50
81.051757955637797
 51
83.296068131316972
  0
ARC
  5
5C4A
  8
0
 10
49.999999999960458
 20
123.30000000001711
 30
0.0
 40
14.30000000004307
 50
335.52001363137481
 51
337.52346462949612
  0
ARC
  5
5C4C
  8
0
 10
49.999999999928583
 20
123.30000000001991
 30
0.0
 40
14.300000000074149
 50
343.34610058789781
 51
345.34955158601548
  0
ARC
  5
5C4E
  8
0
 10
49.99999999994975
 20
123.3000000000069
 30
0.0
 40
14.3000000000507
 50
351.1721875444174
 51
353.17563854253871
  0
ARC
  5
5C50
  8
0
 10
49.999999999952308
 20
123.3
 30
0.0
 40
14.300000000047699
 50
358.99827450093892
 51
1.001725499061108
  0
ARC
  5
5C52
  8
0
 10
49.999999999962967
 20
123.2999999999948
 30
0.0
 40
14.300000000037381
 50
6.8243614574605012
 51
8.8278124555834534
  0
ARC
  5
5C54
  8
0
 10
49.999999999959577
 20
123.2999999999886
 30
0.0
 40
14.30000000004198
 50
14.65044841398308
 51
16.653899412105108
  0
CIRCLE
  5
5C56
  8
0
 10
50.0
 20
123.3
 30
0.0
 40
2.5
  0
CIRCLE
  5
5C57
  8
0
 10
59.0
 20
123.3
 30
0.0
 40
2.6500000000000008
  0
CIRCLE
  5
5C58
  8
0
 10
41.0
 20
123.3
 30
0.0
 40
2.649999999999999
  0
CIRCLE
  5
5C5B
  8
0
 10
50.0
 20
132.30000000000001
 30
0.0
 40
2.4999999999999978
  0
ARC
  5
5C5C
  8
0
 10
35.519999999999939
 20
123.2999999999999
 30
0.0
 40
10.000000000000069
 50
11.536959032815901
 51
63.59965717033554
  0
ARC
  5
5C5E
  8
0
 10
50.0
 20
123.3
 30
0.0
 40
12.58397459621554
 50
42.65349916763968
 51
137.34650083236031
  0
LINE
  5
5C5F
  8
0
 10
45.691578015096461
 20
125.3
 30
0.0
 11
45.317958971132718
 21
125.3
 31
0.0
  0
LINE
  5
5C60
  8
0
 10
54.682041028867268
 20
125.3
 30
0.0
 11
54.308421984903532
 21
125.3
 31
0.0
  0
ARC
  5
5C61
  8
0
 10
64.480000000000103
 20
123.3
 30
0.0
 40
10.00000000000002
 50
116.40034282966489
 51
168.4630409671845
  0
CIRCLE
  5
5C65
  8
0
 10
50.0
 20
114.3
 30
0.0
 40
2.5
  0
ARC
  5
5C66
  8
0
 10
64.47999999999999
 20
123.3
 30
0.0
 40
9.9999999999999858
 50
191.53695903281539
 51
243.5996571703356
  0
LINE
  5
5C67
  8
0
 10
54.308421984903532
 20
121.3
 30
0.0
 11
54.682041028867268
 21
121.3
 31
0.0
  0
LINE
  5
5C68
  8
0
 10
45.317958971132718
 20
121.3
 30
0.0
 11
45.691578015096461
 21
121.3
 31
0.0
  0
ARC
  5
5C69
  8
0
 10
35.519999999999968
 20
123.3
 30
0.0
 40
10.00000000000003
 50
296.4003428296644
 51
348.46304096718387
  0
ARC
  5
5C6A
  8
0
 10
50.0
 20
123.3
 30
0.0
 40
12.58397459621554
 50
222.6534991676395
 51
317.34650083236028
  0
LINE
  5
5C6D
  8
1
 10
67.300000000000011
 20
123.3
 30
0.0
 11
32.699999999999989
 21
123.3
 31
0.0
  0
LINE
  5
5C6E
  8
1
 10
59.0
 20
119.15000000000001
 30
0.0
 11
59.0
 21
127.45
 31
0.0
  0
LINE
  5
5C6F
  8
1
 10
41.0
 20
119.15000000000001
 30
0.0
 11
41.0
 21
127.45
 31
0.0
  0
LINE
  5
5C70
  8
1
 10
54.0
 20
132.30000000000001
 30
0.0
 11
46.0
 21
132.30000000000001
 31
0.0
  0
LINE
  5
5C71
  8
1
 10
54.0
 20
114.3
 30
0.0
 11
46.0
 21
114.3
 31
0.0
  0
CIRCLE
  5
5C72
  8
0
 10
50.0
 20
123.3
 30
0.0
 40
13.450000000000021
  0
LINE
  5
5C73
  8
0
 10
64.300000000000011
 20
50.5
 30
0.0
 11
64.300000000000011
 21
53.0
 31
0.0
  0
LINE
  5
5C74
  8
0
 10
35.699999999999989
 20
53.0
 30
0.0
 11
35.699999999999989
 21
50.5
 31
0.0
  0
LINE
  5
5C75
  8
0
 10
64.300000000000011
 20
53.0
 30
0.0
 11
63.800000000000011
 21
53.5
 31
0.0
  0
LINE
  5
5C76
  8
0
 10
64.300000000000011
 20
53.0
 30
0.0
 11
64.297814518310133
 21
53.0
 31
0.0
  0
LINE
  5
5C77
  8
0
 10
35.702185481689867
 20
53.0
 30
0.0
 11
35.699999999999989
 21
53.0
 31
0.0
  0
LINE
  5
5C78
  8
0
 10
36.199999999999989
 20
53.5
 30
0.0
 11
35.699999999999989
 21
53.0
 31
0.0
  0
LINE
  5
5C79
  8
0
 10
64.297814518310133
 20
53.0
 30
0.0
 11
64.297814518310133
 21
50.5
 31
0.0
  0
LINE
  5
5C7A
  8
0
 10
63.789289400770173
 20
53.5
 30
0.0
 11
64.297814518310133
 21
53.0
 31
0.0
  0
LINE
  5
5C7B
  8
0
 10
35.702185481689867
 20
53.0
 30
0.0
 11
35.702185481689867
 21
50.5
 31
0.0
  0
LINE
  5
5C7C
  8
0
 10
35.702185481689867
 20
53.0
 30
0.0
 11
36.210710599229827
 21
53.5
 31
0.0
  0
LINE
  5
5C81
  8
2
 10
54.682041028867268
 20
58.300000000000011
 30
0.0
 11
54.682041028867268
 21
63.0
 31
0.0
  0
LINE
  5
5C82
  8
2
 10
54.308421984903532
 20
63.0
 30
0.0
 11
54.308421984903532
 21
58.300000000000011
 31
0.0
  0
LINE
  5
5C83
  8
2
 10
45.317958971132718
 20
58.300000000000011
 30
0.0
 11
45.317958971132718
 21
63.0
 31
0.0
  0
LINE
  5
5C84
  8
2
 10
45.691578015096461
 20
58.300000000000011
 30
0.0
 11
45.691578015096461
 21
63.0
 31
0.0
  0
LINE
  5
5C85
  8
0
 10
64.198685564598122
 20
53.0
 30
0.0
 11
64.198685564598122
 21
50.5
 31
0.0
  0
LINE
  5
5C86
  8
0
 10
35.801314435401878
 20
53.0
 30
0.0
 11
35.801314435401878
 21
50.5
 31
0.0
  0
LINE
  5
5C87
  8
0
 10
64.198685564598122
 20
53.0
 30
0.0
 11
64.130602240049996
 21
53.0
 31
0.0
  0
LINE
  5
5C88
  8
0
 10
64.198685564598122
 20
53.0
 30
0.0
 11
63.734875012574634
 21
53.5
 31
0.0
  0
LINE
  5
5C89
  8
0
 10
35.869397759950012
 20
53.0
 30
0.0
 11
35.801314435401878
 21
53.0
 31
0.0
  0
LINE
  5
5C8A
  8
0
 10
36.265124987425366
 20
53.5
 30
0.0
 11
35.801314435401878
 21
53.0
 31
0.0
  0
LINE
  5
5C8D
  8
0
 10
64.130602240049996
 20
53.0
 30
0.0
 11
64.130602240049996
 21
50.5
 31
0.0
  0
LINE
  5
5C8E
  8
0
 10
63.586835417766878
 20
53.5
 30
0.0
 11
64.130602240049996
 21
53.0
 31
0.0
  0
LINE
  5
5C8F
  8
0
 10
35.869397759950012
 20
53.0
 30
0.0
 11
35.869397759950012
 21
50.5
 31
0.0
  0
LINE
  5
5C90
  8
0
 10
35.869397759950012
 20
53.0
 30
0.0
 11
36.413164582233122
 21
53.5
 31
0.0
  0
LINE
  5
5C91
  8
2
 10
56.349999999999987
 20
58.300000000000011
 30
0.0
 11
56.349999999999987
 21
50.0
 31
0.0
  0
LINE
  5
5C92
  8
2
 10
61.649999999999999
 20
50.0
 30
0.0
 11
61.649999999999999
 21
58.300000000000011
 31
0.0
  0
LINE
  5
5C93
  8
2
 10
38.349999999999987
 20
58.300000000000011
 30
0.0
 11
38.349999999999987
 21
50.0
 31
0.0
  0
LINE
  5
5C94
  8
2
 10
43.650000000000013
 20
50.0
 30
0.0
 11
43.650000000000013
 21
58.300000000000011
 31
0.0
  0
LINE
  5
5C9F
  8
0
 10
63.835061963762421
 20
53.0
 30
0.0
 11
63.835061963762421
 21
50.5
 31
0.0
  0
LINE
  5
5CA0
  8
0
 10
36.164938036237572
 20
53.0
 30
0.0
 11
36.164938036237572
 21
50.5
 31
0.0
  0
LINE
  5
5CA1
  8
0
 10
63.835061963762421
 20
53.0
 30
0.0
 11
63.700163578183918
 21
53.0
 31
0.0
  0
LINE
  5
5CA2
  8
0
 10
63.835061963762421
 20
53.0
 30
0.0
 11
63.424605890276318
 21
53.5
 31
0.0
  0
LINE
  5
5CA3
  8
0
 10
36.299836421816082
 20
53.0
 30
0.0
 11
36.164938036237572
 21
53.0
 31
0.0
  0
LINE
  5
5CA4
  8
0
 10
36.575394109723682
 20
53.5
 30
0.0
 11
36.164938036237572
 21
53.0
 31
0.0
  0
LINE
  5
5CA5
  8
0
 10
63.700163578183918
 20
53.0
 30
0.0
 11
63.700163578183918
 21
50.5
 31
0.0
  0
LINE
  5
5CA6
  8
0
 10
63.131284398210418
 20
53.5
 30
0.0
 11
63.700163578183918
 21
53.0
 31
0.0
  0
LINE
  5
5CA7
  8
0
 10
36.299836421816082
 20
53.0
 30
0.0
 11
36.299836421816082
 21
50.5
 31
0.0
  0
LINE
  5
5CA8
  8
0
 10
36.299836421816082
 20
53.0
 30
0.0
 11
36.868715601789567
 21
53.5
 31
0.0
  0
LINE
  5
5CAC
  8
0
 10
62.901483715460067
 20
53.5
 30
0.0
 11
62.901483715460067
 21
53.446742937357008
 31
0.0
  0
LINE
  5
5CB0
  8
0
 10
37.098516284539933
 20
53.5
 30
0.0
 11
37.098516284539933
 21
53.446742937357008
 31
0.0
  0
LINE
  5
5CB1
  8
0
 10
63.213717335484347
 20
53.0
 30
0.0
 11
63.213717335484347
 21
50.5
 31
0.0
  0
LINE
  5
5CB2
  8
0
 10
36.786282664515653
 20
53.0
 30
0.0
 11
36.786282664515653
 21
50.5
 31
0.0
  0
LINE
  5
5CB3
  8
0
 10
63.213717335484347
 20
53.0
 30
0.0
 11
63.014516790561231
 21
53.0
 31
0.0
  0
LINE
  5
5CB4
  8
0
 10
63.213717335484347
 20
53.0
 30
0.0
 11
62.864261760571992
 21
53.5
 31
0.0
  0
LINE
  5
5CB5
  8
0
 10
36.985483209438769
 20
53.0
 30
0.0
 11
36.786282664515653
 21
53.0
 31
0.0
  0
LINE
  5
5CB6
  8
0
 10
37.135738239428008
 20
53.5
 30
0.0
 11
36.786282664515653
 21
53.0
 31
0.0
  0
LINE
  5
5CB7
  8
0
 10
63.014516790561231
 20
53.0
 30
0.0
 11
63.014516790561231
 21
50.5
 31
0.0
  0
LINE
  5
5CB8
  8
0
 10
62.431122395659543
 20
53.5
 30
0.0
 11
63.014516790561231
 21
53.0
 31
0.0
  0
LINE
  5
5CB9
  8
0
 10
36.985483209438769
 20
53.0
 30
0.0
 11
36.985483209438769
 21
50.5
 31
0.0
  0
LINE
  5
5CBA
  8
0
 10
36.985483209438769
 20
53.0
 30
0.0
 11
37.568877604340457
 21
53.5
 31
0.0
  0
LINE
  5
5CBE
  8
0
 10
62.195458242389982
 20
53.5
 30
0.0
 11
62.195458242389982
 21
53.267370779540443
 31
0.0
  0
LINE
  5
5CC2
  8
0
 10
37.804541757610032
 20
53.5
 30
0.0
 11
37.804541757610032
 21
53.267370779540443
 31
0.0
  0
LINE
  5
5CC4
  8
0
 10
62.346226154559531
 20
53.0
 30
0.0
 11
62.346226154559531
 21
50.5
 31
0.0
  0
LINE
  5
5CC5
  8
0
 10
62.08643417954184
 20
53.0
 30
0.0
 11
62.08643417954184
 21
50.5
 31
0.0
  0
LINE
  5
5CC7
  8
0
 10
62.346226154559531
 20
53.0
 30
0.0
 11
62.08643417954184
 21
53.0
 31
0.0
  0
LINE
  5
5CC8
  8
0
 10
62.346226154559531
 20
53.0
 30
0.0
 11
62.064280774386162
 21
53.5
 31
0.0
  0
LINE
  5
5CC9
  8
0
 10
61.499392103464373
 20
53.5
 30
0.0
 11
62.08643417954184
 21
53.0
 31
0.0
  0
LINE
  5
5CCB
  8
0
 10
37.913565820458189
 20
53.0
 30
0.0
 11
37.913565820458189
 21
50.5
 31
0.0
  0
LINE
  5
5CCC
  8
0
 10
37.653773845440469
 20
53.0
 30
0.0
 11
37.653773845440469
 21
50.5
 31
0.0
  0
LINE
  5
5CCD
  8
0
 10
37.913565820458189
 20
53.0
 30
0.0
 11
37.653773845440469
 21
53.0
 31
0.0
  0
LINE
  5
5CCE
  8
0
 10
37.913565820458189
 20
53.0
 30
0.0
 11
38.500607896535662
 21
53.5
 31
0.0
  0
LINE
  5
5CCF
  8
0
 10
37.935719225613838
 20
53.5
 30
0.0
 11
37.653773845440469
 21
53.0
 31
0.0
  0
LINE
  5
5CD1
  8
0
 10
61.262254456957287
 20
53.5
 30
0.0
 11
61.262254456957287
 21
50.5
 31
0.0
  0
LINE
  5
5CD4
  8
0
 10
38.737745543042713
 20
53.5
 30
0.0
 11
38.737745543042713
 21
50.5
 31
0.0
  0
LINE
  5
5CD5
  8
2
 10
39.96640538674032
 20
58.300000000000011
 30
0.0
 11
45.691578015096461
 21
58.300000000000011
 31
0.0
  0
LINE
  5
5CD6
  8
0
 10
61.248748140332253
 20
53.0
 30
0.0
 11
61.248748140332253
 21
50.5
 31
0.0
  0
LINE
  5
5CD7
  8
0
 10
61.248748140332253
 20
53.0
 30
0.0
 11
60.933204168169262
 21
53.0
 31
0.0
  0
LINE
  5
5CD8
  8
0
 10
61.248748140332253
 20
53.0
 30
0.0
 11
61.039565063869361
 21
53.5
 31
0.0
  0
LINE
  5
5CD9
  8
0
 10
60.933204168169262
 20
53.0
 30
0.0
 11
60.933204168169262
 21
50.5
 31
0.0
  0
LINE
  5
5CDA
  8
0
 10
60.353449894067069
 20
53.5
 30
0.0
 11
60.933204168169262
 21
53.0
 31
0.0
  0
LINE
  5
5CDB
  8
0
 10
38.751251859667747
 20
53.0
 30
0.0
 11
38.751251859667747
 21
50.5
 31
0.0
  0
LINE
  5
5CDC
  8
0
 10
39.066795831830753
 20
53.0
 30
0.0
 11
39.066795831830753
 21
50.5
 31
0.0
  0
LINE
  5
5CDD
  8
0
 10
39.066795831830753
 20
53.0
 30
0.0
 11
38.751251859667747
 21
53.0
 31
0.0
  0
LINE
  5
5CDE
  8
0
 10
39.066795831830753
 20
53.0
 30
0.0
 11
39.646550105932931
 21
53.5
 31
0.0
  0
LINE
  5
5CDF
  8
0
 10
38.960434936130639
 20
53.5
 30
0.0
 11
38.751251859667747
 21
53.0
 31
0.0
  0
LINE
  5
5CE1
  8
0
 10
60.119256179995261
 20
53.5
 30
0.0
 11
60.119256179995261
 21
50.5
 31
0.0
  0
LINE
  5
5CE3
  8
0
 10
39.880743820004767
 20
53.5
 30
0.0
 11
39.880743820004767
 21
50.5
 31
0.0
  0
LINE
  5
5CE4
  8
0
 10
59.941727231699417
 20
53.0
 30
0.0
 11
59.80920314387194
 21
53.5
 31
0.0
  0
LINE
  5
5CE5
  8
0
 10
59.014642502622792
 20
53.5
 30
0.0
 11
59.576309249560381
 21
53.0
 31
0.0
  0
LINE
  5
5CE6
  8
0
 10
59.941727231699417
 20
53.0
 30
0.0
 11
59.941727231699417
 21
50.5
 31
0.0
  0
LINE
  5
5CE7
  8
0
 10
59.941727231699417
 20
53.0
 30
0.0
 11
59.576309249560381
 21
53.0
 31
0.0
  0
LINE
  5
5CE8
  8
0
 10
59.576309249560381
 20
53.0
 30
0.0
 11
59.576309249560381
 21
50.5
 31
0.0
  0
LINE
  5
5CE9
  8
0
 10
40.058272768300583
 20
53.0
 30
0.0
 11
40.058272768300583
 21
50.5
 31
0.0
  0
LINE
  5
5CEA
  8
0
 10
40.423690750439619
 20
53.0
 30
0.0
 11
40.42369075043964
 21
50.5
 31
0.0
  0
LINE
  5
5CEB
  8
0
 10
40.423690750439619
 20
53.0
 30
0.0
 11
40.058272768300583
 21
53.0
 31
0.0
  0
LINE
  5
5CEC
  8
0
 10
40.423690750439619
 20
53.0
 30
0.0
 11
40.985357497377201
 21
53.5
 31
0.0
  0
LINE
  5
5CED
  8
0
 10
40.190796856128081
 20
53.5
 30
0.0
 11
40.058272768300583
 21
53.0
 31
0.0
  0
LINE
  5
5CEF
  8
0
 10
58.787755306767849
 20
53.5
 30
0.0
 11
58.787755306767849
 21
50.5
 31
0.0
  0
LINE
  5
5CF1
  8
0
 10
41.212244693232151
 20
53.5
 30
0.0
 11
41.212244693232151
 21
50.5
 31
0.0
  0
LINE
  5
5CF2
  8
2
 10
47.5
 20
63.0
 30
0.0
 11
47.5
 21
50.0
 31
0.0
  0
LINE
  5
5CF3
  8
2
 10
52.5
 20
50.0
 30
0.0
 11
52.5
 21
63.0
 31
0.0
  0
LINE
  5
5CF4
  8
0
 10
58.449510755210319
 20
53.0
 30
0.0
 11
58.396114329029267
 21
53.5
 31
0.0
  0
LINE
  5
5CF5
  8
0
 10
58.449510755210319
 20
53.0
 30
0.0
 11
58.449510755210319
 21
50.5
 31
0.0
  0
LINE
  5
5CF6
  8
0
 10
58.449510755210319
 20
53.0
 30
0.0
 11
58.041025808705122
 21
53.0
 31
0.0
  0
LINE
  5
5CF7
  8
0
 10
57.292555179246961
 20
53.5
 30
0.0
 11
57.292555179246961
 21
50.5
 31
0.0
  0
LINE
  5
5CF8
  8
0
 10
58.041025808705122
 20
53.0
 30
0.0
 11
58.041025808705122
 21
50.5
 31
0.0
  0
LINE
  5
5CF9
  8
0
 10
57.507909377713268
 20
53.5
 30
0.0
 11
58.041025808705122
 21
53.0
 31
0.0
  0
LINE
  5
5CFA
  8
0
 10
41.603885670970719
 20
53.5
 30
0.0
 11
41.550489244789702
 21
53.0
 31
0.0
  0
LINE
  5
5CFB
  8
0
 10
42.707444820753032
 20
53.5
 30
0.0
 11
42.707444820753032
 21
50.5
 31
0.0
  0
LINE
  5
5CFC
  8
0
 10
41.958974191294878
 20
53.0
 30
0.0
 11
42.492090622286753
 21
53.5
 31
0.0
  0
LINE
  5
5CFD
  8
0
 10
41.958974191294878
 20
53.0
 30
0.0
 11
41.958974191294878
 21
50.5
 31
0.0
  0
LINE
  5
5CFE
  8
0
 10
41.958974191294878
 20
53.0
 30
0.0
 11
41.550489244789702
 21
53.0
 31
0.0
  0
LINE
  5
5CFF
  8
0
 10
41.550489244789702
 20
53.0
 30
0.0
 11
41.550489244789702
 21
50.5
 31
0.0
  0
LINE
  5
5D00
  8
0
 10
56.837417812628303
 20
53.5
 30
0.0
 11
56.837417812628303
 21
50.5
 31
0.0
  0
LINE
  5
5D01
  8
0
 10
43.162582187371697
 20
53.5
 30
0.0
 11
43.162582187371697
 21
50.5
 31
0.0
  0
LINE
  5
5D02
  8
0
 10
56.799895880439983
 20
53.0
 30
0.0
 11
56.826621790295171
 21
53.5
 31
0.0
  0
LINE
  5
5D03
  8
0
 10
56.799895880439983
 20
53.0
 30
0.0
 11
56.799895880439941
 21
50.5
 31
0.0
  0
LINE
  5
5D04
  8
0
 10
56.799895880439983
 20
53.0
 30
0.0
 11
56.355953271238768
 21
53.0
 31
0.0
  0
LINE
  5
5D05
  8
0
 10
55.661508546780993
 20
53.5
 30
0.0
 11
55.661508546780993
 21
50.5
 31
0.0
  0
LINE
  5
5D06
  8
0
 10
56.355953271238768
 20
53.0
 30
0.0
 11
56.355953271238768
 21
50.5
 31
0.0
  0
LINE
  5
5D07
  8
0
 10
55.861318106607058
 20
53.5
 30
0.0
 11
56.355953271238768
 21
53.0
 31
0.0
  0
LINE
  5
5D08
  8
0
 10
43.173378209704822
 20
53.5
 30
0.0
 11
43.200104119560073
 21
53.0
 31
0.0
  0
LINE
  5
5D09
  8
0
 10
44.338491453219028
 20
53.5
 30
0.0
 11
44.338491453219028
 21
50.5
 31
0.0
  0
LINE
  5
5D0A
  8
0
 10
43.644046728761218
 20
53.0
 30
0.0
 11
44.13868189339297
 21
53.5
 31
0.0
  0
LINE
  5
5D0B
  8
0
 10
43.644046728761218
 20
53.0
 30
0.0
 11
43.644046728761218
 21
50.5
 31
0.0
  0
LINE
  5
5D0C
  8
0
 10
43.644046728761218
 20
53.0
 30
0.0
 11
43.200104119560073
 21
53.0
 31
0.0
  0
LINE
  5
5D0D
  8
0
 10
43.200104119560073
 20
53.0
 30
0.0
 11
43.200104119560073
 21
50.5
 31
0.0
  0
LINE
  5
5D0E
  8
0
 10
55.172922807530789
 20
53.5
 30
0.0
 11
55.172922807530789
 21
50.5
 31
0.0
  0
LINE
  5
5D0F
  8
0
 10
44.827077192469233
 20
53.5
 30
0.0
 11
44.827077192469233
 21
50.5
 31
0.0
  0
LINE
  5
5D10
  8
0
 10
60.03359461325968
 20
61.5
 30
0.0
 11
59.255069635296913
 21
63.0
 31
0.0
  0
LINE
  5
5D11
  8
0
 10
59.255069635296913
 20
63.0
 30
0.0
 11
40.744930364703087
 21
63.0
 31
0.0
  0
LINE
  5
5D12
  8
0
 10
40.744930364703087
 20
63.0
 30
0.0
 11
39.96640538674032
 21
61.5
 31
0.0
  0
LINE
  5
5D13
  8
0
 10
60.03359461325968
 20
58.300000000000011
 30
0.0
 11
63.449999999999982
 21
58.300000000000011
 31
0.0
  0
LINE
  5
5D14
  8
0
 10
60.03359461325968
 20
58.300000000000011
 30
0.0
 11
60.03359461325968
 21
61.5
 31
0.0
  0
LINE
  5
5D15
  8
0
 10
60.03359461325968
 20
61.5
 30
0.0
 11
39.96640538674032
 21
61.5
 31
0.0
  0
LINE
  5
5D16
  8
0
 10
39.96640538674032
 20
61.5
 30
0.0
 11
39.96640538674032
 21
58.300000000000011
 31
0.0
  0
LINE
  5
5D17
  8
0
 10
36.550000000000011
 20
58.300000000000011
 30
0.0
 11
36.550000000000011
 21
53.5
 31
0.0
  0
LINE
  5
5D18
  8
0
 10
63.449999999999982
 20
53.5
 30
0.0
 11
63.449999999999982
 21
58.300000000000011
 31
0.0
  0
LINE
  5
5D19
  8
0
 10
36.550000000000011
 20
58.300000000000011
 30
0.0
 11
39.96640538674032
 21
58.300000000000011
 31
0.0
  0
LINE
  5
5D1A
  8
0
 10
63.5
 20
50.0
 30
0.0
 11
36.5
 21
50.0
 31
0.0
  0
LINE
  5
5D1B
  8
0
 10
36.5
 20
50.5
 30
0.0
 11
36.5
 21
50.0
 31
0.0
  0
LINE
  5
5D1C
  8
0
 10
63.5
 20
50.0
 30
0.0
 11
63.5
 21
50.5
 31
0.0
  0
LINE
  5
5D1D
  8
0
 10
55.02361181131409
 20
53.0
 30
0.0
 11
55.129962204072342
 21
53.5
 31
0.0
  0
LINE
  5
5D1E
  8
0
 10
55.02361181131409
 20
53.0
 30
0.0
 11
55.02361181131409
 21
50.5
 31
0.0
  0
LINE
  5
5D1F
  8
0
 10
55.02361181131409
 20
53.0
 30
0.0
 11
54.552481350254702
 21
53.0
 31
0.0
  0
LINE
  5
5D20
  8
0
 10
53.924998722074037
 20
53.5
 30
0.0
 11
53.924998722074037
 21
50.5
 31
0.0
  0
LINE
  5
5D21
  8
0
 10
54.552481350254702
 20
53.0
 30
0.0
 11
54.552481350254702
 21
50.5
 31
0.0
  0
LINE
  5
5D22
  8
0
 10
54.105541569214488
 20
53.5
 30
0.0
 11
54.552481350254702
 21
53.0
 31
0.0
  0
LINE
  5
5D23
  8
0
 10
44.870037795927651
 20
53.5
 30
0.0
 11
44.97638818868591
 21
53.0
 31
0.0
  0
LINE
  5
5D24
  8
0
 10
46.075001277925992
 20
53.5
 30
0.0
 11
46.075001277925992
 21
50.5
 31
0.0
  0
LINE
  5
5D25
  8
0
 10
45.447518649745312
 20
53.0
 30
0.0
 11
45.894458430785527
 21
53.5
 31
0.0
  0
LINE
  5
5D26
  8
0
 10
45.447518649745312
 20
53.0
 30
0.0
 11
45.447518649745312
 21
50.5
 31
0.0
  0
LINE
  5
5D27
  8
0
 10
45.447518649745312
 20
53.0
 30
0.0
 11
44.97638818868591
 21
53.0
 31
0.0
  0
LINE
  5
5D28
  8
0
 10
44.97638818868591
 20
53.0
 30
0.0
 11
44.97638818868591
 21
50.5
 31
0.0
  0
LINE
  5
5D29
  8
0
 10
53.412066038074812
 20
53.5
 30
0.0
 11
53.412066038074812
 21
50.5
 31
0.0
  0
LINE
  5
5D2A
  8
0
 10
46.587933961925209
 20
53.5
 30
0.0
 11
46.587933961925209
 21
50.5
 31
0.0
  0
LINE
  5
5D2B
  8
0
 10
53.153747359182027
 20
53.0
 30
0.0
 11
53.337741128248872
 21
53.5
 31
0.0
  0
LINE
  5
5D2C
  8
0
 10
46.662258871751128
 20
53.5
 30
0.0
 11
46.846252640817987
 21
53.0
 31
0.0
  0
LINE
  5
5D2D
  8
0
 10
53.153747359182027
 20
53.0
 30
0.0
 11
53.153747359182027
 21
50.5
 31
0.0
  0
LINE
  5
5D2E
  8
0
 10
53.153747359182027
 20
53.0
 30
0.0
 11
52.664205315340887
 21
53.0
 31
0.0
  0
LINE
  5
5D2F
  8
0
 10
52.115373597557607
 20
53.5
 30
0.0
 11
52.115373597557607
 21
50.5
 31
0.0
  0
LINE
  5
5D30
  8
0
 10
52.664205315340887
 20
53.0
 30
0.0
 11
52.664205315340887
 21
50.5
 31
0.0
  0
LINE
  5
5D31
  8
0
 10
52.273286560370423
 20
53.5
 30
0.0
 11
52.664205315340887
 21
53.0
 31
0.0
  0
LINE
  5
5D32
  8
0
 10
47.884626402442393
 20
53.5
 30
0.0
 11
47.884626402442393
 21
50.5
 31
0.0
  0
LINE
  5
5D33
  8
0
 10
47.335794684659113
 20
53.0
 30
0.0
 11
47.726713439629613
 21
53.5
 31
0.0
  0
LINE
  5
5D34
  8
0
 10
47.335794684659113
 20
53.0
 30
0.0
 11
47.335794684659128
 21
50.5
 31
0.0
  0
LINE
  5
5D35
  8
0
 10
47.335794684659113
 20
53.0
 30
0.0
 11
46.846252640817987
 21
53.0
 31
0.0
  0
LINE
  5
5D36
  8
0
 10
46.846252640817987
 20
53.0
 30
0.0
 11
46.846252640817987
 21
50.5
 31
0.0
  0
LINE
  5
5D37
  8
0
 10
51.587648934206349
 20
53.5
 30
0.0
 11
51.587648934206349
 21
50.5
 31
0.0
  0
LINE
  5
5D38
  8
0
 10
48.412351065793672
 20
53.5
 30
0.0
 11
48.412351065793672
 21
50.5
 31
0.0
  0
LINE
  5
5D39
  8
0
 10
51.225134560867559
 20
53.0
 30
0.0
 11
51.48334425045487
 21
53.5
 31
0.0
  0
LINE
  5
5D3A
  8
0
 10
63.800000000000018
 20
53.5
 30
0.0
 11
36.199999999999989
 21
53.5
 31
0.0
  0
LINE
  5
5D3B
  8
0
 10
48.51665574954513
 20
53.5
 30
0.0
 11
48.774865439132469
 21
53.0
 31
0.0
  0
LINE
  5
5D3C
  8
0
 10
50.266343065359251
 20
53.5
 30
0.0
 11
50.266343065359251
 21
50.5
 31
0.0
  0
LINE
  5
5D3D
  8
0
 10
50.398684524129997
 20
53.5
 30
0.0
 11
50.726300176272296
 21
53.0
 31
0.0
  0
LINE
  5
5D3E
  8
0
 10
51.225134560867559
 20
53.0
 30
0.0
 11
51.225134560867559
 21
50.5
 31
0.0
  0
LINE
  5
5D3F
  8
0
 10
51.225134560867559
 20
53.0
 30
0.0
 11
50.726300176272296
 21
53.0
 31
0.0
  0
LINE
  5
5D40
  8
0
 10
50.726300176272296
 20
53.0
 30
0.0
 11
50.726300176272296
 21
50.5
 31
0.0
  0
LINE
  5
5D41
  8
0
 10
64.300000000000011
 20
50.5
 30
0.0
 11
35.699999999999989
 21
50.5
 31
0.0
  0
LINE
  5
5D42
  8
0
 10
49.273699823727732
 20
53.0
 30
0.0
 11
48.774865439132469
 21
53.0
 31
0.0
  0
LINE
  5
5D43
  8
0
 10
48.774865439132469
 20
53.0
 30
0.0
 11
48.774865439132469
 21
50.5
 31
0.0
  0
LINE
  5
5D44
  8
0
 10
49.273699823727732
 20
53.0
 30
0.0
 11
49.273699823727732
 21
50.5
 31
0.0
  0
LINE
  5
5D45
  8
0
 10
49.733656934640777
 20
53.5
 30
0.0
 11
49.733656934640777
 21
50.5
 31
0.0
  0
LINE
  5
5D46
  8
0
 10
49.273699823727732
 20
53.0
 30
0.0
 11
49.601315475870017
 21
53.5
 31
0.0
  0
LINE
  5
5D47
  8
2
 10
47.0
 20
50.0
 30
0.0
 11
47.0
 21
58.0
 31
0.0
  0
LINE
  5
5D48
  8
2
 10
53.0
 20
50.0
 30
0.0
 11
53.0
 21
58.0
 31
0.0
  0
LINE
  5
5D49
  8
1
 10
50.0
 20
66.0
 30
0.0
 11
50.0
 21
46.999999999999993
 31
0.0
  0
LINE
  5
5D4A
  8
1
 10
59.000000000000028
 20
59.800000000000018
 30
0.0
 11
58.999999999999972
 21
48.499999999999993
 31
0.0
  0
LINE
  5
5D4B
  8
1
 10
41.0
 20
59.800000000000018
 30
0.0
 11
41.0
 21
48.499999999999993
 31
0.0
  0
CIRCLE
  5
5D52
  8
3
 10
50.0
 20
123.3
 30
0.0
 40
3.0
  0
LINE
  5
5D5A
  8
2
 10
123.3
 20
120.8
 30
0.0
 11
115.3
 21
120.8
 31
0.0
  0
LINE
  5
5D5B
  8
2
 10
123.3
 20
120.3
 30
0.0
 11
115.3
 21
120.3
 31
0.0
  0
LINE
  5
5D5C
  8
2
 10
54.750000000000028
 20
58.0
 30
0.0
 11
45.25
 21
58.0
 31
0.0
  0
CIRCLE
  5
5D5D
  8
0
 10
50.0
 20
123.3
 30
0.0
 40
4.75
  0
LINE
  5
5D61
  8
2
 10
45.25
 20
58.0
 30
0.0
 11
45.249999999999972
 21
58.300000000000011
 31
0.0
  0
LINE
  5
5D62
  8
2
 10
45.25
 20
58.0
 30
0.0
 11
54.75
 21
58.0
 31
0.0
  0
LINE
  5
5D63
  8
2
 10
54.75
 20
58.0
 30
0.0
 11
54.750000000000028
 21
58.300000000000011
 31
0.0
  0
LINE
  5
5D64
  8
2
 10
54.308421984903532
 20
58.300000000000011
 30
0.0
 11
60.03359461325968
 21
58.300000000000011
 31
0.0
  0
LINE
  5
5D65
  8
2
 10
115.3
 20
128.05000000000001
 30
0.0
 11
115.3
 21
118.55
 31
0.0
  0
LINE
  5
5D6D
  8
1
 10
50.0
 20
140.59999999999999
 30
0.0
 11
50.0
 21
106.0
 31
0.0
  0
LINE
  5
5DD8
  8
0
 10
110.3
 20
131.8264355204272
 30
0.0
 11
111.8
 21
132.2570909974593
 31
0.0
  0
LINE
  5
5DD9
  8
0
 10
110.3
 20
114.7735644795727
 30
0.0
 11
111.8
 21
114.34290900254069
 31
0.0
  0
ENDSEC
  0
EOF
