  0
SECTION
  2
HEADER
  9
$ACADVER
  1
AC1009
  9
$INSBASE
 10
0.0
 20
0.0
 30
0.0
  9
$EXTMIN
 10
0.0
 20
-1.4802182810368341
 30
0.0
  9
$EXTMAX
 10
108.25
 20
118.0
 30
0.0
  9
$LIMMIN
 10
0.0
 20
0.0
  9
$LIMMAX
 10
192.5
 20
135.0
  9
$ORTHOMODE
 70
     1
  9
$REGENMODE
 70
     1
  9
$FILLMODE
 70
     1
  9
$QTEXTMODE
 70
     0
  9
$MIRRTEXT
 70
     0
  9
$DRAGMODE
 70
     2
  9
$LTSCALE
 40
5.0
  9
$OSMODE
 70
    37
  9
$ATTMODE
 70
     1
  9
$TEXTSIZE
 40
1.6000000000000489
  9
$TRACEWID
 40
0.05
  9
$TEXTSTYLE
  7
STANDARD
  9
$CLAYER
  8
0
  9
$CELTYPE
  6
BYLAYER
  9
$CECOLOR
 62
   256
  9
$DIMSCALE
 40
1.0
  9
$DIMASZ
 40
3.0
  9
$DIMEXO
 40
2.0
  9
$DIMDLI
 40
0.38
  9
$DIMRND
 40
0.0
  9
$DIMDLE
 40
0.0
  9
$DIMEXE
 40
2.0
  9
$DIMTP
 40
0.0
  9
$DIMTM
 40
0.0
  9
$DIMTXT
 40
3.0
  9
$DIMCEN
 40
0.0
  9
$DIMTSZ
 40
0.0
  9
$DIMTOL
 70
     0
  9
$DIMLIM
 70
     0
  9
$DIMTIH
 70
     0
  9
$DIMTOH
 70
     0
  9
$DIMSE1
 70
     0
  9
$DIMSE2
 70
     0
  9
$DIMTAD
 70
     1
  9
$DIMZIN
 70
     9
  9
$DIMBLK
  1

  9
$DIMASO
 70
     0
  9
$DIMSHO
 70
     0
  9
$DIMPOST
  1

  9
$DIMAPOST
  1

  9
$DIMALT
 70
     0
  9
$DIMALTD
 70
     2
  9
$DIMALTF
 40
25.399999999999999
  9
$DIMLFAC
 40
1.0
  9
$DIMTOFL
 70
     1
  9
$DIMTVP
 40
1.6000000000000001
  9
$DIMTIX
 70
     1
  9
$DIMSOXD
 70
     0
  9
$DIMSAH
 70
     0
  9
$DIMBLK1
  1

  9
$DIMBLK2
  1

  9
$DIMSTYLE
  2
STANDARD
  9
$DIMCLRD
 70
     0
  9
$DIMCLRE
 70
     0
  9
$DIMCLRT
 70
     0
  9
$DIMTFAC
 40
1.0
  9
$DIMGAP
 40
0.09
  9
$LUNITS
 70
     2
  9
$LUPREC
 70
     1
  9
$SKETCHINC
 40
0.1
  9
$FILLETRAD
 40
0.3
  9
$AUNITS
 70
     0
  9
$AUPREC
 70
     1
  9
$MENU
  1
E:\r13\win\SUPPORT\ACAD
  9
$ELEVATION
 40
0.0
  9
$PELEVATION
 40
0.0
  9
$THICKNESS
 40
0.0
  9
$LIMCHECK
 70
     0
  9
$BLIPMODE
 70
     0
  9
$CHAMFERA
 40
0.0
  9
$CHAMFERB
 40
0.0
  9
$SKPOLY
 70
     0
  9
$TDCREATE
 40
2448328.489641204
  9
$TDUPDATE
 40
2459200.3878600928
  9
$TDINDWG
 40
1.1271549769
  9
$TDUSRTIMER
 40
2456598.931421435
  9
$USRTIMER
 70
     1
  9
$ANGBASE
 50
0.0
  9
$ANGDIR
 70
     0
  9
$PDMODE
 70
    35
  9
$PDSIZE
 40
0.0
  9
$PLINEWID
 40
0.0
  9
$COORDS
 70
     1
  9
$SPLFRAME
 70
     0
  9
$SPLINETYPE
 70
     6
  9
$SPLINESEGS
 70
     8
  9
$ATTDIA
 70
     0
  9
$ATTREQ
 70
     1
  9
$HANDLING
 70
     1
  9
$HANDSEED
  5
5ABA
  9
$SURFTAB1
 70
     6
  9
$SURFTAB2
 70
     6
  9
$SURFTYPE
 70
     6
  9
$SURFU
 70
     6
  9
$SURFV
 70
     6
  9
$UCSNAME
  2

  9
$UCSORG
 10
0.0
 20
0.0
 30
0.0
  9
$UCSXDIR
 10
1.0
 20
0.0
 30
0.0
  9
$UCSYDIR
 10
0.0
 20
1.0
 30
0.0
  9
$PUCSNAME
  2

  9
$PUCSORG
 10
0.0
 20
0.0
 30
0.0
  9
$PUCSXDIR
 10
1.0
 20
0.0
 30
0.0
  9
$PUCSYDIR
 10
0.0
 20
1.0
 30
0.0
  9
$USERI1
 70
     3
  9
$USERI2
 70
     1
  9
$USERI3
 70
     1
  9
$USERI4
 70
     0
  9
$USERI5
 70
     0
  9
$USERR1
 40
0.5
  9
$USERR2
 40
3.0
  9
$USERR3
 40
3.0
  9
$USERR4
 40
3.0
  9
$USERR5
 40
10.0
  9
$WORLDVIEW
 70
     1
  9
$SHADEDGE
 70
     3
  9
$SHADEDIF
 70
    70
  9
$TILEMODE
 70
     1
  9
$MAXACTVP
 70
    16
  9
$PLIMCHECK
 70
     0
  9
$PEXTMIN
 10
1.0000000000000000E+020
 20
1.0000000000000000E+020
 30
1.0000000000000000E+020
  9
$PEXTMAX
 10
-1.0000000000000000E+020
 20
-1.0000000000000000E+020
 30
-1.0000000000000000E+020
  9
$PLIMMIN
 10
0.0
 20
0.0
  9
$PLIMMAX
 10
12.0
 20
9.0
  9
$UNITMODE
 70
     0
  9
$VISRETAIN
 70
     0
  9
$PLINEGEN
 70
     1
  9
$PSLTSCALE
 70
     0
  0
ENDSEC
  0
SECTION
  2
TABLES
  0
TABLE
  2
VPORT
 70
     1
  0
VPORT
  2
*ACTIVE
 70
     0
 10
0.0
 20
0.0
 11
1.0
 21
1.0
 12
122.3233320931637
 22
58.260857409267352
 13
0.0
 23
0.0
 14
2.5
 24
2.5
 15
5.0
 25
5.0
 16
0.0
 26
0.0
 36
1.0
 17
0.0
 27
0.0
 37
0.0
 40
120.53642267948359
 41
2.415644171779141
 42
50.0
 43
0.0
 44
0.0
 50
0.0
 51
0.0
 71
     0
 72
   500
 73
     1
 74
     0
 75
     0
 76
     0
 77
     0
 78
     2
  0
ENDTAB
  0
TABLE
  2
LTYPE
 70
     4
  0
LTYPE
  2
CONTINUOUS
 70
     0
  3
Solid Line
 72
    65
 73
     0
 40
0.0
  0
LTYPE
  2
CENTER
 70
     0
  3
____ _ ____ _ ____ _ ____ _ ____ _ ____ _ ____
 72
    65
 73
     4
 40
2.0
 49
1.25
 49
-0.25
 49
0.25
 49
-0.25
  0
LTYPE
  2
HIDDEN
 70
     0
  3
_ _ _ _ _ _ _ _ _ _ _ _ _ _ _ _ _ _ _ _ _ _ _
 72
    65
 73
     2
 40
0.375
 49
0.25
 49
-0.125
  0
LTYPE
  2
PHANTOM2
 70
     0
  3
___ _ _ ___ _ _ ___ _ _ ___ _ _
 72
    65
 73
     6
 40
1.25
 49
0.625
 49
-0.125
 49
0.125
 49
-0.125
 49
0.125
 49
-0.125
  0
ENDTAB
  0
TABLE
  2
LAYER
 70
     4
  0
LAYER
  2
0
 70
     0
 62
     7
  6
CONTINUOUS
  0
LAYER
  2
1
 70
     0
 62
     1
  6
CENTER
  0
LAYER
  2
2
 70
     0
 62
     2
  6
HIDDEN
  0
LAYER
  2
DEFPOINTS
 70
     0
 62
     7
  6
CONTINUOUS
  0
ENDTAB
  0
TABLE
  2
STYLE
 70
     2
  0
STYLE
  2
STANDARD
 70
     0
 40
0.0
 41
1.0
 50
0.0
 71
     0
 42
1.6000000000000489
  3
SIMPLEX
  4
BIGFONT
  0
STYLE
  2
STANDARD1
 70
     0
 40
0.0
 41
1.0
 50
0.0
 71
     0
 42
3.0
  3
txt
  4

  0
ENDTAB
  0
TABLE
  2
VIEW
 70
     1
  0
VIEW
  2
ALL
 70
     0
 40
87.5
 10
71.617647058823522
 20
43.75
 41
0.0
 11
0.0
 21
0.0
 31
1.0
 12
0.0
 22
0.0
 32
0.0
 42
50.0
 43
0.0
 44
0.0
 50
0.0
 71
     0
  0
ENDTAB
  0
TABLE
  2
UCS
 70
     0
  0
ENDTAB
  0
TABLE
  2
APPID
 70
     7
  0
APPID
  2
ACAD
 70
     0
  0
APPID
  2
ACAD_EXEMPT_FROM_CAD_STANDARDS
 70
     0
  0
APPID
  2
ACAD_DSTYLE_DIMJAG
 70
     0
  0
APPID
  2
ACAD_DSTYLE_DIMTALN
 70
     0
  0
APPID
  2
ACAD_MLEADERVER
 70
     0
  0
APPID
  2
ACAD_NAV_VCDISPLAY
 70
     0
  0
APPID
  2
ACAD_DSTYLE_DIMRADIAL_EXTENSION
 70
     0
  0
ENDTAB
  0
TABLE
  2
DIMSTYLE
 70
     2
  0
DIMSTYLE
  2
STANDARD
 70
     0
  3

  4

  5

  6

  7

 40
1.0
 41
0.18
 42
0.0625
 43
0.38
 44
0.18
 45
0.0
 46
0.0
 47
0.0
 48
0.0
140
0.18
141
0.09
142
0.0
143
25.399999999999999
144
1.0
145
0.0
146
1.0
147
0.09
 71
     0
 72
     0
 73
     1
 74
     1
 75
     0
 76
     0
 77
     0
 78
     0
170
     0
171
     2
172
     0
173
     0
174
     0
175
     0
176
     0
177
     0
178
     0
  0
DIMSTYLE
  2
ISO-25
 70
     0
  3

  4

  5

  6

  7

 40
1.0
 41
2.5
 42
0.625
 43
3.75
 44
1.25
 45
0.0
 46
0.0
 47
0.0
 48
0.0
140
2.5
141
2.5
142
0.0
143
0.03937007874016
144
1.0
145
0.0
146
1.0
147
0.625
 71
     0
 72
     0
 73
     0
 74
     0
 75
     0
 76
     0
 77
     1
 78
     8
170
     0
171
     3
172
     1
173
     0
174
     0
175
     0
176
     0
177
     0
178
     0
  0
ENDTAB
  0
ENDSEC
  0
SECTION
  2
BLOCKS
  0
BLOCK
  8
0
  2
$MODEL_SPACE
 70
     0
 10
0.0
 20
0.0
 30
0.0
  3
$MODEL_SPACE
  1

  0
ENDBLK
  5
BAB
  8
0
  0
BLOCK
 67
     1
  8
0
  2
$PAPER_SPACE
 70
     0
 10
0.0
 20
0.0
 30
0.0
  3
$PAPER_SPACE
  1

  0
ENDBLK
  5
BA9
 67
     1
  8
0
  0
ENDSEC
  0
SECTION
  2
ENTITIES
  0
TEXT
  5
2813
  8
0
 62
     3
 10
0.0
 20
0.0
 30
0.0
 40
5.0
  1
RLES2338EHH-SUS
  7
STANDARD1
  0
LINE
  5
542F
  8
0
 10
102.75
 20
114.98298812519771
 30
0.0
 11
104.75
 21
114.98298812519771
 31
0.0
  0
LINE
  5
5430
  8
0
 10
102.75
 20
95.517011874802236
 30
0.0
 11
104.75
 21
95.517011874802236
 31
0.0
  0
LINE
  5
5431
  8
0
 10
102.75
 20
114.98298812519771
 30
0.0
 11
102.75
 21
114.9450016262805
 31
0.0
  0
LINE
  5
5432
  8
0
 10
102.75
 20
114.98298812519771
 30
0.0
 11
102.25
 21
114.4969201768649
 31
0.0
  0
LINE
  5
5433
  8
0
 10
102.75
 20
95.554998373719513
 30
0.0
 11
102.75
 21
95.517011874802236
 31
0.0
  0
LINE
  5
5434
  8
0
 10
102.25
 20
96.003079823135067
 30
0.0
 11
102.75
 21
95.517011874802236
 31
0.0
  0
LINE
  5
5435
  8
0
 10
102.75
 20
114.9450016262805
 30
0.0
 11
104.75
 21
114.9450016262805
 31
0.0
  0
LINE
  5
5436
  8
0
 10
102.25
 20
114.41008936469809
 30
0.0
 11
102.75
 21
114.9450016262805
 31
0.0
  0
LINE
  5
5437
  8
0
 10
102.75
 20
95.554998373719513
 30
0.0
 11
104.75
 21
95.554998373719513
 31
0.0
  0
LINE
  5
5438
  8
0
 10
102.75
 20
95.554998373719513
 30
0.0
 11
102.25
 21
96.089910635301905
 31
0.0
  0
LINE
  5
5439
  8
2
 10
95.750000000000014
 20
97.75
 30
0.0
 11
105.25
 21
97.75
 31
0.0
  0
LINE
  5
543A
  8
2
 10
105.25
 20
100.75
 30
0.0
 11
95.750000000000014
 21
100.75
 31
0.0
  0
LINE
  5
543B
  8
2
 10
95.750000000000014
 20
109.75
 30
0.0
 11
105.25
 21
109.75
 31
0.0
  0
LINE
  5
543C
  8
2
 10
105.25
 20
112.75
 30
0.0
 11
95.750000000000014
 21
112.75
 31
0.0
  0
LINE
  5
543D
  8
2
 10
99.249999999999986
 20
103.65000000000001
 30
0.0
 11
105.25
 21
103.65000000000001
 31
0.0
  0
LINE
  5
543E
  8
2
 10
105.25
 20
106.84999999999999
 30
0.0
 11
99.249999999999986
 21
106.84999999999999
 31
0.0
  0
LINE
  5
5449
  8
2
 10
99.25
 20
108.95
 30
0.0
 11
95.750000000000014
 21
108.95
 31
0.0
  0
LINE
  5
544C
  8
2
 10
95.750000000000014
 20
101.55
 30
0.0
 11
99.25
 21
101.55
 31
0.0
  0
LINE
  5
544D
  8
0
 10
102.75
 20
114.755484080066
 30
0.0
 11
104.75
 21
114.755484080066
 31
0.0
  0
LINE
  5
544E
  8
0
 10
102.75
 20
95.744515919933946
 30
0.0
 11
104.75
 21
95.744515919933946
 31
0.0
  0
LINE
  5
544F
  8
0
 10
102.75
 20
114.755484080066
 30
0.0
 11
102.75
 21
114.64256075598129
 31
0.0
  0
LINE
  5
5450
  8
0
 10
102.75
 20
114.755484080066
 30
0.0
 11
102.25
 21
114.33151911152871
 31
0.0
  0
LINE
  5
5451
  8
0
 10
102.75
 20
95.857439244018707
 30
0.0
 11
102.75
 21
95.744515919933946
 31
0.0
  0
LINE
  5
5452
  8
0
 10
102.25
 20
96.168480888471237
 30
0.0
 11
102.75
 21
95.744515919933946
 31
0.0
  0
LINE
  5
5453
  8
0
 10
102.75
 20
114.64256075598129
 30
0.0
 11
104.75
 21
114.64256075598129
 31
0.0
  0
LINE
  5
5454
  8
0
 10
102.25
 20
114.0733951932331
 30
0.0
 11
102.75
 21
114.64256075598129
 31
0.0
  0
LINE
  5
5455
  8
0
 10
102.75
 20
95.857439244018707
 30
0.0
 11
104.75
 21
95.857439244018707
 31
0.0
  0
LINE
  5
5456
  8
0
 10
102.75
 20
95.857439244018707
 30
0.0
 11
102.25
 21
96.426604806766875
 31
0.0
  0
LINE
  5
545B
  8
0
 10
102.75
 20
114.2686952081778
 30
0.0
 11
104.75
 21
114.2686952081778
 31
0.0
  0
LINE
  5
545C
  8
0
 10
102.75
 20
96.231304791822168
 30
0.0
 11
104.75
 21
96.231304791822168
 31
0.0
  0
LINE
  5
545D
  8
0
 10
102.75
 20
114.2686952081778
 30
0.0
 11
102.75
 21
114.08391531283741
 31
0.0
  0
LINE
  5
545E
  8
0
 10
102.75
 20
114.2686952081778
 30
0.0
 11
102.25
 21
113.91839787858351
 31
0.0
  0
LINE
  5
545F
  8
0
 10
102.75
 20
96.416084687162538
 30
0.0
 11
102.75
 21
96.231304791822168
 31
0.0
  0
LINE
  5
5460
  8
0
 10
102.25
 20
96.581602121416466
 30
0.0
 11
102.75
 21
96.231304791822168
 31
0.0
  0
LINE
  5
5461
  8
0
 10
102.75
 20
114.08391531283741
 30
0.0
 11
104.75
 21
114.08391531283741
 31
0.0
  0
LINE
  5
5462
  8
0
 10
102.25
 20
113.49602180177141
 30
0.0
 11
102.75
 21
114.08391531283741
 31
0.0
  0
LINE
  5
5463
  8
0
 10
102.75
 20
96.416084687162538
 30
0.0
 11
104.75
 21
96.416084687162538
 31
0.0
  0
LINE
  5
5464
  8
0
 10
102.75
 20
96.416084687162538
 30
0.0
 11
102.25
 21
97.003978198228594
 31
0.0
  0
LINE
  5
5467
  8
0
 10
102.25
 20
113.3170925227259
 30
0.0
 11
102.3403627559271
 21
113.3170925227259
 31
0.0
  0
LINE
  5
546A
  8
0
 10
102.25
 20
97.182907477274028
 30
0.0
 11
102.3403627559271
 21
97.182907477274028
 31
0.0
  0
LINE
  5
546B
  8
0
 10
102.75
 20
113.5358998409943
 30
0.0
 11
104.75
 21
113.5358998409943
 31
0.0
  0
LINE
  5
546C
  8
0
 10
102.75
 20
113.28430368825791
 30
0.0
 11
104.75
 21
113.28430368825791
 31
0.0
  0
LINE
  5
546D
  8
0
 10
102.75
 20
113.5358998409943
 30
0.0
 11
102.75
 21
113.28430368825791
 31
0.0
  0
LINE
  5
546E
  8
0
 10
102.75
 20
113.5358998409943
 30
0.0
 11
102.25
 21
113.2688253483373
 31
0.0
  0
LINE
  5
546F
  8
0
 10
102.25
 20
112.6937184313319
 30
0.0
 11
102.75
 21
113.28430368825791
 31
0.0
  0
LINE
  5
5470
  8
0
 10
102.75
 20
96.964100159005753
 30
0.0
 11
104.75
 21
96.964100159005753
 31
0.0
  0
LINE
  5
5471
  8
0
 10
102.75
 20
97.215696311742036
 30
0.0
 11
104.75
 21
97.215696311742036
 31
0.0
  0
LINE
  5
5472
  8
0
 10
102.75
 20
97.215696311742036
 30
0.0
 11
102.75
 21
96.964100159005753
 31
0.0
  0
LINE
  5
5473
  8
0
 10
102.75
 20
97.215696311742036
 30
0.0
 11
102.25
 21
97.80628156866814
 31
0.0
  0
LINE
  5
5474
  8
0
 10
102.25
 20
97.231174651662656
 30
0.0
 11
102.75
 21
96.964100159005753
 31
0.0
  0
LINE
  5
5477
  8
0
 10
102.25
 20
112.5139699016279
 30
0.0
 11
102.57126620031799
 21
112.5139699016279
 31
0.0
  0
LINE
  5
547A
  8
0
 10
102.25
 20
97.986030098372154
 30
0.0
 11
102.57126620031799
 21
97.986030098372154
 31
0.0
  0
LINE
  5
547B
  8
0
 10
95.750000000000014
 20
113.62264973081029
 30
0.0
 11
95.750000000000014
 21
107.25
 31
0.0
  0
LINE
  5
547C
  8
0
 10
99.25
 20
107.25
 30
0.0
 11
95.750000000000014
 21
107.25
 31
0.0
  0
LINE
  5
547E
  8
0
 10
96.75
 20
114.2
 30
0.0
 11
95.750000000000014
 21
113.62264973081029
 31
0.0
  0
LINE
  5
547F
  8
0
 10
99.25
 20
103.25
 30
0.0
 11
95.750000000000014
 21
103.25
 31
0.0
  0
LINE
  5
5480
  8
0
 10
95.750000000000014
 20
103.25
 30
0.0
 11
95.750000000000014
 21
96.877350269189634
 31
0.0
  0
LINE
  5
5482
  8
0
 10
95.750000000000014
 20
96.877350269189634
 30
0.0
 11
96.75
 21
96.300000000000026
 31
0.0
  0
LINE
  5
5483
  8
0
 10
102.75
 20
112.57708672587719
 30
0.0
 11
102.25
 21
112.40052016610611
 31
0.0
  0
LINE
  5
5484
  8
0
 10
102.25
 20
111.6883698264113
 30
0.0
 11
102.75
 21
112.26553720292939
 31
0.0
  0
LINE
  5
5485
  8
0
 10
102.75
 20
112.57708672587719
 30
0.0
 11
104.75
 21
112.57708672587719
 31
0.0
  0
LINE
  5
5486
  8
0
 10
102.75
 20
112.57708672587719
 30
0.0
 11
102.75
 21
112.26553720292939
 31
0.0
  0
LINE
  5
5487
  8
0
 10
102.75
 20
112.26553720292939
 30
0.0
 11
104.75
 21
112.26553720292939
 31
0.0
  0
LINE
  5
5488
  8
0
 10
102.75
 20
98.234462797070591
 30
0.0
 11
104.75
 21
98.234462797070591
 31
0.0
  0
LINE
  5
5489
  8
0
 10
102.75
 20
97.922913274122791
 30
0.0
 11
104.75
 21
97.922913274122791
 31
0.0
  0
LINE
  5
548A
  8
0
 10
102.75
 20
98.234462797070591
 30
0.0
 11
102.75
 21
97.922913274122791
 31
0.0
  0
LINE
  5
548B
  8
0
 10
102.75
 20
98.234462797070591
 30
0.0
 11
102.25
 21
98.811630173588668
 31
0.0
  0
LINE
  5
548C
  8
0
 10
102.25
 20
98.099479833893895
 30
0.0
 11
102.75
 21
97.922913274122791
 31
0.0
  0
LINE
  5
548E
  8
0
 10
102.25
 20
111.51270511736961
 30
0.0
 11
104.75
 21
111.51270511736961
 31
0.0
  0
LINE
  5
5490
  8
0
 10
102.25
 20
98.987294882630366
 30
0.0
 11
104.75
 21
98.987294882630366
 31
0.0
  0
LINE
  5
5493
  8
0
 10
102.75
 20
111.4184097851678
 30
0.0
 11
102.25
 21
111.3371674337584
 31
0.0
  0
LINE
  5
5494
  8
0
 10
102.75
 20
111.4184097851678
 30
0.0
 11
104.75
 21
111.4184097851678
 31
0.0
  0
LINE
  5
5495
  8
0
 10
102.75
 20
111.4184097851678
 30
0.0
 11
102.75
 21
111.0554051508455
 31
0.0
  0
LINE
  5
5496
  8
0
 10
102.25
 20
110.3406100631634
 30
0.0
 11
104.75
 21
110.3406100631634
 31
0.0
  0
LINE
  5
5497
  8
0
 10
102.75
 20
111.0554051508455
 30
0.0
 11
104.75
 21
111.0554051508455
 31
0.0
  0
LINE
  5
5498
  8
0
 10
102.25
 20
110.5073992762038
 30
0.0
 11
102.75
 21
111.0554051508455
 31
0.0
  0
LINE
  5
5499
  8
0
 10
102.25
 20
99.162832566241633
 30
0.0
 11
102.75
 21
99.081590214832204
 31
0.0
  0
LINE
  5
549A
  8
0
 10
102.25
 20
100.1593899368366
 30
0.0
 11
104.75
 21
100.1593899368366
 31
0.0
  0
LINE
  5
549B
  8
0
 10
102.75
 20
99.444594849154527
 30
0.0
 11
102.25
 21
99.992600723796158
 31
0.0
  0
LINE
  5
549C
  8
0
 10
102.75
 20
99.444594849154527
 30
0.0
 11
104.75
 21
99.444594849154527
 31
0.0
  0
LINE
  5
549D
  8
0
 10
102.75
 20
99.444594849154527
 30
0.0
 11
102.75
 21
99.081590214832204
 31
0.0
  0
LINE
  5
549E
  8
0
 10
102.75
 20
99.081590214832204
 30
0.0
 11
104.75
 21
99.081590214832204
 31
0.0
  0
LINE
  5
549F
  8
0
 10
102.25
 20
110.1127330266693
 30
0.0
 11
104.75
 21
110.1127330266693
 31
0.0
  0
LINE
  5
54A0
  8
0
 10
102.25
 20
100.3872669733306
 30
0.0
 11
104.75
 21
100.3872669733306
 31
0.0
  0
LINE
  5
54A1
  8
0
 10
102.75
 20
110.0914747053632
 30
0.0
 11
102.25
 21
110.1077726418789
 31
0.0
  0
LINE
  5
54A2
  8
0
 10
102.25
 20
109.029656436664
 30
0.0
 11
104.75
 21
109.029656436664
 31
0.0
  0
LINE
  5
54A3
  8
0
 10
102.25
 20
109.1830205787585
 30
0.0
 11
102.75
 21
109.6869167798082
 31
0.0
  0
LINE
  5
54A4
  8
0
 10
102.75
 20
110.0914747053632
 30
0.0
 11
104.75
 21
110.0914747053632
 31
0.0
  0
LINE
  5
54A5
  8
0
 10
102.75
 20
110.0914747053632
 30
0.0
 11
102.75
 21
109.6869167798082
 31
0.0
  0
LINE
  5
54A6
  8
0
 10
102.75
 20
109.6869167798082
 30
0.0
 11
104.75
 21
109.6869167798082
 31
0.0
  0
LINE
  5
54A7
  8
0
 10
102.25
 20
101.4703435633359
 30
0.0
 11
104.75
 21
101.4703435633359
 31
0.0
  0
LINE
  5
54A8
  8
0
 10
102.75
 20
100.8130832201917
 30
0.0
 11
102.25
 21
101.3169794212414
 31
0.0
  0
LINE
  5
54A9
  8
0
 10
102.25
 20
100.392227358121
 30
0.0
 11
102.75
 21
100.4085252946367
 31
0.0
  0
LINE
  5
54AA
  8
0
 10
102.75
 20
100.8130832201917
 30
0.0
 11
104.75
 21
100.8130832201917
 31
0.0
  0
LINE
  5
54AB
  8
0
 10
102.75
 20
100.8130832201917
 30
0.0
 11
102.75
 21
100.4085252946367
 31
0.0
  0
LINE
  5
54AC
  8
0
 10
102.75
 20
100.4085252946367
 30
0.0
 11
104.75
 21
100.4085252946367
 31
0.0
  0
LINE
  5
54AD
  8
0
 10
99.25
 20
98.979144186086785
 30
0.0
 11
99.25
 21
111.5208558139132
 31
0.0
  0
LINE
  5
54AE
  8
0
 10
96.75
 20
111.5208558139132
 30
0.0
 11
99.25
 21
111.5208558139132
 31
0.0
  0
LINE
  5
54AF
  8
0
 10
99.25
 20
98.979144186086785
 30
0.0
 11
96.75
 21
98.979144186086813
 31
0.0
  0
LINE
  5
54B0
  8
0
 10
96.75
 20
98.979144186086813
 30
0.0
 11
96.75
 21
96.300000000000026
 31
0.0
  0
LINE
  5
54B1
  8
0
 10
96.75
 20
96.300000000000026
 30
0.0
 11
102.25
 21
96.300000000000026
 31
0.0
  0
LINE
  5
54B2
  8
0
 10
102.25
 20
114.2
 30
0.0
 11
96.75
 21
114.2
 31
0.0
  0
LINE
  5
54B3
  8
0
 10
96.75
 20
114.2
 30
0.0
 11
96.75
 21
111.5208558139132
 31
0.0
  0
LINE
  5
54B4
  8
0
 10
104.75
 20
96.25
 30
0.0
 11
105.25
 21
96.25
 31
0.0
  0
LINE
  5
54B5
  8
0
 10
105.25
 20
114.25
 30
0.0
 11
104.75
 21
114.25
 31
0.0
  0
LINE
  5
54B6
  8
0
 10
105.25
 20
114.25
 30
0.0
 11
105.25
 21
96.25
 31
0.0
  0
LINE
  5
54B7
  8
0
 10
102.25
 20
108.7803825858864
 30
0.0
 11
104.75
 21
108.7803825858864
 31
0.0
  0
LINE
  5
54B8
  8
0
 10
102.25
 20
101.7196174141135
 30
0.0
 11
104.75
 21
101.7196174141135
 31
0.0
  0
LINE
  5
54B9
  8
0
 10
102.75
 20
108.6324768163789
 30
0.0
 11
104.75
 21
108.6324768163789
 31
0.0
  0
LINE
  5
54BA
  8
0
 10
102.75
 20
108.6324768163789
 30
0.0
 11
102.75
 21
108.1974008851967
 31
0.0
  0
LINE
  5
54BB
  8
0
 10
102.75
 20
108.6324768163789
 30
0.0
 11
102.25
 21
108.7458704755972
 31
0.0
  0
LINE
  5
54BC
  8
0
 10
102.25
 20
107.6156036354015
 30
0.0
 11
104.75
 21
107.6156036354015
 31
0.0
  0
LINE
  5
54BD
  8
0
 10
102.75
 20
108.1974008851967
 30
0.0
 11
104.75
 21
108.1974008851967
 31
0.0
  0
LINE
  5
54BE
  8
0
 10
102.25
 20
107.7513593325442
 30
0.0
 11
102.75
 21
108.1974008851967
 31
0.0
  0
LINE
  5
54BF
  8
0
 10
102.25
 20
101.7541295244028
 30
0.0
 11
102.75
 21
101.867523183621
 31
0.0
  0
LINE
  5
54C0
  8
0
 10
102.25
 20
102.8843963645985
 30
0.0
 11
104.75
 21
102.8843963645985
 31
0.0
  0
LINE
  5
54C1
  8
0
 10
102.75
 20
102.3025991148033
 30
0.0
 11
102.25
 21
102.7486406674558
 31
0.0
  0
LINE
  5
54C2
  8
0
 10
102.75
 20
102.3025991148033
 30
0.0
 11
104.75
 21
102.3025991148033
 31
0.0
  0
LINE
  5
54C3
  8
0
 10
102.75
 20
102.3025991148033
 30
0.0
 11
102.75
 21
101.867523183621
 31
0.0
  0
LINE
  5
54C4
  8
0
 10
102.75
 20
101.867523183621
 30
0.0
 11
104.75
 21
101.867523183621
 31
0.0
  0
LINE
  5
54C5
  8
0
 10
102.25
 20
107.3517325111811
 30
0.0
 11
104.75
 21
107.3517325111811
 31
0.0
  0
LINE
  5
54C6
  8
0
 10
102.25
 20
103.1482674888189
 30
0.0
 11
104.75
 21
103.1482674888189
 31
0.0
  0
LINE
  5
54C7
  8
0
 10
102.75
 20
107.08121377730291
 30
0.0
 11
102.25
 21
107.2886100757954
 31
0.0
  0
LINE
  5
54C8
  8
0
 10
102.75
 20
103.41878622269709
 30
0.0
 11
104.75
 21
103.41878622269709
 31
0.0
  0
LINE
  5
54C9
  8
0
 10
102.25
 20
106.13702333363361
 30
0.0
 11
104.75
 21
106.13702333363361
 31
0.0
  0
LINE
  5
54CA
  8
0
 10
102.25
 20
106.25146752429509
 30
0.0
 11
102.75
 21
106.6274875777376
 31
0.0
  0
LINE
  5
54CB
  8
0
 10
102.75
 20
107.08121377730291
 30
0.0
 11
104.75
 21
107.08121377730291
 31
0.0
  0
LINE
  5
54CC
  8
0
 10
102.75
 20
107.08121377730291
 30
0.0
 11
102.75
 21
106.6274875777376
 31
0.0
  0
LINE
  5
54CD
  8
0
 10
102.75
 20
106.6274875777376
 30
0.0
 11
104.75
 21
106.6274875777376
 31
0.0
  0
LINE
  5
54CE
  8
0
 10
104.75
 20
114.98298812519771
 30
0.0
 11
104.75
 21
95.517011874802236
 31
0.0
  0
LINE
  5
54CF
  8
0
 10
102.75
 20
103.8725124222624
 30
0.0
 11
104.75
 21
103.8725124222624
 31
0.0
  0
LINE
  5
54D0
  8
0
 10
102.25
 20
104.36297666636629
 30
0.0
 11
104.75
 21
104.36297666636629
 31
0.0
  0
LINE
  5
54D1
  8
0
 10
102.75
 20
103.8725124222624
 30
0.0
 11
102.75
 21
103.41878622269709
 31
0.0
  0
LINE
  5
54D2
  8
0
 10
102.75
 20
103.8725124222624
 30
0.0
 11
102.25
 21
104.24853247570481
 31
0.0
  0
LINE
  5
54D3
  8
0
 10
102.25
 20
103.2113899242046
 30
0.0
 11
102.75
 21
103.41878622269709
 31
0.0
  0
LINE
  5
54D4
  8
0
 10
102.25
 20
105.8657526523785
 30
0.0
 11
104.75
 21
105.8657526523785
 31
0.0
  0
LINE
  5
54D5
  8
0
 10
102.25
 20
96.003079823135067
 30
0.0
 11
102.25
 21
114.4969201768649
 31
0.0
  0
LINE
  5
54D6
  8
0
 10
102.25
 20
104.6342473476215
 30
0.0
 11
104.75
 21
104.6342473476215
 31
0.0
  0
LINE
  5
54D7
  8
0
 10
102.75
 20
105.48
 30
0.0
 11
102.25
 21
105.77574170738571
 31
0.0
  0
LINE
  5
54D8
  8
0
 10
102.25
 20
104.72425829261429
 30
0.0
 11
102.75
 21
105.02
 31
0.0
  0
LINE
  5
54D9
  8
0
 10
102.75
 20
105.48
 30
0.0
 11
104.75
 21
105.48
 31
0.0
  0
LINE
  5
54DA
  8
0
 10
102.75
 20
105.48
 30
0.0
 11
102.75
 21
105.02
 31
0.0
  0
LINE
  5
54DB
  8
0
 10
102.75
 20
105.02
 30
0.0
 11
104.75
 21
105.02
 31
0.0
  0
LINE
  5
54DE
  8
1
 10
92.75
 20
105.25
 30
0.0
 11
108.25
 21
105.25
 31
0.0
  0
LINE
  5
54DF
  8
1
 10
94.25
 20
99.249999999999972
 30
0.0
 11
106.75
 21
99.25
 31
0.0
  0
LINE
  5
54E1
  8
0
 10
59.75
 20
50.5
 30
0.0
 11
59.75
 21
52.5
 31
0.0
  0
LINE
  5
54E2
  8
0
 10
40.25
 20
52.5
 30
0.0
 11
40.25
 21
50.5
 31
0.0
  0
LINE
  5
54E3
  8
0
 10
59.75
 20
52.5
 30
0.0
 11
59.25
 21
53.0
 31
0.0
  0
LINE
  5
54E4
  8
0
 10
59.75
 20
52.5
 30
0.0
 11
59.747286801977253
 21
52.5
 31
0.0
  0
LINE
  5
54E5
  8
0
 10
40.25271319802274
 20
52.5
 30
0.0
 11
40.25
 21
52.5
 31
0.0
  0
LINE
  5
54E6
  8
0
 10
40.75
 20
53.0
 30
0.0
 11
40.25
 21
52.5
 31
0.0
  0
LINE
  5
54E7
  8
0
 10
59.747286801977253
 20
52.5
 30
0.0
 11
59.747286801977253
 21
50.5
 31
0.0
  0
LINE
  5
54E8
  8
0
 10
59.235047138868048
 20
53.0
 30
0.0
 11
59.747286801977253
 21
52.5
 31
0.0
  0
LINE
  5
54E9
  8
0
 10
40.25271319802274
 20
52.5
 30
0.0
 11
40.25271319802274
 21
50.5
 31
0.0
  0
LINE
  5
54EA
  8
0
 10
40.25271319802274
 20
52.5
 30
0.0
 11
40.764952861131938
 21
53.0
 31
0.0
  0
LINE
  5
54EF
  8
2
 10
54.400000000000013
 20
56.0
 30
0.0
 11
54.400000000000013
 21
50.0
 31
0.0
  0
LINE
  5
54F0
  8
2
 10
57.599999999999987
 20
50.0
 30
0.0
 11
57.599999999999987
 21
56.0
 31
0.0
  0
LINE
  5
54F1
  8
2
 10
42.400000000000013
 20
56.0
 30
0.0
 11
42.400000000000013
 21
50.0
 31
0.0
  0
LINE
  5
54F2
  8
2
 10
45.599999999999987
 20
50.0
 30
0.0
 11
45.599999999999987
 21
56.0
 31
0.0
  0
LINE
  5
54F8
  8
0
 10
59.652203270402993
 20
52.5
 30
0.0
 11
59.652203270402993
 21
50.5
 31
0.0
  0
LINE
  5
54F9
  8
0
 10
40.347796729597
 20
52.5
 30
0.0
 11
40.347796729597
 21
50.5
 31
0.0
  0
LINE
  5
54FD
  8
2
 10
53.27158385259952
 20
56.0
 30
0.0
 11
53.27158385259952
 21
59.5
 31
0.0
  0
LINE
  5
54FE
  8
2
 10
46.72841614740048
 20
56.0
 30
0.0
 11
46.72841614740048
 21
59.5
 31
0.0
  0
LINE
  5
54FF
  8
2
 10
53.112876483254603
 20
59.5
 30
0.0
 11
53.112876483254603
 21
55.999999999999972
 31
0.0
  0
LINE
  5
5500
  8
2
 10
46.88712351674539
 20
55.999999999999972
 30
0.0
 11
46.88712351674539
 21
59.5
 31
0.0
  0
LINE
  5
5501
  8
0
 10
59.652203270402993
 20
52.5
 30
0.0
 11
59.57648975887389
 21
52.5
 31
0.0
  0
LINE
  5
5502
  8
0
 10
59.652203270402993
 20
52.5
 30
0.0
 11
59.195627373800107
 21
53.0
 31
0.0
  0
LINE
  5
5503
  8
0
 10
40.423510241126138
 20
52.5
 30
0.0
 11
40.347796729597
 21
52.5
 31
0.0
  0
LINE
  5
5504
  8
0
 10
40.804372626199893
 20
53.0
 30
0.0
 11
40.347796729597
 21
52.5
 31
0.0
  0
LINE
  5
5505
  8
0
 10
59.57648975887389
 20
52.5
 30
0.0
 11
59.57648975887389
 21
50.5
 31
0.0
  0
LINE
  5
5506
  8
0
 10
59.022558891958852
 20
53.0
 30
0.0
 11
59.57648975887389
 21
52.5
 31
0.0
  0
LINE
  5
5507
  8
0
 10
40.423510241126138
 20
52.5
 30
0.0
 11
40.423510241126138
 21
50.5
 31
0.0
  0
LINE
  5
5508
  8
0
 10
40.423510241126138
 20
52.5
 30
0.0
 11
40.977441108041141
 21
53.0
 31
0.0
  0
LINE
  5
550E
  8
0
 10
59.293832795028209
 20
52.5
 30
0.0
 11
59.293832795028209
 21
50.5
 31
0.0
  0
LINE
  5
550F
  8
0
 10
40.706167204971791
 20
52.5
 30
0.0
 11
40.706167204971791
 21
50.5
 31
0.0
  0
LINE
  5
5510
  8
0
 10
59.293832795028209
 20
52.5
 30
0.0
 11
59.144471039194059
 21
52.5
 31
0.0
  0
LINE
  5
5511
  8
0
 10
59.293832795028209
 20
52.5
 30
0.0
 11
58.905374865186417
 21
53.0
 31
0.0
  0
LINE
  5
5512
  8
0
 10
40.855528960805941
 20
52.5
 30
0.0
 11
40.706167204971791
 21
52.5
 31
0.0
  0
LINE
  5
5513
  8
0
 10
41.094625134813583
 20
53.0
 30
0.0
 11
40.706167204971791
 21
52.5
 31
0.0
  0
LINE
  5
5515
  8
0
 10
59.144471039194059
 20
52.5
 30
0.0
 11
59.144471039194059
 21
50.5
 31
0.0
  0
LINE
  5
5516
  8
0
 10
58.563958758532628
 20
53.0
 30
0.0
 11
59.144471039194059
 21
52.5
 31
0.0
  0
LINE
  5
5518
  8
0
 10
40.855528960805941
 20
52.5
 30
0.0
 11
40.855528960805941
 21
50.5
 31
0.0
  0
LINE
  5
5519
  8
0
 10
40.855528960805941
 20
52.5
 30
0.0
 11
41.436041241467358
 21
53.0
 31
0.0
  0
LINE
  5
551C
  8
0
 10
58.387276005788152
 20
53.0
 30
0.0
 11
58.387276005788152
 21
52.97567496290938
 31
0.0
  0
LINE
  5
551F
  8
0
 10
41.612723994211848
 20
53.0
 30
0.0
 11
41.612723994211848
 21
52.975674962909409
 31
0.0
  0
LINE
  5
5520
  8
0
 10
58.681950788218948
 20
52.5
 30
0.0
 11
58.681950788218948
 21
50.5
 31
0.0
  0
LINE
  5
5521
  8
0
 10
41.318049211781037
 20
52.5
 30
0.0
 11
41.318049211781037
 21
50.5
 31
0.0
  0
LINE
  5
5522
  8
0
 10
58.681950788218948
 20
52.5
 30
0.0
 11
58.463014987421921
 21
52.5
 31
0.0
  0
LINE
  5
5523
  8
0
 10
58.681950788218948
 20
52.5
 30
0.0
 11
58.372206944830111
 21
53.0
 31
0.0
  0
LINE
  5
5524
  8
0
 10
41.536985012578093
 20
52.5
 30
0.0
 11
41.318049211781037
 21
52.5
 31
0.0
  0
LINE
  5
5525
  8
0
 10
41.627793055169889
 20
53.0
 30
0.0
 11
41.318049211781037
 21
52.5
 31
0.0
  0
LINE
  5
5526
  8
0
 10
58.463014987421921
 20
52.5
 30
0.0
 11
58.463014987421921
 21
50.5
 31
0.0
  0
LINE
  5
5527
  8
0
 10
57.87175615474797
 20
53.0
 30
0.0
 11
58.463014987421921
 21
52.5
 31
0.0
  0
LINE
  5
5528
  8
0
 10
41.536985012578093
 20
52.5
 30
0.0
 11
41.536985012578072
 21
50.5
 31
0.0
  0
LINE
  5
5529
  8
0
 10
41.536985012578093
 20
52.5
 30
0.0
 11
42.12824384525203
 21
53.0
 31
0.0
  0
LINE
  5
552C
  8
0
 10
57.691802617809373
 20
53.0
 30
0.0
 11
57.691802617809373
 21
52.817739015556242
 31
0.0
  0
LINE
  5
552F
  8
0
 10
42.308197382190627
 20
53.0
 30
0.0
 11
42.308197382190627
 21
52.817739015556242
 31
0.0
  0
LINE
  5
5530
  8
0
 10
57.833247796063688
 20
52.5
 30
0.0
 11
57.833247796063688
 21
50.5
 31
0.0
  0
LINE
  5
5532
  8
0
 10
57.550709948226491
 20
52.5
 30
0.0
 11
57.550709948226491
 21
50.5
 31
0.0
  0
LINE
  5
5533
  8
0
 10
57.833247796063688
 20
52.5
 30
0.0
 11
57.550709948226491
 21
52.5
 31
0.0
  0
LINE
  5
5534
  8
0
 10
57.833247796063688
 20
52.5
 30
0.0
 11
57.610667043733521
 21
53.0
 31
0.0
  0
LINE
  5
5535
  8
0
 10
56.964832563198598
 20
53.0
 30
0.0
 11
57.550709948226491
 21
52.5
 31
0.0
  0
LINE
  5
5536
  8
0
 10
42.389332956266479
 20
53.0
 30
0.0
 11
42.166752203936312
 21
52.5
 31
0.0
  0
LINE
  5
5538
  8
0
 10
42.449290051773538
 20
52.5
 30
0.0
 11
43.03516743680143
 21
53.0
 31
0.0
  0
LINE
  5
5539
  8
0
 10
42.449290051773538
 20
52.5
 30
0.0
 11
42.449290051773538
 21
50.5
 31
0.0
  0
LINE
  5
553A
  8
0
 10
42.449290051773538
 20
52.5
 30
0.0
 11
42.166752203936312
 21
52.5
 31
0.0
  0
LINE
  5
553B
  8
0
 10
42.166752203936312
 20
52.5
 30
0.0
 11
42.166752203936312
 21
50.5
 31
0.0
  0
LINE
  5
553D
  8
0
 10
56.786516905449673
 20
53.0
 30
0.0
 11
56.786516905449673
 21
50.5
 31
0.0
  0
LINE
  5
553F
  8
0
 10
43.21348309455032
 20
53.0
 30
0.0
 11
43.21348309455032
 21
50.5
 31
0.0
  0
LINE
  5
5540
  8
2
 10
43.614166666666669
 20
56.0
 30
0.0
 11
56.385833333333331
 21
56.0
 31
0.0
  0
LINE
  5
5543
  8
0
 10
56.770874223784801
 20
52.5
 30
0.0
 11
56.641527985212122
 21
53.0
 31
0.0
  0
LINE
  5
5544
  8
0
 10
55.696112703038551
 20
53.0
 30
0.0
 11
55.696112703038551
 21
50.5
 31
0.0
  0
LINE
  5
5545
  8
0
 10
55.8679264952886
 20
53.0
 30
0.0
 11
56.432441224875191
 21
52.5
 31
0.0
  0
LINE
  5
5546
  8
0
 10
56.770874223784801
 20
52.5
 30
0.0
 11
56.770874223784801
 21
50.5
 31
0.0
  0
LINE
  5
5547
  8
0
 10
56.770874223784801
 20
52.5
 30
0.0
 11
56.432441224875191
 21
52.5
 31
0.0
  0
LINE
  5
5548
  8
0
 10
56.432441224875191
 20
52.5
 30
0.0
 11
56.432441224875191
 21
50.5
 31
0.0
  0
LINE
  5
5549
  8
0
 10
44.303887296961449
 20
53.0
 30
0.0
 11
44.303887296961449
 21
50.5
 31
0.0
  0
LINE
  5
554A
  8
0
 10
43.567558775124809
 20
52.5
 30
0.0
 11
43.567558775124809
 21
50.5
 31
0.0
  0
LINE
  5
554B
  8
0
 10
43.229125776215199
 20
52.5
 30
0.0
 11
43.229125776215199
 21
50.5
 31
0.0
  0
LINE
  5
554C
  8
0
 10
43.567558775124809
 20
52.5
 30
0.0
 11
43.229125776215199
 21
52.5
 31
0.0
  0
LINE
  5
554D
  8
0
 10
43.567558775124809
 20
52.5
 30
0.0
 11
44.132073504711393
 21
53.0
 31
0.0
  0
LINE
  5
554E
  8
0
 10
43.358472014787871
 20
53.0
 30
0.0
 11
43.229125776215199
 21
52.5
 31
0.0
  0
LINE
  5
554F
  8
2
 10
48.5
 20
59.5
 30
0.0
 11
48.5
 21
50.0
 31
0.0
  0
LINE
  5
5550
  8
2
 10
51.5
 20
50.0
 30
0.0
 11
51.5
 21
59.5
 31
0.0
  0
LINE
  5
5551
  8
0
 10
55.523808853032868
 20
52.5
 30
0.0
 11
55.523808853032868
 21
50.5
 31
0.0
  0
LINE
  5
5552
  8
0
 10
54.450333394746139
 20
53.0
 30
0.0
 11
54.450333394746139
 21
50.5
 31
0.0
  0
LINE
  5
5553
  8
0
 10
55.13871227303212
 20
52.5
 30
0.0
 11
55.13871227303212
 21
50.5
 31
0.0
  0
LINE
  5
5554
  8
0
 10
55.523808853032868
 20
52.5
 30
0.0
 11
55.13871227303212
 21
52.5
 31
0.0
  0
LINE
  5
5555
  8
0
 10
55.523808853032868
 20
52.5
 30
0.0
 11
55.491225356425467
 21
53.0
 31
0.0
  0
LINE
  5
5556
  8
0
 10
54.61095868912988
 20
53.0
 30
0.0
 11
55.13871227303212
 21
52.5
 31
0.0
  0
LINE
  5
5557
  8
0
 10
45.549666605253861
 20
53.0
 30
0.0
 11
45.549666605253861
 21
50.5
 31
0.0
  0
LINE
  5
5558
  8
0
 10
44.861287726967873
 20
52.5
 30
0.0
 11
45.389041310870141
 21
53.0
 31
0.0
  0
LINE
  5
5559
  8
0
 10
44.508774643574533
 20
53.0
 30
0.0
 11
44.476191146967132
 21
52.5
 31
0.0
  0
LINE
  5
555A
  8
0
 10
44.861287726967873
 20
52.5
 30
0.0
 11
44.861287726967873
 21
50.5
 31
0.0
  0
LINE
  5
555B
  8
0
 10
44.861287726967873
 20
52.5
 30
0.0
 11
44.476191146967132
 21
52.5
 31
0.0
  0
LINE
  5
555C
  8
0
 10
44.476191146967132
 20
52.5
 30
0.0
 11
44.476191146967132
 21
50.5
 31
0.0
  0
LINE
  5
555D
  8
0
 10
54.210940302328993
 20
53.0
 30
0.0
 11
54.210940302328993
 21
50.5
 31
0.0
  0
LINE
  5
555E
  8
0
 10
45.789059697671007
 20
53.0
 30
0.0
 11
45.789059697671007
 21
50.5
 31
0.0
  0
LINE
  5
555F
  8
0
 10
56.385833333333331
 20
58.5
 30
0.0
 11
55.909583976897103
 21
59.5
 31
0.0
  0
LINE
  5
5560
  8
0
 10
55.909583976897103
 20
59.5
 30
0.0
 11
44.090416023102897
 21
59.5
 31
0.0
  0
LINE
  5
5561
  8
0
 10
44.090416023102897
 20
59.5
 30
0.0
 11
43.614166666666669
 21
58.5
 31
0.0
  0
LINE
  5
5562
  8
0
 10
56.385833333333331
 20
56.0
 30
0.0
 11
58.949999999999989
 21
56.0
 31
0.0
  0
LINE
  5
5563
  8
0
 10
56.385833333333331
 20
56.0
 30
0.0
 11
56.385833333333331
 21
58.5
 31
0.0
  0
LINE
  5
5564
  8
0
 10
56.385833333333331
 20
58.5
 30
0.0
 11
43.614166666666669
 21
58.5
 31
0.0
  0
LINE
  5
5565
  8
0
 10
43.614166666666669
 20
58.5
 30
0.0
 11
43.614166666666669
 21
56.0
 31
0.0
  0
LINE
  5
5566
  8
0
 10
41.049999999999983
 20
56.0
 30
0.0
 11
41.049999999999983
 21
53.0
 31
0.0
  0
LINE
  5
5567
  8
0
 10
58.949999999999989
 20
53.0
 30
0.0
 11
58.949999999999989
 21
56.0
 31
0.0
  0
LINE
  5
5568
  8
0
 10
41.049999999999983
 20
56.0
 30
0.0
 11
43.614166666666669
 21
56.0
 31
0.0
  0
LINE
  5
5569
  8
0
 10
59.0
 20
50.0
 30
0.0
 11
41.0
 21
50.0
 31
0.0
  0
LINE
  5
556A
  8
0
 10
41.0
 20
50.5
 30
0.0
 11
41.0
 21
50.0
 31
0.0
  0
LINE
  5
556B
  8
0
 10
59.0
 20
50.0
 30
0.0
 11
59.0
 21
50.5
 31
0.0
  0
LINE
  5
556C
  8
0
 10
53.083160592598368
 20
53.0
 30
0.0
 11
53.083160592598368
 21
50.5
 31
0.0
  0
LINE
  5
556D
  8
0
 10
54.126068376265209
 20
52.5
 30
0.0
 11
54.126068376265209
 21
50.5
 31
0.0
  0
LINE
  5
556E
  8
0
 10
53.704812646003887
 20
52.5
 30
0.0
 11
53.704812646003887
 21
50.5
 31
0.0
  0
LINE
  5
556F
  8
0
 10
54.126068376265209
 20
52.5
 30
0.0
 11
53.704812646003887
 21
52.5
 31
0.0
  0
LINE
  5
5570
  8
0
 10
54.126068376265209
 20
52.5
 30
0.0
 11
54.191136414471721
 21
53.0
 31
0.0
  0
LINE
  5
5571
  8
0
 10
53.228215949803911
 20
53.0
 30
0.0
 11
53.704812646003887
 21
52.5
 31
0.0
  0
LINE
  5
5572
  8
0
 10
46.916839407401618
 20
53.0
 30
0.0
 11
46.916839407401618
 21
50.5
 31
0.0
  0
LINE
  5
5573
  8
0
 10
46.295187353996113
 20
52.5
 30
0.0
 11
46.295187353996113
 21
50.5
 31
0.0
  0
LINE
  5
5574
  8
0
 10
45.873931623734819
 20
52.5
 30
0.0
 11
45.873931623734819
 21
50.5
 31
0.0
  0
LINE
  5
5575
  8
0
 10
46.295187353996113
 20
52.5
 30
0.0
 11
45.873931623734819
 21
52.5
 31
0.0
  0
LINE
  5
5576
  8
0
 10
46.295187353996113
 20
52.5
 30
0.0
 11
46.771784050196118
 21
53.0
 31
0.0
  0
LINE
  5
5577
  8
0
 10
45.808863585528307
 20
53.0
 30
0.0
 11
45.873931623734819
 21
52.5
 31
0.0
  0
LINE
  5
5578
  8
0
 10
52.82570877662144
 20
53.0
 30
0.0
 11
52.82570877662144
 21
50.5
 31
0.0
  0
LINE
  5
5579
  8
0
 10
47.17429122337856
 20
53.0
 30
0.0
 11
47.17429122337856
 21
50.5
 31
0.0
  0
LINE
  5
557A
  8
0
 10
52.615779510050508
 20
52.5
 30
0.0
 11
52.77672419660837
 21
53.0
 31
0.0
  0
LINE
  5
557B
  8
0
 10
52.615779510050508
 20
52.5
 30
0.0
 11
52.615779510050508
 21
50.5
 31
0.0
  0
LINE
  5
557C
  8
0
 10
52.615779510050508
 20
52.5
 30
0.0
 11
52.169855387718428
 21
52.5
 31
0.0
  0
LINE
  5
557D
  8
0
 10
51.631887206684347
 20
53.0
 30
0.0
 11
51.631887206684347
 21
50.5
 31
0.0
  0
LINE
  5
557E
  8
0
 10
52.169855387718428
 20
52.5
 30
0.0
 11
52.169855387718428
 21
50.5
 31
0.0
  0
LINE
  5
557F
  8
0
 10
51.757415894698191
 20
53.0
 30
0.0
 11
52.169855387718428
 21
52.5
 31
0.0
  0
LINE
  5
5580
  8
0
 10
47.223275803391651
 20
53.0
 30
0.0
 11
47.384220489949513
 21
52.5
 31
0.0
  0
LINE
  5
5581
  8
0
 10
48.368112793315667
 20
53.0
 30
0.0
 11
48.368112793315667
 21
50.5
 31
0.0
  0
LINE
  5
5582
  8
0
 10
47.830144612281572
 20
52.5
 30
0.0
 11
48.24258410530183
 21
53.0
 31
0.0
  0
LINE
  5
5583
  8
0
 10
47.830144612281572
 20
52.5
 30
0.0
 11
47.830144612281572
 21
50.5
 31
0.0
  0
LINE
  5
5584
  8
0
 10
47.830144612281572
 20
52.5
 30
0.0
 11
47.384220489949513
 21
52.5
 31
0.0
  0
LINE
  5
5585
  8
0
 10
47.384220489949513
 20
52.5
 30
0.0
 11
47.384220489949513
 21
50.5
 31
0.0
  0
LINE
  5
5586
  8
0
 10
51.363399281560667
 20
53.0
 30
0.0
 11
51.363399281560667
 21
50.5
 31
0.0
  0
LINE
  5
5587
  8
0
 10
48.636600718439347
 20
53.0
 30
0.0
 11
48.636600718439347
 21
50.5
 31
0.0
  0
LINE
  5
5588
  8
0
 10
51.034138997629917
 20
52.5
 30
0.0
 11
51.286570181041299
 21
53.0
 31
0.0
  0
LINE
  5
5589
  8
0
 10
50.136100191784429
 20
53.0
 30
0.0
 11
50.136100191784429
 21
50.5
 31
0.0
  0
LINE
  5
558A
  8
0
 10
50.238678115226428
 20
53.0
 30
0.0
 11
50.575710130846858
 21
52.5
 31
0.0
  0
LINE
  5
558B
  8
0
 10
51.034138997629917
 20
52.5
 30
0.0
 11
51.034138997629917
 21
50.5
 31
0.0
  0
LINE
  5
558C
  8
0
 10
51.034138997629917
 20
52.5
 30
0.0
 11
50.575710130846858
 21
52.5
 31
0.0
  0
LINE
  5
558D
  8
0
 10
50.575710130846858
 20
52.5
 30
0.0
 11
50.575710130846858
 21
50.5
 31
0.0
  0
LINE
  5
558E
  8
0
 10
59.25
 20
53.0
 30
0.0
 11
40.75
 21
53.0
 31
0.0
  0
LINE
  5
558F
  8
0
 10
48.71342981895873
 20
53.0
 30
0.0
 11
48.965861002370097
 21
52.5
 31
0.0
  0
LINE
  5
5590
  8
0
 10
49.863899808215592
 20
53.0
 30
0.0
 11
49.863899808215592
 21
50.5
 31
0.0
  0
LINE
  5
5591
  8
0
 10
49.424289869153142
 20
52.5
 30
0.0
 11
49.761321884773572
 21
53.0
 31
0.0
  0
LINE
  5
5592
  8
0
 10
59.75
 20
50.5
 30
0.0
 11
40.25
 21
50.5
 31
0.0
  0
LINE
  5
5593
  8
0
 10
49.424289869153142
 20
52.5
 30
0.0
 11
49.424289869153142
 21
50.5
 31
0.0
  0
LINE
  5
5594
  8
0
 10
49.424289869153142
 20
52.5
 30
0.0
 11
48.965861002370097
 21
52.5
 31
0.0
  0
LINE
  5
5595
  8
0
 10
48.965861002370097
 20
52.5
 30
0.0
 11
48.965861002370097
 21
50.5
 31
0.0
  0
LINE
  5
5596
  8
2
 10
47.899999999999999
 20
50.0
 30
0.0
 11
47.899999999999999
 21
56.0
 31
0.0
  0
LINE
  5
5597
  8
2
 10
52.100000000000001
 20
50.0
 30
0.0
 11
52.100000000000001
 21
56.0
 31
0.0
  0
LINE
  5
559C
  8
0
 10
40.920856391096748
 20
105.8657526523784
 30
0.0
 11
40.25271319802274
 21
105.4799999999999
 31
0.0
  0
LINE
  5
559D
  8
0
 10
40.25271319802274
 20
105.02
 30
0.0
 11
40.920856391096748
 21
104.6342473476215
 31
0.0
  0
ARC
  5
559E
  8
0
 10
50.000000000009322
 20
105.25
 30
0.0
 40
9.7500000000093152
 50
178.6482818662904
 51
181.35171813370951
  0
LINE
  5
559F
  8
0
 10
40.94333452060917
 20
104.36297666636629
 30
0.0
 11
40.347796729597
 21
103.8725124222623
 31
0.0
  0
LINE
  5
55A0
  8
0
 10
40.423510241126138
 20
103.41878622269709
 30
0.0
 11
41.1460336316742
 21
103.1482674888189
 31
0.0
  0
ARC
  5
55A1
  8
0
 10
50.000000000004327
 20
105.2500000000007
 30
0.0
 40
9.7500000000044018
 50
188.12196607681571
 51
190.8254023442359
  0
LINE
  5
55A2
  8
0
 10
44.476191146967132
 20
113.28430368825791
 30
0.0
 11
44.518691646308852
 21
112.5139699016279
 31
0.0
  0
ARC
  5
55A3
  8
0
 10
50.000000000001322
 20
105.249999999998
 30
0.0
 40
9.7500000000024016
 50
121.806176603132
 51
124.5096128705534
  0
LINE
  5
55A4
  8
0
 10
45.549666605253861
 20
113.1875394597827
 30
0.0
 11
44.861287726967859
 21
113.5358998409942
 31
0.0
  0
LINE
  5
55A5
  8
0
 10
44.303887296961449
 20
112.3467809656409
 30
0.0
 11
43.567558775124809
 21
112.57708672587719
 31
0.0
  0
LINE
  5
55A6
  8
0
 10
43.229125776215177
 20
112.26553720292929
 30
0.0
 11
43.397839398130941
 21
111.51270511736961
 31
0.0
  0
ARC
  5
55A7
  8
0
 10
49.999999999998657
 20
105.25000000000151
 30
0.0
 40
9.7499999999979394
 50
131.2798608136587
 51
133.98329708107869
  0
LINE
  5
55A8
  8
0
 10
43.213483094550313
 20
111.3124407866836
 30
0.0
 11
42.449290051773531
 21
111.4184097851678
 31
0.0
  0
LINE
  5
55A9
  8
0
 10
42.166752203936291
 20
111.0554051508454
 30
0.0
 11
42.457076880623831
 21
110.3406100631634
 31
0.0
  0
ARC
  5
55AA
  8
0
 10
50.000000000005571
 20
105.24999999999559
 30
0.0
 40
9.7500000000070681
 50
140.75354502418571
 51
143.4569812916036
  0
LINE
  5
55AB
  8
0
 10
41.318049211781037
 20
109.6869167798082
 30
0.0
 11
41.722065642880239
 21
109.029656436664
 31
0.0
  0
LINE
  5
55AC
  8
0
 10
42.308197382190627
 20
110.1127330266693
 30
0.0
 11
41.536985012578072
 21
110.0914747053632
 31
0.0
  0
ARC
  5
55AD
  8
0
 10
50.000000000004931
 20
105.2499999999973
 30
0.0
 40
9.7500000000056151
 50
150.2272292347117
 51
152.9306655021301
  0
LINE
  5
55AE
  8
0
 10
41.612723994211848
 20
108.7803825858864
 30
0.0
 11
40.855528960805941
 21
108.6324768163789
 31
0.0
  0
LINE
  5
55AF
  8
0
 10
40.706167204971791
 20
108.1974008851967
 30
0.0
 11
41.212854875434523
 21
107.6156036354015
 31
0.0
  0
ARC
  5
55B0
  8
0
 10
49.999999999999282
 20
105.2500000000002
 30
0.0
 40
9.749999999999245
 50
159.70091344523641
 51
162.40434971265691
  0
LINE
  5
55B1
  8
0
 10
40.347796729597
 20
106.6274875777376
 30
0.0
 11
40.94333452060917
 21
106.13702333363361
 31
0.0
  0
LINE
  5
55B2
  8
0
 10
41.1460336316742
 20
107.3517325111811
 30
0.0
 11
40.42351024112611
 21
107.08121377730281
 31
0.0
  0
ARC
  5
55B3
  8
0
 10
49.999999999984048
 20
105.2500000000026
 30
0.0
 40
9.7499999999838458
 50
169.17459765576089
 51
171.87803392318591
  0
ARC
  5
55B4
  8
0
 10
49.999999999997272
 20
105.24999999999901
 30
0.0
 40
9.7499999999971152
 50
197.5956502873415
 51
200.29908655476351
  0
LINE
  5
55B5
  8
0
 10
40.855528960805941
 20
101.867523183621
 30
0.0
 11
41.612723994211848
 21
101.7196174141135
 31
0.0
  0
LINE
  5
55B6
  8
0
 10
41.212854875434523
 20
102.8843963645984
 30
0.0
 11
40.706167204971791
 21
102.3025991148033
 31
0.0
  0
ARC
  5
55B7
  8
0
 10
49.999999999994401
 20
105.2499999999969
 30
0.0
 40
9.7499999999936122
 50
207.0693344978684
 51
209.77277076529049
  0
LINE
  5
55B8
  8
0
 10
41.536985012578079
 20
100.4085252946367
 30
0.0
 11
42.308197382190627
 21
100.3872669733306
 31
0.0
  0
LINE
  5
55B9
  8
0
 10
41.722065642880217
 20
101.4703435633359
 30
0.0
 11
41.318049211781037
 21
100.8130832201917
 31
0.0
  0
LINE
  5
55BA
  8
0
 10
43.397839398130941
 20
98.987294882630366
 30
0.0
 11
43.229125776215199
 21
98.234462797070591
 31
0.0
  0
LINE
  5
55BB
  8
0
 10
43.567558775124823
 20
97.922913274122791
 30
0.0
 11
44.303887296961449
 21
98.153219034359097
 31
0.0
  0
ARC
  5
55BC
  8
0
 10
50.000000000001592
 20
105.25000000000171
 30
0.0
 40
9.7500000000023412
 50
226.0167029189212
 51
228.7201391863413
  0
ARC
  5
55BD
  8
0
 10
50.000000000000881
 20
105.25000000000129
 30
0.0
 40
9.7500000000016325
 50
235.49038712944659
 51
238.19382339686851
  0
LINE
  5
55BE
  8
0
 10
44.861287726967873
 20
96.96410015900571
 30
0.0
 11
45.549666605253869
 21
97.312460540217316
 31
0.0
  0
LINE
  5
55BF
  8
0
 10
44.518691646308859
 20
97.986030098372112
 30
0.0
 11
44.476191146967132
 21
97.215696311742036
 31
0.0
  0
ARC
  5
55C0
  8
0
 10
49.999999999998792
 20
105.2499999999991
 30
0.0
 40
9.7499999999985185
 50
216.5430187083941
 51
219.24645497581659
  0
LINE
  5
55C1
  8
0
 10
42.449290051773559
 20
99.081590214832175
 30
0.0
 11
43.21348309455032
 21
99.18755921331632
 31
0.0
  0
LINE
  5
55C2
  8
0
 10
42.457076880623831
 20
100.1593899368366
 30
0.0
 11
42.166752203936312
 21
99.444594849154498
 31
0.0
  0
LINE
  5
55C3
  8
0
 10
48.965861002370083
 20
114.9450016262805
 30
0.0
 11
48.636600718439318
 21
114.24728527940729
 31
0.0
  0
LINE
  5
55C4
  8
0
 10
49.863899808215557
 20
114.3489821814198
 30
0.0
 11
49.424289869153128
 21
114.98298812519771
 31
0.0
  0
ARC
  5
55C5
  8
0
 10
50.000000000000078
 20
105.24999999999859
 30
0.0
 40
9.7500000000013287
 50
93.385123971552574
 51
96.088560238973329
  0
ARC
  5
55C6
  8
0
 10
50.000000000000647
 20
105.2500000000026
 30
0.0
 40
9.7499999999972928
 50
74.437755550498721
 51
77.141191817921893
  0
LINE
  5
55C7
  8
0
 10
52.169855387718428
 20
114.755484080066
 30
0.0
 11
51.631887206684333
 21
114.2024825687995
 31
0.0
  0
LINE
  5
55C8
  8
0
 10
52.82570877662144
 20
113.9001658891448
 30
0.0
 11
52.61577951005048
 21
114.64256075598129
 31
0.0
  0
ARC
  5
55C9
  8
0
 10
49.999999999999353
 20
105.2500000000028
 30
0.0
 40
9.7499999999970974
 50
102.85880818207811
 51
105.56224444950141
  0
LINE
  5
55CA
  8
0
 10
47.384220489949477
 20
114.64256075598129
 30
0.0
 11
47.17429122337856
 21
113.9001658891448
 31
0.0
  0
LINE
  5
55CB
  8
0
 10
48.368112793315639
 20
114.2024825687995
 30
0.0
 11
47.830144612281551
 21
114.755484080066
 31
0.0
  0
ARC
  5
55CC
  8
0
 10
49.999999999999559
 20
105.2499999999951
 30
0.0
 40
9.7500000000048708
 50
83.911439761026628
 51
86.614876028445778
  0
LINE
  5
55CD
  8
0
 10
50.575710130846858
 20
114.98298812519771
 30
0.0
 11
50.136100191784401
 21
114.3489821814198
 31
0.0
  0
LINE
  5
55CE
  8
0
 10
51.36339928156066
 20
114.24728527940729
 30
0.0
 11
51.034138997629903
 21
114.9450016262805
 31
0.0
  0
ARC
  5
55CF
  8
0
 10
49.999999999998238
 20
105.25000000000389
 30
0.0
 40
9.749999999995687
 50
112.33249239260439
 51
115.0359286600262
  0
LINE
  5
55D0
  8
0
 10
45.873931623734798
 20
114.08391531283741
 30
0.0
 11
45.789059697670993
 21
113.3170925227259
 31
0.0
  0
LINE
  5
55D1
  8
0
 10
46.916839407401618
 20
113.81178256908269
 30
0.0
 11
46.295187353996113
 21
114.2686952081778
 31
0.0
  0
ARC
  5
55D2
  8
0
 10
49.999999999999041
 20
105.2499999999977
 30
0.0
 40
9.7499999999975664
 50
244.96407133997371
 51
247.66750760739561
  0
LINE
  5
55D3
  8
0
 10
46.295187353996127
 20
96.231304791822168
 30
0.0
 11
46.916839407401639
 21
96.688217430917291
 31
0.0
  0
LINE
  5
55D4
  8
0
 10
45.789059697671007
 20
97.182907477274028
 30
0.0
 11
45.873931623734819
 21
96.416084687162538
 31
0.0
  0
ARC
  5
55D5
  8
0
 10
49.999999999997669
 20
105.24999999999081
 30
0.0
 40
9.7499999999905231
 50
254.43775555049859
 51
257.14119181792199
  0
LINE
  5
55D6
  8
0
 10
47.830144612281572
 20
95.744515919933946
 30
0.0
 11
48.368112793315667
 21
96.297517431200461
 31
0.0
  0
LINE
  5
55D7
  8
0
 10
47.17429122337856
 20
96.599834110855184
 30
0.0
 11
47.384220489949499
 21
95.857439244018707
 31
0.0
  0
LINE
  5
55D8
  8
0
 10
48.63660071843934
 20
96.252714720592664
 30
0.0
 11
48.965861002370097
 21
95.554998373719513
 31
0.0
  0
ARC
  5
55D9
  8
0
 10
49.99999999999973
 20
105.249999999997
 30
0.0
 40
9.7499999999969873
 50
263.91143976102489
 51
266.61487602844738
  0
LINE
  5
55DA
  8
0
 10
49.424289869153142
 20
95.517011874802236
 30
0.0
 11
49.863899808215592
 21
96.151017818580144
 31
0.0
  0
ARC
  5
55DB
  8
0
 10
50.000000000000391
 20
105.24999999999829
 30
0.0
 40
9.7499999999983071
 50
282.85880818207812
 51
285.56224444950129
  0
LINE
  5
55DC
  8
0
 10
52.615779510050508
 20
95.857439244018707
 30
0.0
 11
52.82570877662144
 21
96.599834110855184
 31
0.0
  0
LINE
  5
55DD
  8
0
 10
51.63188720668434
 20
96.297517431200461
 30
0.0
 11
52.169855387718428
 21
95.744515919933946
 31
0.0
  0
ARC
  5
55DE
  8
0
 10
49.999999999998963
 20
105.25000000001231
 30
0.0
 40
9.7500000000123741
 50
273.38512397155432
 51
276.0885602389717
  0
LINE
  5
55DF
  8
0
 10
51.034138997629903
 20
95.554998373719513
 30
0.0
 11
51.363399281560667
 21
96.252714720592664
 31
0.0
  0
LINE
  5
55E0
  8
0
 10
50.136100191784422
 20
96.151017818580144
 30
0.0
 11
50.575710130846858
 21
95.517011874802236
 31
0.0
  0
LINE
  5
55E1
  8
0
 10
53.704812646003887
 20
114.2686952081778
 30
0.0
 11
53.083160592598368
 21
113.81178256908269
 31
0.0
  0
ARC
  5
55E2
  8
0
 10
50.000000000000227
 20
105.2500000000005
 30
0.0
 40
9.7499999999993836
 50
64.964071339973756
 51
67.667507607393858
  0
LINE
  5
55E3
  8
0
 10
54.210940302328993
 20
113.3170925227259
 30
0.0
 11
54.126068376265181
 21
114.08391531283741
 31
0.0
  0
ARC
  5
55E4
  8
0
 10
49.999999999999922
 20
105.2500000000001
 30
0.0
 40
9.7500000000001847
 50
301.80617660313152
 51
304.50961287055338
  0
LINE
  5
55E5
  8
0
 10
55.523808853032868
 20
97.215696311742036
 30
0.0
 11
55.481308353691141
 21
97.986030098372154
 31
0.0
  0
LINE
  5
55E6
  8
0
 10
54.450333394746139
 20
97.312460540217316
 30
0.0
 11
55.13871227303212
 21
96.964100159005753
 31
0.0
  0
LINE
  5
55E7
  8
0
 10
56.786516905449687
 20
99.187559213316348
 30
0.0
 11
57.550709948226448
 21
99.081590214832204
 31
0.0
  0
LINE
  5
55E8
  8
0
 10
57.833247796063702
 20
99.444594849154527
 30
0.0
 11
57.542923119376177
 21
100.1593899368366
 31
0.0
  0
ARC
  5
55E9
  8
0
 10
50.000000000008562
 20
105.24999999999331
 30
0.0
 40
9.7499999999891411
 50
320.75354502418338
 51
323.45698129160593
  0
ARC
  5
55EA
  8
0
 10
49.999999999940677
 20
105.2500000000387
 30
0.0
 40
9.1000000000708408
 50
325.98515390902452
 51
327.69905661729092
  0
ARC
  5
55EB
  8
0
 10
49.999999999869701
 20
105.2499999999891
 30
0.0
 40
9.1000000001307377
 50
3.879890751136795
 51
5.5937934593912999
  0
LINE
  5
55EC
  8
0
 10
59.293832795028209
 20
102.3025991148033
 30
0.0
 11
58.787145124565498
 21
102.8843963645985
 31
0.0
  0
LINE
  5
55ED
  8
0
 10
59.05666547939083
 20
106.13702333363361
 30
0.0
 11
59.652203270403007
 21
106.6274875777376
 31
0.0
  0
LINE
  5
55EE
  8
0
 10
58.68195078821897
 20
100.8130832201917
 30
0.0
 11
58.277934357119783
 21
101.4703435633359
 31
0.0
  0
ARC
  5
55EF
  8
0
 10
49.999999999920483
 20
105.2500000000348
 30
0.0
 40
9.1000000000868244
 50
335.45883811955298
 51
337.17274082781591
  0
LINE
  5
55F0
  8
0
 10
57.691802617809373
 20
100.3872669733306
 30
0.0
 11
58.463014987421921
 21
100.4085252946367
 31
0.0
  0
LINE
  5
55F1
  8
0
 10
59.747286801977253
 20
105.48
 30
0.0
 11
59.079143608903252
 21
105.8657526523785
 31
0.0
  0
LINE
  5
55F2
  8
0
 10
58.387276005788152
 20
101.7196174141135
 30
0.0
 11
59.144471039194059
 21
101.867523183621
 31
0.0
  0
ARC
  5
55F3
  8
0
 10
49.999999999913513
 20
105.2500000000219
 30
0.0
 40
9.1000000000892136
 50
344.93252233007831
 51
346.64642503834119
  0
LINE
  5
55F4
  8
0
 10
59.652203270403007
 20
103.8725124222624
 30
0.0
 11
59.05666547939083
 21
104.36297666636629
 31
0.0
  0
ARC
  5
55F5
  8
0
 10
49.999999999883393
 20
105.25000000000971
 30
0.0
 40
9.1000000001169976
 50
354.40620654060712
 51
356.12010924886482
  0
LINE
  5
55F6
  8
0
 10
59.079143608903252
 20
104.6342473476215
 30
0.0
 11
59.747286801977253
 21
105.02
 31
0.0
  0
LINE
  5
55F7
  8
0
 10
56.770874223784809
 20
98.234462797070591
 30
0.0
 11
56.602160601869059
 21
98.987294882630366
 31
0.0
  0
ARC
  5
55F8
  8
0
 10
49.999999999938318
 20
105.2500000000567
 30
0.0
 40
9.1000000000837673
 50
316.51146969849998
 51
318.22537240676297
  0
LINE
  5
55F9
  8
0
 10
59.576489758873869
 20
107.08121377730291
 30
0.0
 11
58.8539663683258
 21
107.3517325111811
 31
0.0
  0
ARC
  5
55FA
  8
0
 10
49.999999999861551
 20
105.2499999999649
 30
0.0
 40
9.1000000001428152
 50
13.353574961663529
 51
15.06747766991503
  0
LINE
  5
55FB
  8
0
 10
58.787145124565477
 20
107.6156036354015
 30
0.0
 11
59.293832795028209
 21
108.1974008851967
 31
0.0
  0
LINE
  5
55FC
  8
0
 10
59.144471039194059
 20
108.6324768163789
 30
0.0
 11
58.387276005788152
 21
108.7803825858864
 31
0.0
  0
ARC
  5
55FD
  8
0
 10
49.999999999895472
 20
105.2499999999541
 30
0.0
 40
9.1000000001141181
 50
22.82725917218562
 51
24.541161880445479
  0
LINE
  5
55FE
  8
0
 10
58.277934357119761
 20
109.029656436664
 30
0.0
 11
58.681950788218948
 21
109.6869167798082
 31
0.0
  0
LINE
  5
55FF
  8
0
 10
58.853966368325807
 20
103.1482674888189
 30
0.0
 11
59.576489758873869
 21
103.41878622269709
 31
0.0
  0
ARC
  5
5600
  8
0
 10
50.0
 20
105.24999999985479
 30
0.0
 40
9.100000000145112
 50
89.143048645873833
 51
90.856951354126153
  0
ARC
  5
5602
  8
0
 10
50.00000000002305
 20
105.2499999998622
 30
0.0
 40
9.1000000001396408
 50
98.616732856399452
 51
100.330635564654
  0
ARC
  5
5604
  8
0
 10
50.000000000043407
 20
105.24999999987359
 30
0.0
 40
9.100000000133587
 50
108.09041706692609
 51
109.80431977517971
  0
ARC
  5
5606
  8
0
 10
50.000000000071758
 20
105.2499999998673
 30
0.0
 40
9.1000000001508656
 50
117.56410127745291
 51
119.2780039857054
  0
ARC
  5
5608
  8
0
 10
50.000000000114653
 20
105.2499999998527
 30
0.0
 40
9.1000000001866272
 50
127.0377854879837
 51
128.75168819622829
  0
ARC
  5
560A
  8
0
 10
50.0000000001302
 20
105.2499999998801
 30
0.0
 40
9.1000000001769479
 50
136.5114696985091
 51
138.2253724067549
  0
ARC
  5
560C
  8
0
 10
50.000000000160469
 20
105.2499999998951
 30
0.0
 40
9.100000000191649
 50
145.98515390903711
 51
147.6990566172791
  0
ARC
  5
560E
  8
0
 10
50.000000000142428
 20
105.2499999999374
 30
0.0
 40
9.100000000155541
 50
155.4588381195581
 51
157.17274082780861
  0
ARC
  5
5610
  8
0
 10
50.000000000178268
 20
105.2499999999548
 30
0.0
 40
9.1000000001838774
 50
164.93252233008809
 51
166.64642503833289
  0
ARC
  5
5612
  8
0
 10
50.000000000174651
 20
105.24999999998541
 30
0.0
 40
9.1000000001752284
 50
174.40620654061351
 51
176.1201092488599
  0
ARC
  5
5614
  8
0
 10
50.000000000042519
 20
105.2500000000036
 30
0.0
 40
9.1000000000426642
 50
183.87989075112691
 51
185.59379345939959
  0
ARC
  5
5616
  8
0
 10
50.000000000044231
 20
105.2500000000111
 30
0.0
 40
9.1000000000456076
 50
193.35357496165361
 51
195.0674776699253
  0
ARC
  5
5618
  8
0
 10
50.00000000004011
 20
105.25000000001739
 30
0.0
 40
9.1000000000437549
 50
202.827259172179
 51
204.5411618804506
  0
ARC
  5
561A
  8
0
 10
50.000000000034881
 20
105.25000000002279
 30
0.0
 40
9.1000000000416712
 50
212.30094338270541
 51
214.01484609097679
  0
ARC
  5
561C
  8
0
 10
50.000000000053141
 20
105.2500000000489
 30
0.0
 40
9.1000000000722387
 50
221.77462759323461
 51
223.48853030150229
  0
ARC
  5
561E
  8
0
 10
50.000000000046498
 20
105.2500000000597
 30
0.0
 40
9.1000000000756884
 50
231.2483118037612
 51
232.962214512028
  0
ARC
  5
5620
  8
0
 10
50.000000000031577
 20
105.25000000005829
 30
0.0
 40
9.1000000000662844
 50
240.7219960142871
 51
242.4358987225543
  0
ARC
  5
5622
  8
0
 10
50.00000000001446
 20
105.25000000004211
 30
0.0
 40
9.1000000000445436
 50
250.1956802248117
 51
251.90958293308239
  0
ARC
  5
5624
  8
0
 10
50.000000000015064
 20
105.25000000009059
 30
0.0
 40
9.1000000000918408
 50
259.66936443534257
 51
261.38326714360551
  0
ARC
  5
5626
  8
0
 10
50.0
 20
105.2500000000653
 30
0.0
 40
9.1000000000653358
 50
269.14304864586569
 51
270.85695135413431
  0
ARC
  5
5628
  8
0
 10
49.99999999998689
 20
105.2500000000787
 30
0.0
 40
9.1000000000798096
 50
278.6167328563929
 51
280.33063556465902
  0
ARC
  5
562A
  8
0
 10
49.999999999973099
 20
105.2500000000783
 30
0.0
 40
9.1000000000828205
 50
288.09041706692091
 51
289.80431977518481
  0
LINE
  5
562B
  8
0
 10
53.083160592598368
 20
96.688217430917291
 30
0.0
 11
53.704812646003887
 21
96.231304791822168
 31
0.0
  0
LINE
  5
562C
  8
0
 10
54.126068376265209
 20
96.416084687162538
 30
0.0
 11
54.210940302329021
 21
97.182907477274028
 31
0.0
  0
ARC
  5
562D
  8
0
 10
49.999999999958703
 20
105.2500000000765
 30
0.0
 40
9.1000000000869807
 50
297.56410127744562
 51
299.27800398570929
  0
ARC
  5
562F
  8
0
 10
49.999999999938012
 20
105.25000000007969
 30
0.0
 40
9.1000000001009624
 50
307.03778548797561
 51
308.75168819623519
  0
LINE
  5
5630
  8
0
 10
55.696112703038551
 20
98.153219034359097
 30
0.0
 11
56.432441224875191
 21
97.922913274122791
 31
0.0
  0
LINE
  5
5632
  8
0
 10
58.463014987421907
 20
110.0914747053632
 30
0.0
 11
57.691802617809358
 21
110.1127330266693
 31
0.0
  0
ARC
  5
5633
  8
0
 10
49.999999999892793
 20
105.2499999999299
 30
0.0
 40
9.1000000001280483
 50
32.300943382714948
 51
34.014846090968703
  0
LINE
  5
5634
  8
0
 10
57.542923119376169
 20
110.3406100631634
 30
0.0
 11
57.833247796063688
 21
111.0554051508455
 31
0.0
  0
LINE
  5
5635
  8
0
 10
57.550709948226448
 20
111.4184097851678
 30
0.0
 11
56.786516905449673
 21
111.3124407866836
 31
0.0
  0
ARC
  5
5636
  8
0
 10
49.999999999887763
 20
105.2499999998965
 30
0.0
 40
9.1000000001526224
 50
41.774627593242798
 51
43.488530301495452
  0
LINE
  5
5637
  8
0
 10
56.602160601869038
 20
111.51270511736961
 30
0.0
 11
56.770874223784801
 21
112.26553720292939
 31
0.0
  0
LINE
  5
5638
  8
0
 10
56.432441224875191
 20
112.57708672587719
 30
0.0
 11
55.696112703038551
 21
112.3467809656409
 31
0.0
  0
ARC
  5
5639
  8
0
 10
49.999999999911601
 20
105.2499999998865
 30
0.0
 40
9.1000000001438366
 50
51.248311803767052
 51
52.962214512021859
  0
LINE
  5
563A
  8
0
 10
55.481308353691126
 20
112.5139699016279
 30
0.0
 11
55.523808853032868
 21
113.28430368825791
 31
0.0
  0
LINE
  5
563B
  8
0
 10
55.13871227303212
 20
113.5358998409943
 30
0.0
 11
54.450333394746139
 21
113.1875394597827
 31
0.0
  0
ARC
  5
563C
  8
0
 10
49.999999999931127
 20
105.2499999998727
 30
0.0
 40
9.1000000001447336
 50
60.721996014294348
 51
62.435898722547279
  0
ARC
  5
563E
  8
0
 10
49.999999999954412
 20
105.2499999998673
 30
0.0
 40
9.1000000001402945
 50
70.195680224820279
 51
71.909582933073793
  0
ARC
  5
5640
  8
0
 10
49.999999999977128
 20
105.24999999986299
 30
0.0
 40
9.1000000001388681
 50
79.669364435345969
 51
81.383267143600563
  0
ARC
  5
5642
  8
0
 10
49.999999999997712
 20
105.24999999999871
 30
0.0
 40
9.7500000000026308
 50
27.069334497868429
 51
29.772770765290471
  0
ARC
  5
5644
  8
0
 10
49.999999999994429
 20
105.24999999999569
 30
0.0
 40
9.7500000000070202
 50
36.543018708396382
 51
39.246454975814302
  0
ARC
  5
5646
  8
0
 10
50.000000000002927
 20
105.2500000000032
 30
0.0
 40
9.7499999999956373
 50
46.016702918921268
 51
48.720139186343047
  0
ARC
  5
5648
  8
0
 10
50.000000000004832
 20
105.2500000000074
 30
0.0
 40
9.7499999999911697
 50
55.490387129446368
 51
58.19382339687003
  0
ARC
  5
564A
  8
0
 10
49.999999999999233
 20
105.2500000000018
 30
0.0
 40
9.7500000000020002
 50
292.33249239260613
 51
295.03592866002617
  0
ARC
  5
564C
  8
0
 10
50.000000000004988
 20
105.2499999999946
 30
0.0
 40
9.7499999999926246
 50
311.2798608136564
 51
313.98329708107872
  0
ARC
  5
564E
  8
0
 10
49.99999999999946
 20
105.2500000000003
 30
0.0
 40
9.7500000000006342
 50
330.22722923470963
 51
332.9306655021316
  0
ARC
  5
5650
  8
0
 10
50.000000000002231
 20
105.2499999999993
 30
0.0
 40
9.7499999999976641
 50
339.70091344523638
 51
342.40434971265688
  0
ARC
  5
5652
  8
0
 10
50.000000000000142
 20
105.2499999999999
 30
0.0
 40
9.7499999999998561
 50
349.1745976557641
 51
351.87803392318432
  0
ARC
  5
5654
  8
0
 10
49.999999999990621
 20
105.25
 30
0.0
 40
9.7500000000093792
 50
358.64828186629029
 51
1.3517181337095709
  0
ARC
  5
5656
  8
0
 10
50.000000000005002
 20
105.2500000000008
 30
0.0
 40
9.7499999999949356
 50
8.1219660768156725
 51
10.825402344237499
  0
ARC
  5
5658
  8
0
 10
50.000000000010061
 20
105.2500000000034
 30
0.0
 40
9.7499999999893578
 50
17.595650287339481
 51
20.299086554765591
  0
CIRCLE
  5
565C
  8
0
 10
44.0
 20
105.25
 30
0.0
 40
1.599999999999999
  0
CIRCLE
  5
565D
  8
0
 10
56.0
 20
105.25
 30
0.0
 40
1.599999999999999
  0
ARC
  5
5662
  8
0
 10
50.0
 20
105.25
 30
0.0
 40
3.7000000000000002
 50
212.72044336637759
 51
327.27955663362241
  0
CIRCLE
  5
5663
  8
0
 10
50.0
 20
99.25
 30
0.0
 40
1.4999999999999989
  0
ARC
  5
5664
  8
0
 10
60.500000000000043
 20
105.25
 30
0.0
 40
7.5000000000000471
 50
195.46600995342001
 51
236.73202562520979
  0
LINE
  5
5665
  8
0
 10
46.72841614740048
 20
103.25
 30
0.0
 11
46.887123516745319
 21
103.25
 31
0.0
  0
ARC
  5
5666
  8
0
 10
39.500000000000007
 20
105.2499999999999
 30
0.0
 40
7.4999999999999654
 50
303.26797437479007
 51
344.53399004657899
  0
ARC
  5
5667
  8
0
 10
50.0
 20
105.25
 30
0.0
 40
8.3726497308103767
 50
225.10416794554791
 51
314.89583205445012
  0
ARC
  5
5668
  8
0
 10
50.0
 20
105.25
 30
0.0
 40
8.3726497308103767
 50
45.104167945549989
 51
134.895832054452
  0
ARC
  5
5669
  8
0
 10
39.500000000000128
 20
105.25
 30
0.0
 40
7.4999999999998659
 50
15.4660099534197
 51
56.732025625210497
  0
ARC
  5
566A
  8
0
 10
50.0
 20
105.25
 30
0.0
 40
3.7000000000000002
 50
32.720443366377602
 51
147.27955663362241
  0
LINE
  5
566B
  8
0
 10
53.27158385259952
 20
107.25
 30
0.0
 11
53.112876483254681
 21
107.25
 31
0.0
  0
ARC
  5
566C
  8
0
 10
60.499999999999972
 20
105.2499999999999
 30
0.0
 40
7.499999999999984
 50
123.2679743747898
 51
164.5339900465799
  0
CIRCLE
  5
566D
  8
0
 10
50.0
 20
111.25
 30
0.0
 40
1.4999999999999989
  0
LINE
  5
5670
  8
1
 10
62.75
 20
105.25
 30
0.0
 11
37.25
 21
105.25
 31
0.0
  0
LINE
  5
5671
  8
1
 10
44.0
 20
102.15000000000001
 30
0.0
 11
44.0
 21
108.34999999999999
 31
0.0
  0
LINE
  5
5672
  8
1
 10
56.0
 20
102.15000000000001
 30
0.0
 11
56.0
 21
108.34999999999999
 31
0.0
  0
LINE
  5
5673
  8
1
 10
53.0
 20
99.25
 30
0.0
 11
47.0
 21
99.25
 31
0.0
  0
LINE
  5
5674
  8
1
 10
53.0
 20
111.25
 30
0.0
 11
47.0
 21
111.25
 31
0.0
  0
CIRCLE
  5
5675
  8
0
 10
50.0
 20
105.25
 30
0.0
 40
8.9500000000000117
  0
CIRCLE
  5
5682
  8
0
 10
50.0
 20
105.25
 30
0.0
 40
2.1000000000000001
  0
LINE
  5
5687
  8
1
 10
50.0
 20
118.0
 30
0.0
 11
50.0
 21
92.5
 31
0.0
  0
LINE
  5
568E
  8
1
 10
94.25
 20
111.25
 30
0.0
 11
106.75
 21
111.25
 31
0.0
  0
LINE
  5
568F
  8
1
 10
50.0
 20
62.5
 30
0.0
 11
50.0
 21
47.0
 31
0.0
  0
LINE
  5
5690
  8
1
 10
43.999999999999972
 20
57.500000000000028
 30
0.0
 11
44.0
 21
48.5
 31
0.0
  0
LINE
  5
5691
  8
1
 10
56.000000000000007
 20
57.500000000000028
 30
0.0
 11
56.0
 21
48.5
 31
0.0
  0
LINE
  5
5843
  8
0
 10
95.750000000000014
 20
99.318888743680475
 30
0.0
 11
96.75
 21
98.979144186086813
 31
0.0
  0
LINE
  5
5844
  8
0
 10
95.750000000000014
 20
111.1811112563195
 30
0.0
 11
96.75
 21
111.5208558139132
 31
0.0
  0
LINE
  5
5891
  8
0
 10
46.887123516745319
 20
107.25
 30
0.0
 11
46.72841614740048
 21
107.25
 31
0.0
  0
LINE
  5
5892
  8
0
 10
53.112876483254681
 20
103.25
 30
0.0
 11
53.27158385259952
 21
103.25
 31
0.0
  0
LINE
  5
5895
  8
2
 10
99.25
 20
107.34999999999999
 30
0.0
 11
105.25
 21
107.34999999999999
 31
0.0
  0
LINE
  5
5896
  8
2
 10
99.25
 20
103.15000000000001
 30
0.0
 11
105.25
 21
103.15000000000001
 31
0.0
  0
ENDSEC
  0
EOF
