  0
SECTION
  2
HEADER
  9
$ACADVER
  1
AC1009
  9
$INSBASE
 10
0.0
 20
0.0
 30
0.0
  9
$EXTMIN
 10
0.0
 20
-1.4802182810368341
 30
0.0
  9
$EXTMAX
 10
115.6284621176605
 20
186.25692423532101
 30
0.0
  9
$LIMMIN
 10
0.0
 20
0.0
  9
$LIMMAX
 10
192.5
 20
135.0
  9
$ORTHOMODE
 70
     1
  9
$REGENMODE
 70
     1
  9
$FILLMODE
 70
     1
  9
$QTEXTMODE
 70
     0
  9
$MIRRTEXT
 70
     0
  9
$DRAGMODE
 70
     2
  9
$LTSCALE
 40
5.0
  9
$OSMODE
 70
    37
  9
$ATTMODE
 70
     1
  9
$TEXTSIZE
 40
1.6000000000000489
  9
$TRACEWID
 40
0.05
  9
$TEXTSTYLE
  7
STANDARD
  9
$CLAYER
  8
0
  9
$CELTYPE
  6
BYLAYER
  9
$CECOLOR
 62
   256
  9
$DIMSCALE
 40
1.0
  9
$DIMASZ
 40
3.0
  9
$DIMEXO
 40
2.0
  9
$DIMDLI
 40
0.38
  9
$DIMRND
 40
0.0
  9
$DIMDLE
 40
0.0
  9
$DIMEXE
 40
2.0
  9
$DIMTP
 40
0.0
  9
$DIMTM
 40
0.0
  9
$DIMTXT
 40
3.0
  9
$DIMCEN
 40
0.0
  9
$DIMTSZ
 40
0.0
  9
$DIMTOL
 70
     0
  9
$DIMLIM
 70
     0
  9
$DIMTIH
 70
     0
  9
$DIMTOH
 70
     0
  9
$DIMSE1
 70
     0
  9
$DIMSE2
 70
     0
  9
$DIMTAD
 70
     1
  9
$DIMZIN
 70
     9
  9
$DIMBLK
  1

  9
$DIMASO
 70
     0
  9
$DIMSHO
 70
     0
  9
$DIMPOST
  1

  9
$DIMAPOST
  1

  9
$DIMALT
 70
     0
  9
$DIMALTD
 70
     2
  9
$DIMALTF
 40
25.399999999999999
  9
$DIMLFAC
 40
1.0
  9
$DIMTOFL
 70
     1
  9
$DIMTVP
 40
1.6000000000000001
  9
$DIMTIX
 70
     1
  9
$DIMSOXD
 70
     0
  9
$DIMSAH
 70
     0
  9
$DIMBLK1
  1

  9
$DIMBLK2
  1

  9
$DIMSTYLE
  2
STANDARD
  9
$DIMCLRD
 70
     0
  9
$DIMCLRE
 70
     0
  9
$DIMCLRT
 70
     0
  9
$DIMTFAC
 40
1.0
  9
$DIMGAP
 40
0.09
  9
$LUNITS
 70
     2
  9
$LUPREC
 70
     1
  9
$SKETCHINC
 40
0.1
  9
$FILLETRAD
 40
0.3
  9
$AUNITS
 70
     0
  9
$AUPREC
 70
     1
  9
$MENU
  1
E:\r13\win\SUPPORT\ACAD
  9
$ELEVATION
 40
0.0
  9
$PELEVATION
 40
0.0
  9
$THICKNESS
 40
0.0
  9
$LIMCHECK
 70
     0
  9
$BLIPMODE
 70
     0
  9
$CHAMFERA
 40
0.0
  9
$CHAMFERB
 40
0.0
  9
$SKPOLY
 70
     0
  9
$TDCREATE
 40
2448328.489641204
  9
$TDUPDATE
 40
2457892.6359566092
  9
$TDINDWG
 40
1.0577098380000001
  9
$TDUSRTIMER
 40
2456598.8619762962
  9
$USRTIMER
 70
     1
  9
$ANGBASE
 50
0.0
  9
$ANGDIR
 70
     0
  9
$PDMODE
 70
    35
  9
$PDSIZE
 40
0.0
  9
$PLINEWID
 40
0.0
  9
$COORDS
 70
     1
  9
$SPLFRAME
 70
     0
  9
$SPLINETYPE
 70
     6
  9
$SPLINESEGS
 70
     8
  9
$ATTDIA
 70
     0
  9
$ATTREQ
 70
     1
  9
$HANDLING
 70
     1
  9
$HANDSEED
  5
4B74
  9
$SURFTAB1
 70
     6
  9
$SURFTAB2
 70
     6
  9
$SURFTYPE
 70
     6
  9
$SURFU
 70
     6
  9
$SURFV
 70
     6
  9
$UCSNAME
  2

  9
$UCSORG
 10
0.0
 20
0.0
 30
0.0
  9
$UCSXDIR
 10
1.0
 20
0.0
 30
0.0
  9
$UCSYDIR
 10
0.0
 20
1.0
 30
0.0
  9
$PUCSNAME
  2

  9
$PUCSORG
 10
0.0
 20
0.0
 30
0.0
  9
$PUCSXDIR
 10
1.0
 20
0.0
 30
0.0
  9
$PUCSYDIR
 10
0.0
 20
1.0
 30
0.0
  9
$USERI1
 70
     3
  9
$USERI2
 70
     1
  9
$USERI3
 70
     1
  9
$USERI4
 70
     0
  9
$USERI5
 70
     0
  9
$USERR1
 40
0.5
  9
$USERR2
 40
3.0
  9
$USERR3
 40
3.0
  9
$USERR4
 40
3.0
  9
$USERR5
 40
10.0
  9
$WORLDVIEW
 70
     1
  9
$SHADEDGE
 70
     3
  9
$SHADEDIF
 70
    70
  9
$TILEMODE
 70
     1
  9
$MAXACTVP
 70
    16
  9
$PLIMCHECK
 70
     0
  9
$PEXTMIN
 10
1.0000000000000000E+020
 20
1.0000000000000000E+020
 30
1.0000000000000000E+020
  9
$PEXTMAX
 10
-1.0000000000000000E+020
 20
-1.0000000000000000E+020
 30
-1.0000000000000000E+020
  9
$PLIMMIN
 10
0.0
 20
0.0
  9
$PLIMMAX
 10
12.0
 20
9.0
  9
$UNITMODE
 70
     0
  9
$VISRETAIN
 70
     0
  9
$PLINEGEN
 70
     1
  9
$PSLTSCALE
 70
     0
  0
ENDSEC
  0
SECTION
  2
TABLES
  0
TABLE
  2
VPORT
 70
     1
  0
VPORT
  2
*ACTIVE
 70
     0
 10
0.0
 20
0.0
 11
1.0
 21
1.0
 12
208.87826052058631
 22
115.0
 13
0.0
 23
0.0
 14
2.5
 24
2.5
 15
5.0
 25
5.0
 16
0.0
 26
0.0
 36
1.0
 17
0.0
 27
0.0
 37
0.0
 40
230.04740153251299
 41
1.816239316239316
 42
50.0
 43
0.0
 44
0.0
 50
0.0
 51
0.0
 71
     0
 72
   500
 73
     1
 74
     0
 75
     0
 76
     0
 77
     0
 78
     2
  0
ENDTAB
  0
TABLE
  2
LTYPE
 70
     4
  0
LTYPE
  2
CONTINUOUS
 70
     0
  3
Solid Line
 72
    65
 73
     0
 40
0.0
  0
LTYPE
  2
CENTER
 70
     0
  3
____ _ ____ _ ____ _ ____ _ ____ _ ____ _ ____
 72
    65
 73
     4
 40
2.0
 49
1.25
 49
-0.25
 49
0.25
 49
-0.25
  0
LTYPE
  2
HIDDEN
 70
     0
  3
_ _ _ _ _ _ _ _ _ _ _ _ _ _ _ _ _ _ _ _ _ _ _
 72
    65
 73
     2
 40
0.375
 49
0.25
 49
-0.125
  0
LTYPE
  2
PHANTOM2
 70
     0
  3
___ _ _ ___ _ _ ___ _ _ ___ _ _
 72
    65
 73
     6
 40
1.25
 49
0.625
 49
-0.125
 49
0.125
 49
-0.125
 49
0.125
 49
-0.125
  0
ENDTAB
  0
TABLE
  2
LAYER
 70
     4
  0
LAYER
  2
0
 70
     0
 62
     7
  6
CONTINUOUS
  0
LAYER
  2
1
 70
     0
 62
     1
  6
CENTER
  0
LAYER
  2
2
 70
     0
 62
     2
  6
HIDDEN
  0
LAYER
  2
DEFPOINTS
 70
     0
 62
     7
  6
CONTINUOUS
  0
ENDTAB
  0
TABLE
  2
STYLE
 70
     2
  0
STYLE
  2
STANDARD
 70
     0
 40
0.0
 41
1.0
 50
0.0
 71
     0
 42
1.6000000000000489
  3
SIMPLEX
  4
BIGFONT
  0
STYLE
  2
STANDARD1
 70
     0
 40
0.0
 41
1.0
 50
0.0
 71
     0
 42
3.0
  3
txt
  4

  0
ENDTAB
  0
TABLE
  2
VIEW
 70
     1
  0
VIEW
  2
ALL
 70
     0
 40
87.5
 10
71.617647058823522
 20
43.75
 41
0.0
 11
0.0
 21
0.0
 31
1.0
 12
0.0
 22
0.0
 32
0.0
 42
50.0
 43
0.0
 44
0.0
 50
0.0
 71
     0
  0
ENDTAB
  0
TABLE
  2
UCS
 70
     0
  0
ENDTAB
  0
TABLE
  2
APPID
 70
     7
  0
APPID
  2
ACAD
 70
     0
  0
APPID
  2
ACAD_EXEMPT_FROM_CAD_STANDARDS
 70
     0
  0
APPID
  2
ACAD_DSTYLE_DIMJAG
 70
     0
  0
APPID
  2
ACAD_DSTYLE_DIMTALN
 70
     0
  0
APPID
  2
ACAD_MLEADERVER
 70
     0
  0
APPID
  2
ACAD_NAV_VCDISPLAY
 70
     0
  0
APPID
  2
ACAD_DSTYLE_DIMRADIAL_EXTENSION
 70
     0
  0
ENDTAB
  0
TABLE
  2
DIMSTYLE
 70
     1
  0
DIMSTYLE
  2
STANDARD
 70
     0
  3

  4

  5

  6

  7

 40
1.0
 41
0.18
 42
0.0625
 43
0.38
 44
0.18
 45
0.0
 46
0.0
 47
0.0
 48
0.0
140
0.18
141
0.09
142
0.0
143
25.399999999999999
144
1.0
145
0.0
146
1.0
147
0.09
 71
     0
 72
     0
 73
     1
 74
     1
 75
     0
 76
     0
 77
     0
 78
     0
170
     0
171
     2
172
     0
173
     0
174
     0
175
     0
176
     0
177
     0
178
     0
  0
ENDTAB
  0
ENDSEC
  0
SECTION
  2
BLOCKS
  0
BLOCK
  8
0
  2
$MODEL_SPACE
 70
     0
 10
0.0
 20
0.0
 30
0.0
  3
$MODEL_SPACE
  1

  0
ENDBLK
  5
BAB
  8
0
  0
BLOCK
 67
     1
  8
0
  2
$PAPER_SPACE
 70
     0
 10
0.0
 20
0.0
 30
0.0
  3
$PAPER_SPACE
  1

  0
ENDBLK
  5
BA9
 67
     1
  8
0
  0
ENDSEC
  0
SECTION
  2
ENTITIES
  0
LINE
  5
11F8
  8
1
 10
87.814231058830245
 20
151.44269317649071
 30
0.0
 11
96.814231058830245
 21
151.44269317649071
 31
0.0
  0
LINE
  5
11F9
  8
1
 10
87.814231058830245
 20
174.44269317649071
 30
0.0
 11
96.814231058830245
 21
174.44269317649071
 31
0.0
  0
LINE
  5
11FA
  8
1
 10
69.0
 20
162.94269317649071
 30
0.0
 11
115.6284621176605
 21
162.94269317649071
 31
0.0
  0
LINE
  5
11FB
  8
1
 10
92.314231058830245
 20
139.6284621176604
 30
0.0
 11
92.314231058830245
 21
186.25692423532101
 31
0.0
  0
LINE
  5
11FC
  8
1
 10
80.814231058830245
 20
155.8257442414716
 30
0.0
 11
80.814231058830245
 21
170.05964211150979
 31
0.0
  0
LINE
  5
11FD
  8
1
 10
103.8142310588302
 20
155.8257442414716
 30
0.0
 11
103.8142310588302
 21
170.05964211150979
 31
0.0
  0
CIRCLE
  5
11FE
  8
0
 10
103.8142310588302
 20
162.94269317649071
 30
0.0
 40
3.0000856981227169
  0
CIRCLE
  5
11FF
  8
0
 10
103.8142310588302
 20
162.94269317649071
 30
0.0
 40
3.1048293843994652
  0
CIRCLE
  5
1200
  8
0
 10
80.814231058830245
 20
162.94269317649071
 30
0.0
 40
3.0000856981227169
  0
CIRCLE
  5
1201
  8
0
 10
80.814231058830245
 20
162.94269317649071
 30
0.0
 40
3.1048293843994652
  0
CIRCLE
  5
1202
  8
0
 10
92.314231058830245
 20
151.44269317649071
 30
0.0
 40
2.9999999999999991
  0
CIRCLE
  5
1203
  8
0
 10
92.314231058830245
 20
174.44269317649071
 30
0.0
 40
3.0
  0
CIRCLE
  5
1204
  8
0
 10
92.314231058830245
 20
162.94269317649071
 30
0.0
 40
4.1500000000000004
  0
LINE
  5
1205
  8
0
 10
106.4639899636846
 20
157.9643076013777
 30
0.0
 11
106.47509560932529
 21
157.9959856671943
 31
0.0
  0
LINE
  5
1206
  8
0
 10
106.47509560932539
 20
167.88940068578719
 30
0.0
 11
106.4639899636846
 21
167.9210787516038
 31
0.0
  0
ARC
  5
1207
  8
0
 10
103.8142310588302
 20
162.94269317649071
 30
0.0
 40
5.6169489350190567
 50
61.723917419639378
 51
298.27608258036071
  0
CIRCLE
  5
1208
  8
0
 10
103.8142310588302
 20
162.94269317649071
 30
0.0
 40
5.5000000000000009
  0
ARC
  5
1209
  8
0
 10
103.8142310588302
 20
162.94269317649071
 30
0.0
 40
5.6396405194257397
 50
298.02425869650273
 51
61.975741303497173
  0
ARC
  5
120A
  8
0
 10
92.314231058830245
 20
162.94269317649071
 30
0.0
 40
15.0
 50
199.3836750598783
 51
340.6163249401215
  0
ARC
  5
120B
  8
0
 10
92.314231058830245
 20
162.94269317649071
 30
0.0
 40
15.0
 50
19.38367505987841
 51
160.6163249401215
  0
ARC
  5
120C
  8
0
 10
80.814231058830245
 20
162.94269317649071
 30
0.0
 40
5.6169489350190576
 50
241.72391741963941
 51
118.27608258036059
  0
LINE
  5
120D
  8
0
 10
78.164472153975836
 20
167.9210787516038
 30
0.0
 11
78.153366508335097
 21
167.88940068578719
 31
0.0
  0
ARC
  5
120E
  8
0
 10
80.814231058830245
 20
162.94269317649071
 30
0.0
 40
5.6396405194257397
 50
118.0242586965027
 51
241.97574130349719
  0
LINE
  5
120F
  8
0
 10
78.153366508335097
 20
157.9959856671943
 30
0.0
 11
78.164472153975836
 21
157.9643076013777
 31
0.0
  0
CIRCLE
  5
1210
  8
0
 10
80.814231058830245
 20
162.94269317649071
 30
0.0
 40
5.5
  0
CIRCLE
  5
1211
  8
0
 10
92.314231058830245
 20
162.94269317649071
 30
0.0
 40
20.314231058830249
  0
CIRCLE
  5
1212
  8
0
 10
92.314231058830245
 20
162.94269317649071
 30
0.0
 40
20.0
  0
LINE
  5
1213
  8
2
 10
83.814316756952962
 20
100.6284621176605
 30
0.0
 11
83.919060443229696
 21
104.6284621176605
 31
0.0
  0
LINE
  5
1214
  8
2
 10
77.709401674430779
 20
104.6284621176605
 30
0.0
 11
77.814145360707514
 21
100.6284621176605
 31
0.0
  0
LINE
  5
1215
  8
2
 10
106.81431675695291
 20
100.6284621176605
 30
0.0
 11
106.9190604432297
 21
104.6284621176605
 31
0.0
  0
LINE
  5
1216
  8
2
 10
100.70940167443079
 20
104.6284621176605
 30
0.0
 11
100.8141453607075
 21
100.6284621176605
 31
0.0
  0
LINE
  5
1217
  8
2
 10
96.464231058830237
 20
100.6284621176605
 30
0.0
 11
96.464231058830237
 21
111.32846211766039
 31
0.0
  0
LINE
  5
1218
  8
2
 10
88.164231058830225
 20
111.32846211766039
 30
0.0
 11
88.164231058830225
 21
100.6284621176605
 31
0.0
  0
LINE
  5
1219
  8
2
 10
106.4639899636846
 20
112.6284621176605
 30
0.0
 11
106.47509560932539
 21
111.32846211766039
 31
0.0
  0
LINE
  5
121A
  8
2
 10
98.314231058830245
 20
104.6284621176605
 30
0.0
 11
109.3142310588302
 21
104.6284621176605
 31
0.0
  0
LINE
  5
121B
  8
2
 10
109.3142310588302
 20
104.6284621176605
 30
0.0
 11
109.453871578256
 21
112.6284621176605
 31
0.0
  0
LINE
  5
121C
  8
2
 10
98.197282123811206
 20
111.32846211766039
 30
0.0
 11
98.314231058830245
 21
104.6284621176605
 31
0.0
  0
LINE
  5
121D
  8
2
 10
78.153366508335097
 20
111.32846211766039
 30
0.0
 11
78.164472153975836
 21
112.6284621176605
 31
0.0
  0
LINE
  5
121E
  8
2
 10
75.314231058830245
 20
104.6284621176605
 30
0.0
 11
86.314231058830245
 21
104.6284621176605
 31
0.0
  0
LINE
  5
121F
  8
2
 10
86.314231058830245
 20
104.6284621176605
 30
0.0
 11
86.431179993849298
 21
111.32846211766039
 31
0.0
  0
LINE
  5
1220
  8
2
 10
75.174590539404505
 20
112.6284621176605
 30
0.0
 11
75.314231058830245
 21
104.6284621176605
 31
0.0
  0
LINE
  5
1221
  8
2
 10
95.314231058830245
 20
100.6284621176605
 30
0.0
 11
95.314231058830245
 21
111.32846211766039
 31
0.0
  0
LINE
  5
1222
  8
2
 10
89.314231058830245
 20
111.32846211766039
 30
0.0
 11
89.314231058830231
 21
100.6284621176605
 31
0.0
  0
LINE
  5
1223
  8
2
 10
78.153366508335097
 20
111.32846211766039
 30
0.0
 11
106.47509560932539
 21
111.32846211766039
 31
0.0
  0
LINE
  5
1224
  8
1
 10
92.314231058830245
 20
97.628462117660433
 30
0.0
 11
92.314231058830259
 21
115.6284621176605
 31
0.0
  0
LINE
  5
1225
  8
1
 10
103.8142310588302
 20
99.128462117660547
 30
0.0
 11
103.8142310588302
 21
114.1284621176605
 31
0.0
  0
LINE
  5
1226
  8
1
 10
80.814231058830245
 20
99.128462117660547
 30
0.0
 11
80.814231058830245
 21
114.1284621176604
 31
0.0
  0
LINE
  5
1227
  8
0
 10
72.0
 20
100.6284621176605
 30
0.0
 11
112.6284621176605
 21
100.6284621176605
 31
0.0
  0
LINE
  5
1228
  8
0
 10
72.314231058830245
 20
112.6284621176605
 30
0.0
 11
112.3142310588302
 21
112.6284621176605
 31
0.0
  0
LINE
  5
1229
  8
0
 10
72.314231058830245
 20
112.6284621176605
 30
0.0
 11
72.0
 21
100.6284621176605
 31
0.0
  0
LINE
  5
122A
  8
0
 10
112.6284621176605
 20
100.6284621176605
 30
0.0
 11
112.3142310588302
 21
112.6284621176605
 31
0.0
  0
LINE
  5
122B
  8
2
 10
30.0
 20
148.44269317649071
 30
0.0
 11
40.700000000000003
 21
148.44269317649071
 31
0.0
  0
LINE
  5
122C
  8
2
 10
40.700000000000003
 20
154.44269317649071
 30
0.0
 11
30.0
 21
154.44269317649071
 31
0.0
  0
LINE
  5
122D
  8
2
 10
30.0
 20
171.44269317649071
 30
0.0
 11
40.700000000000003
 21
171.44269317649071
 31
0.0
  0
LINE
  5
122E
  8
2
 10
40.700000000000003
 20
177.44269317649071
 30
0.0
 11
30.0
 21
177.44269317649071
 31
0.0
  0
LINE
  5
122F
  8
2
 10
30.0
 20
158.7926931764907
 30
0.0
 11
40.700000000000003
 21
158.7926931764907
 31
0.0
  0
LINE
  5
1230
  8
2
 10
40.700000000000003
 20
167.0926931764908
 30
0.0
 11
30.0
 21
167.0926931764908
 31
0.0
  0
LINE
  5
1231
  8
2
 10
40.700000000000003
 20
147.94269317649071
 30
0.0
 11
42.0
 21
147.94269317649071
 31
0.0
  0
LINE
  5
1232
  8
2
 10
42.0
 20
177.94269317649071
 30
0.0
 11
40.700000000000003
 21
177.94269317649071
 31
0.0
  0
LINE
  5
1233
  8
2
 10
40.700000000000003
 20
177.94269317649071
 30
0.0
 11
40.700000000000003
 21
147.94269317649071
 31
0.0
  0
LINE
  5
1234
  8
2
 10
30.0
 20
159.94260747836799
 30
0.0
 11
34.0
 21
159.8378637920913
 31
0.0
  0
LINE
  5
1235
  8
2
 10
34.0
 20
166.0475225608902
 30
0.0
 11
30.0
 21
165.94277887461351
 31
0.0
  0
LINE
  5
1236
  8
2
 10
42.0
 20
167.9210787516038
 30
0.0
 11
40.700000000000003
 21
167.88940068578719
 31
0.0
  0
LINE
  5
1237
  8
2
 10
40.700000000000003
 20
157.9959856671943
 30
0.0
 11
42.0
 21
157.96430760137781
 31
0.0
  0
LINE
  5
1238
  8
2
 10
34.0
 20
157.44269317649071
 30
0.0
 11
40.700000000000003
 21
157.3257442414716
 31
0.0
  0
LINE
  5
1239
  8
2
 10
40.700000000000003
 20
168.55964211150979
 30
0.0
 11
34.0
 21
168.44269317649071
 31
0.0
  0
LINE
  5
123A
  8
2
 10
34.0
 20
168.44269317649071
 30
0.0
 11
34.0
 21
157.44269317649071
 31
0.0
  0
LINE
  5
123B
  8
1
 10
28.5
 20
174.44269317649071
 30
0.0
 11
43.5
 21
174.44269317649079
 31
0.0
  0
LINE
  5
123C
  8
1
 10
28.5
 20
151.44269317649079
 30
0.0
 11
43.5
 21
151.44269317649079
 31
0.0
  0
LINE
  5
123D
  8
1
 10
27.0
 20
162.94269317649079
 30
0.0
 11
45.0
 21
162.94269317649071
 31
0.0
  0
LINE
  5
123E
  8
0
 10
42.0
 20
182.94269317649071
 30
0.0
 11
30.0
 21
183.25692423532101
 31
0.0
  0
LINE
  5
123F
  8
0
 10
30.0
 20
142.62846211766049
 30
0.0
 11
42.0
 21
142.94269317649071
 31
0.0
  0
LINE
  5
1240
  8
0
 10
30.0
 20
183.25692423532101
 30
0.0
 11
30.0
 21
142.62846211766049
 31
0.0
  0
LINE
  5
1241
  8
0
 10
42.0
 20
182.94269317649071
 30
0.0
 11
42.0
 21
142.94269317649071
 31
0.0
  0
TEXT
  5
2C38
  8
0
 62
     3
 10
0.0
 20
0.0
 30
0.0
 40
5.0
  1
RLE4060-F
  7
STANDARD1
  0
LINE
  5
38E3
  8
1
 10
87.814231058830231
 20
38.814231058830252
 30
0.0
 11
96.814231058830231
 21
38.814231058830252
 31
0.0
  0
LINE
  5
38E4
  8
1
 10
87.814231058830231
 20
61.814231058830238
 30
0.0
 11
96.814231058830231
 21
61.814231058830238
 31
0.0
  0
LINE
  5
38E5
  8
1
 10
68.999999999999986
 20
50.314231058830252
 30
0.0
 11
115.6284621176604
 21
50.314231058830252
 31
0.0
  0
LINE
  5
38E6
  8
1
 10
92.314231058830217
 20
26.999999999999972
 30
0.0
 11
92.314231058830217
 21
73.628462117660519
 31
0.0
  0
LINE
  5
38E7
  8
1
 10
80.814231058830245
 20
45.814145360707549
 30
0.0
 11
80.814231058830245
 21
54.814316756952941
 31
0.0
  0
LINE
  5
38E8
  8
1
 10
103.8142310588302
 20
45.814145360707549
 30
0.0
 11
103.8142310588302
 21
54.814316756952941
 31
0.0
  0
CIRCLE
  5
38E9
  8
0
 10
103.8142310588302
 20
50.314231058830252
 30
0.0
 40
3.0000856981227169
  0
CIRCLE
  5
38EB
  8
0
 10
80.814231058830245
 20
50.314231058830252
 30
0.0
 40
3.0000856981227169
  0
CIRCLE
  5
38ED
  8
0
 10
92.314231058830217
 20
38.814231058830252
 30
0.0
 40
2.9999999999999991
  0
CIRCLE
  5
38EE
  8
0
 10
92.314231058830217
 20
61.814231058830238
 30
0.0
 40
3.0
  0
CIRCLE
  5
38EF
  8
0
 10
92.314231058830217
 20
50.314231058830252
 30
0.0
 40
4.1500000000000004
  0
CIRCLE
  5
38FC
  8
0
 10
92.314231058830217
 20
50.314231058830252
 30
0.0
 40
20.314231058830249
  0
ENDSEC
  0
EOF
