  0
SECTION
  2
HEADER
  9
$ACADVER
  1
AC1009
  9
$INSBASE
 10
0.0
 20
0.0
 30
0.0
  9
$EXTMIN
 10
0.0
 20
-2.960436562073669
 30
0.0
  9
$EXTMAX
 10
201.5000000000005969
 20
65.500000000000199
 30
0.0
  9
$LIMMIN
 10
0.0
 20
0.0
  9
$LIMMAX
 10
375.0
 20
270.0
  9
$ORTHOMODE
 70
     1
  9
$REGENMODE
 70
     1
  9
$FILLMODE
 70
     1
  9
$QTEXTMODE
 70
     0
  9
$MIRRTEXT
 70
     0
  9
$DRAGMODE
 70
     2
  9
$LTSCALE
 40
10.0
  9
$OSMODE
 70
    37
  9
$ATTMODE
 70
     1
  9
$TEXTSIZE
 40
4.000000000000048
  9
$TRACEWID
 40
0.05
  9
$TEXTSTYLE
  7
STANDARD
  9
$CLAYER
  8
0
  9
$CELTYPE
  6
BYLAYER
  9
$CECOLOR
 62
   256
  9
$DIMSCALE
 40
1.0
  9
$DIMASZ
 40
3.0
  9
$DIMEXO
 40
2.0
  9
$DIMDLI
 40
10.0
  9
$DIMRND
 40
0.0
  9
$DIMDLE
 40
0.0
  9
$DIMEXE
 40
2.0
  9
$DIMTP
 40
0.0
  9
$DIMTM
 40
0.0
  9
$DIMTXT
 40
3.2000000000000002
  9
$DIMCEN
 40
0.0
  9
$DIMTSZ
 40
0.0
  9
$DIMTOL
 70
     0
  9
$DIMLIM
 70
     0
  9
$DIMTIH
 70
     0
  9
$DIMTOH
 70
     0
  9
$DIMSE1
 70
     0
  9
$DIMSE2
 70
     0
  9
$DIMTAD
 70
     1
  9
$DIMZIN
 70
     0
  9
$DIMBLK
  1

  9
$DIMASO
 70
     1
  9
$DIMSHO
 70
     0
  9
$DIMPOST
  1

  9
$DIMAPOST
  1

  9
$DIMALT
 70
     0
  9
$DIMALTD
 70
     2
  9
$DIMALTF
 40
25.3999999999999986
  9
$DIMLFAC
 40
1.0
  9
$DIMTOFL
 70
     1
  9
$DIMTVP
 40
1.6000000000000001
  9
$DIMTIX
 70
     1
  9
$DIMSOXD
 70
     0
  9
$DIMSAH
 70
     0
  9
$DIMBLK1
  1

  9
$DIMBLK2
  1

  9
$DIMSTYLE
  2
STANDARD
  9
$DIMCLRD
 70
     0
  9
$DIMCLRE
 70
     0
  9
$DIMCLRT
 70
     0
  9
$DIMTFAC
 40
1.0
  9
$DIMGAP
 40
0.09
  9
$LUNITS
 70
     2
  9
$LUPREC
 70
     1
  9
$SKETCHINC
 40
0.1
  9
$FILLETRAD
 40
0.0
  9
$AUNITS
 70
     0
  9
$AUPREC
 70
     1
  9
$MENU
  1
E:\r13\win\SUPPORT\ACAD
  9
$ELEVATION
 40
0.0
  9
$PELEVATION
 40
0.0
  9
$THICKNESS
 40
0.0
  9
$LIMCHECK
 70
     0
  9
$BLIPMODE
 70
     0
  9
$CHAMFERA
 40
0.0
  9
$CHAMFERB
 40
0.0
  9
$SKPOLY
 70
     0
  9
$TDCREATE
 40
2449839.7815856481902301
  9
$TDUPDATE
 40
2460335.6930439821444452
  9
$TDINDWG
 40
0.2087854398
  9
$TDUSRTIMER
 40
0.2087854398
  9
$USRTIMER
 70
     1
  9
$ANGBASE
 50
0.0
  9
$ANGDIR
 70
     0
  9
$PDMODE
 70
    35
  9
$PDSIZE
 40
0.0
  9
$PLINEWID
 40
0.0
  9
$COORDS
 70
     1
  9
$SPLFRAME
 70
     0
  9
$SPLINETYPE
 70
     6
  9
$SPLINESEGS
 70
     8
  9
$ATTDIA
 70
     1
  9
$ATTREQ
 70
     1
  9
$HANDLING
 70
     1
  9
$HANDSEED
  5
452
  9
$SURFTAB1
 70
     6
  9
$SURFTAB2
 70
     6
  9
$SURFTYPE
 70
     6
  9
$SURFU
 70
     6
  9
$SURFV
 70
     6
  9
$UCSNAME
  2

  9
$UCSORG
 10
0.0
 20
0.0
 30
0.0
  9
$UCSXDIR
 10
1.0
 20
0.0
 30
0.0
  9
$UCSYDIR
 10
0.0
 20
1.0
 30
0.0
  9
$PUCSNAME
  2

  9
$PUCSORG
 10
0.0
 20
0.0
 30
0.0
  9
$PUCSXDIR
 10
1.0
 20
0.0
 30
0.0
  9
$PUCSYDIR
 10
0.0
 20
1.0
 30
0.0
  9
$USERI1
 70
     0
  9
$USERI2
 70
     1
  9
$USERI3
 70
     1
  9
$USERI4
 70
     0
  9
$USERI5
 70
     0
  9
$USERR1
 40
0.0
  9
$USERR2
 40
0.0
  9
$USERR3
 40
0.0
  9
$USERR4
 40
0.0
  9
$USERR5
 40
0.0
  9
$WORLDVIEW
 70
     1
  9
$SHADEDGE
 70
     3
  9
$SHADEDIF
 70
    70
  9
$TILEMODE
 70
     1
  9
$MAXACTVP
 70
    16
  9
$PLIMCHECK
 70
     0
  9
$PEXTMIN
 10
1.0000000000000000E+20
 20
1.0000000000000000E+20
 30
1.0000000000000000E+20
  9
$PEXTMAX
 10
-1.0000000000000000E+20
 20
-1.0000000000000000E+20
 30
-1.0000000000000000E+20
  9
$PLIMMIN
 10
0.0
 20
0.0
  9
$PLIMMAX
 10
12.0
 20
9.0
  9
$UNITMODE
 70
     0
  9
$VISRETAIN
 70
     0
  9
$PLINEGEN
 70
     0
  9
$PSLTSCALE
 70
     0
  0
ENDSEC
  0
SECTION
  2
TABLES
  0
TABLE
  2
VPORT
 70
     1
  0
VPORT
  2
*ACTIVE
 70
     0
 10
0.0
 20
0.0
 11
1.0
 21
1.0
 12
293.5652709359605979
 22
125.0
 13
0.0
 23
0.0
 14
10.0
 24
10.0
 15
10.0
 25
10.0
 16
0.0
 26
0.0
 36
1.0
 17
0.0
 27
0.0
 37
0.0
 40
250.0
 41
2.3485221674876842
 42
50.0
 43
0.0
 44
0.0
 50
0.0
 51
0.0
 71
     0
 72
   500
 73
     1
 74
     0
 75
     0
 76
     0
 77
     0
 78
     2
  0
ENDTAB
  0
TABLE
  2
LTYPE
 70
     2
  0
LTYPE
  2
CONTINUOUS
 70
     0
  3
Solid Line
 72
    65
 73
     0
 40
0.0
  0
LTYPE
  2
CENTER
 70
     0
  3
____ _ ____ _ ____ _ ____ _ ____ _ ____ _ ____
 72
    65
 73
     4
 40
2.0
 49
1.25
 49
-0.25
 49
0.25
 49
-0.25
  0
ENDTAB
  0
TABLE
  2
LAYER
 70
     4
  0
LAYER
  2
0
 70
     0
 62
     7
  6
CONTINUOUS
  0
LAYER
  2
1
 70
     0
 62
     1
  6
CENTER
  0
LAYER
  2
3
 70
     0
 62
     3
  6
CONTINUOUS
  0
LAYER
  2
DEFPOINTS
 70
     0
 62
     7
  6
CONTINUOUS
  0
ENDTAB
  0
TABLE
  2
STYLE
 70
     2
  0
STYLE
  2
STANDARD
 70
     0
 40
0.0
 41
1.0
 50
0.0
 71
     0
 42
4.000000000000048
  3
ROMANS
  4
BIGFONT
  0
STYLE
  2
STANDARD1
 70
     0
 40
0.0
 41
1.0
 50
0.0
 71
     0
 42
3.0
  3
txt
  4

  0
ENDTAB
  0
TABLE
  2
VIEW
 70
     1
  0
VIEW
  2
ALL
 70
     0
 40
270.3333333333334281
 10
221.2644257703082076
 20
134.833333333333286
 41
0.0
 11
0.0
 21
0.0
 31
1.0
 12
0.0
 22
0.0
 32
0.0
 42
0.0
 43
0.0
 44
0.0
 50
0.0
 71
     0
  0
ENDTAB
  0
TABLE
  2
UCS
 70
     0
  0
ENDTAB
  0
TABLE
  2
APPID
 70
     6
  0
APPID
  2
ACAD
 70
     0
  0
APPID
  2
ACAD_MLEADERVER
 70
     0
  0
APPID
  2
ACAD_NAV_VCDISPLAY
 70
     0
  0
APPID
  2
ACAD_EXEMPT_FROM_CAD_STANDARDS
 70
     0
  0
APPID
  2
ACAD_DSTYLE_DIMJAG
 70
     0
  0
APPID
  2
ACAD_DSTYLE_DIMTALN
 70
     0
  0
ENDTAB
  0
TABLE
  2
DIMSTYLE
 70
     1
  0
DIMSTYLE
  2
STANDARD
 70
     0
  3

  4

  5

  6

  7

 40
1.0
 41
0.18
 42
0.0625
 43
0.38
 44
0.18
 45
0.0
 46
0.0
 47
0.0
 48
0.0
140
0.18
141
0.09
142
0.0
143
25.3999999999999986
144
1.0
145
0.0
146
1.0
147
0.09
 71
     0
 72
     0
 73
     1
 74
     1
 75
     0
 76
     0
 77
     0
 78
     0
170
     0
171
     2
172
     0
173
     0
174
     0
175
     0
176
     0
177
     0
178
     0
  0
ENDTAB
  0
ENDSEC
  0
SECTION
  2
BLOCKS
  0
BLOCK
  8
0
  2
$MODEL_SPACE
 70
     0
 10
0.0
 20
0.0
 30
0.0
  3
$MODEL_SPACE
  1

  0
ENDBLK
  5
F7
  8
0
  0
BLOCK
 67
     1
  8
0
  2
$PAPER_SPACE
 70
     0
 10
0.0
 20
0.0
 30
0.0
  3
$PAPER_SPACE
  1

  0
ENDBLK
  5
F5
 67
     1
  8
0
  0
ENDSEC
  0
SECTION
  2
ENTITIES
  0
LINE
  5
27
  8
0
 10
115.500000000000199
 20
60.5000000000001705
 30
0.0
 11
88.8284271247464119
 21
60.5000000000002203
 31
0.0
  0
LINE
  5
28
  8
0
 10
85.500000000000199
 20
58.000000000000199
 30
0.0
 11
85.500000000000199
 21
42.0000000000001918
 31
0.0
  0
LINE
  5
29
  8
0
 10
88.828427124746355
 20
39.5000000000001705
 30
0.0
 11
115.500000000000199
 21
39.500000000000199
 31
0.0
  0
LINE
  5
2A
  8
0
 10
115.500000000000199
 20
60.5000000000002203
 30
0.0
 11
115.500000000000199
 21
39.500000000000199
 31
0.0
  0
LINE
  5
2D
  8
0
 10
115.500000000000199
 20
60.500000000000199
 30
0.0
 11
133.6046874523559893
 21
58.594243426067969
 31
0.0
  0
LINE
  5
2E
  8
0
 10
133.6046847845182981
 20
41.4057562931073377
 30
0.0
 11
115.500000000000199
 21
39.500000000000199
 31
0.0
  0
LINE
  5
3B
  8
1
 10
80.500000000000199
 20
50.0000000000002487
 30
0.0
 11
155.500000000000199
 21
49.9999999999994884
 31
0.0
  0
ARC
  5
3C
  8
0
 10
133.500000000000199
 20
57.5997382539716227
 30
0.0
 40
1.0
 50
0.0
 51
83.9909940425054771
  0
ARC
  5
3D
  8
0
 10
133.500000000000199
 20
42.4002617460287397
 30
0.0
 40
1.0
 50
276.0090059574944803
 51
0.0
  0
LINE
  5
3E
  8
0
 10
87.4142135623733054
 20
59.9142135623733125
 30
0.0
 11
85.500000000000199
 21
58.000000000000199
 31
0.0
  0
LINE
  5
3F
  8
0
 10
85.500000000000199
 20
42.0000000000001918
 30
0.0
 11
87.4142135623733054
 21
40.0857864376270925
 31
0.0
  0
ARC
  5
40
  8
0
 10
88.8284271247464119
 20
58.5000000000002203
 30
0.0
 40
2.0
 50
90.0
 51
135.0
  0
ARC
  5
41
  8
0
 10
88.828427124746355
 20
41.5000000000001705
 30
0.0
 40
2.0
 50
225.0
 51
270.0
  0
LINE
  5
42
  8
0
 10
52.4999999979643306
 20
51.4433756717997994
 30
0.0
 11
52.4999999979643306
 21
48.5566243258521126
 31
0.0
  0
LINE
  5
43
  8
0
 10
52.4999999979624974
 20
48.5566243281999732
 30
0.0
 11
49.9999999979643306
 21
47.1132486552259024
 31
0.0
  0
LINE
  5
44
  8
0
 10
49.9999999999997726
 20
47.1132486564023267
 30
0.0
 11
47.4999999999997726
 21
48.5566243293759499
 31
0.0
  0
LINE
  5
45
  8
0
 10
47.5000000020334028
 20
48.5566243282017922
 30
0.0
 11
47.5000000020334028
 21
51.443375674149479
 31
0.0
  0
LINE
  5
46
  8
0
 10
47.5000000020334028
 20
51.4433756717997994
 30
0.0
 11
50.0000000020334028
 21
52.8867513447738702
 31
0.0
  0
LINE
  5
47
  8
0
 10
49.9999999999997726
 20
52.8867513435974388
 30
0.0
 11
52.4999999999997726
 21
51.4433756706238228
 31
0.0
  0
CIRCLE
  5
48
  8
0
 10
50.0
 20
50.0
 30
0.0
 40
10.5000000000002007
  0
LINE
  5
49
  8
1
 10
65.5000000000002132
 20
50.0
 30
0.0
 11
34.4999999999997726
 21
50.0
 31
0.0
  0
LINE
  5
4A
  8
1
 10
50.0
 20
65.500000000000199
 30
0.0
 11
50.0
 21
34.499999999999801
 31
0.0
  0
CIRCLE
  5
4B
  8
0
 10
50.0
 20
50.0
 30
0.0
 40
8.0000000000001972
  0
CIRCLE
  5
4C
  8
0
 10
50.0
 20
50.0
 30
0.0
 40
6.9999999999998286
  0
CIRCLE
  5
4D
  8
0
 10
50.0
 20
50.0
 30
0.0
 40
5.0
  0
LINE
  5
4E
  8
0
 10
88.000000000000199
 20
60.3203594422496678
 30
0.0
 11
88.000000000000199
 21
39.6796405577517532
 31
0.0
  0
LINE
  5
4F
  8
0
 10
134.5000000000001137
 20
42.4002617460287397
 30
0.0
 11
134.500000000000199
 21
57.5997412697545883
 31
0.0
  0
LINE
  5
57
  8
1
 10
186.0000000000003126
 20
65.500000000000199
 30
0.0
 11
186.0000000000003126
 21
34.499999999999801
 31
0.0
  0
LINE
  5
58
  8
1
 10
170.5000000000001137
 20
50.0
 30
0.0
 11
201.5000000000005969
 21
50.0
 31
0.0
  0
CIRCLE
  5
59
  8
0
 10
186.0000000000003126
 20
50.0
 30
0.0
 40
10.5000000000002007
  0
CIRCLE
  5
5A
  8
0
 10
186.0000000000003126
 20
50.0
 30
0.0
 40
8.5
  0
CIRCLE
  5
5B
  8
0
 10
186.0000000000003126
 20
50.0
 30
0.0
 40
5.0000000000001696
  0
CIRCLE
  5
5C
  8
0
 10
186.0000000000003126
 20
50.0
 30
0.0
 40
4.0
  0
CIRCLE
  5
5D
  8
3
 10
186.0000000000003126
 20
50.0
 30
0.0
 40
3.2330015078916849
  0
TEXT
  5
1E1
  8
0
 62
     3
 10
0.0
 20
0.0
 30
0.0
 40
10.0
  1
RGS50
  7
STANDARD1
  0
LINE
  5
3B1
  8
0
 10
137.000000000000199
 20
53.0000015078916817
 30
0.0
 11
135.500000000000199
 21
53.0000015078916817
 31
0.0
  0
LINE
  5
3B2
  8
0
 10
135.500000000000199
 20
47.0000015078916675
 30
0.0
 11
137.000000000000199
 21
47.0000015078916675
 31
0.0
  0
LINE
  5
3B3
  8
0
 10
137.000000000000199
 20
46.7670015078916776
 30
0.0
 11
137.7670000000001949
 21
46.0000015078916817
 31
0.0
  0
LINE
  5
3B4
  8
0
 10
137.7670000000001949
 20
54.0000015078916817
 30
0.0
 11
137.000000000000199
 21
53.2330015078916929
 31
0.0
  0
LINE
  5
3B5
  8
0
 10
137.000000000000199
 20
46.7670015078916776
 30
0.0
 11
137.000000000000199
 21
53.2330015078916929
 31
0.0
  0
LINE
  5
3B6
  8
0
 10
150.500000000000199
 20
53.2330015078916929
 30
0.0
 11
149.733000000000203
 21
54.0000015078916817
 31
0.0
  0
LINE
  5
3B7
  8
0
 10
149.733000000000203
 20
46.0000015078916817
 30
0.0
 11
150.500000000000199
 21
46.7670015078916776
 31
0.0
  0
LINE
  5
3B8
  8
0
 10
150.500000000000199
 20
46.7670015078916776
 30
0.0
 11
150.500000000000199
 21
53.2330015078916929
 31
0.0
  0
LINE
  5
3B9
  8
0
 10
149.733000000000203
 20
54.0000015078916817
 30
0.0
 11
137.7670000000001949
 21
54.0000015078916817
 31
0.0
  0
LINE
  5
3BA
  8
0
 10
137.7670000000001949
 20
46.0000015078916817
 30
0.0
 11
149.733000000000203
 21
46.0000015078916817
 31
0.0
  0
LINE
  5
3BB
  8
0
 10
137.7670000000001949
 20
46.0000015078916817
 30
0.0
 11
137.7670000000001949
 21
54.0000015078916817
 31
0.0
  0
LINE
  5
3BC
  8
0
 10
149.733000000000203
 20
46.0000015078916817
 30
0.0
 11
149.733000000000203
 21
54.0000015078916817
 31
0.0
  0
LINE
  5
3BD
  8
0
 10
135.500000000000199
 20
55.0000015078916817
 30
0.0
 11
134.500000000000199
 21
55.0000015078916817
 31
0.0
  0
LINE
  5
3BE
  8
0
 10
134.500000000000199
 20
45.0000015078916817
 30
0.0
 11
135.500000000000199
 21
45.0000015078916817
 31
0.0
  0
LINE
  5
3BF
  8
0
 10
135.500000000000199
 20
45.0000015078916817
 30
0.0
 11
135.500000000000199
 21
55.0000015078916817
 31
0.0
  0
LINE
  5
3C0
  8
3
 10
150.500000000000199
 20
46.7670015078916776
 30
0.0
 11
137.000000000000199
 21
46.7670015078916776
 31
0.0
  0
LINE
  5
3C1
  8
3
 10
150.500000000000199
 20
53.2330015078916929
 30
0.0
 11
137.000000000000199
 21
53.2330015078916929
 31
0.0
  0
ENDSEC
  0
EOF
