  0
SECTION
  2
HEADER
  9
$ACADVER
  1
AC1009
  9
$INSBASE
 10
0.0
 20
0.0
 30
0.0
  9
$EXTMIN
 10
0.0
 20
-2.960436562073669
 30
0.0
  9
$EXTMAX
 10
171.1446882150405
 20
178.52401317226929
 30
0.0
  9
$LIMMIN
 10
0.0
 20
0.0
  9
$LIMMAX
 10
187.5
 20
135.0
  9
$ORTHOMODE
 70
     1
  9
$REGENMODE
 70
     1
  9
$FILLMODE
 70
     1
  9
$QTEXTMODE
 70
     0
  9
$MIRRTEXT
 70
     0
  9
$DRAGMODE
 70
     2
  9
$LTSCALE
 40
5.0
  9
$OSMODE
 70
    55
  9
$ATTMODE
 70
     1
  9
$TEXTSIZE
 40
0.06
  9
$TRACEWID
 40
0.05
  9
$TEXTSTYLE
  7
STANDARD
  9
$CLAYER
  8
0
  9
$CELTYPE
  6
BYLAYER
  9
$CECOLOR
 62
   256
  9
$DIMSCALE
 40
0.5
  9
$DIMASZ
 40
3.0
  9
$DIMEXO
 40
2.0
  9
$DIMDLI
 40
10.0
  9
$DIMRND
 40
0.0
  9
$DIMDLE
 40
0.0
  9
$DIMEXE
 40
2.0
  9
$DIMTP
 40
0.0
  9
$DIMTM
 40
0.0
  9
$DIMTXT
 40
3.0
  9
$DIMCEN
 40
0.0
  9
$DIMTSZ
 40
0.0
  9
$DIMTOL
 70
     0
  9
$DIMLIM
 70
     0
  9
$DIMTIH
 70
     0
  9
$DIMTOH
 70
     0
  9
$DIMSE1
 70
     0
  9
$DIMSE2
 70
     0
  9
$DIMTAD
 70
     1
  9
$DIMZIN
 70
     8
  9
$DIMBLK
  1

  9
$DIMASO
 70
     0
  9
$DIMSHO
 70
     0
  9
$DIMPOST
  1

  9
$DIMAPOST
  1

  9
$DIMALT
 70
     0
  9
$DIMALTD
 70
     2
  9
$DIMALTF
 40
25.399999999999999
  9
$DIMLFAC
 40
1.0
  9
$DIMTOFL
 70
     1
  9
$DIMTVP
 40
1.6000000000000001
  9
$DIMTIX
 70
     1
  9
$DIMSOXD
 70
     0
  9
$DIMSAH
 70
     0
  9
$DIMBLK1
  1

  9
$DIMBLK2
  1

  9
$DIMSTYLE
  2
STANDARD
  9
$DIMCLRD
 70
     0
  9
$DIMCLRE
 70
     0
  9
$DIMCLRT
 70
     0
  9
$DIMTFAC
 40
1.0
  9
$DIMGAP
 40
0.09
  9
$LUNITS
 70
     2
  9
$LUPREC
 70
     4
  9
$SKETCHINC
 40
0.1
  9
$FILLETRAD
 40
0.4
  9
$AUNITS
 70
     0
  9
$AUPREC
 70
     4
  9
$MENU
  1
E:\r13\win\SUPPORT\ACAD
  9
$ELEVATION
 40
0.0
  9
$PELEVATION
 40
0.0
  9
$THICKNESS
 40
0.0
  9
$LIMCHECK
 70
     0
  9
$BLIPMODE
 70
     0
  9
$CHAMFERA
 40
0.0
  9
$CHAMFERB
 40
0.0
  9
$SKPOLY
 70
     0
  9
$TDCREATE
 40
2449840.5914699072
  9
$TDUPDATE
 40
2456598.5928374878
  9
$TDINDWG
 40
0.1313805208
  9
$TDUSRTIMER
 40
0.1313805208
  9
$USRTIMER
 70
     1
  9
$ANGBASE
 50
0.0
  9
$ANGDIR
 70
     0
  9
$PDMODE
 70
     0
  9
$PDSIZE
 40
0.0
  9
$PLINEWID
 40
0.0
  9
$COORDS
 70
     1
  9
$SPLFRAME
 70
     0
  9
$SPLINETYPE
 70
     6
  9
$SPLINESEGS
 70
     8
  9
$ATTDIA
 70
     0
  9
$ATTREQ
 70
     1
  9
$HANDLING
 70
     1
  9
$HANDSEED
  5
DBD
  9
$SURFTAB1
 70
     6
  9
$SURFTAB2
 70
     6
  9
$SURFTYPE
 70
     6
  9
$SURFU
 70
     6
  9
$SURFV
 70
     6
  9
$UCSNAME
  2

  9
$UCSORG
 10
0.0
 20
0.0
 30
0.0
  9
$UCSXDIR
 10
1.0
 20
0.0
 30
0.0
  9
$UCSYDIR
 10
0.0
 20
1.0
 30
0.0
  9
$PUCSNAME
  2

  9
$PUCSORG
 10
0.0
 20
0.0
 30
0.0
  9
$PUCSXDIR
 10
1.0
 20
0.0
 30
0.0
  9
$PUCSYDIR
 10
0.0
 20
1.0
 30
0.0
  9
$USERI1
 70
     3
  9
$USERI2
 70
     1
  9
$USERI3
 70
     0
  9
$USERI4
 70
     0
  9
$USERI5
 70
     0
  9
$USERR1
 40
0.5
  9
$USERR2
 40
3.0
  9
$USERR3
 40
3.0
  9
$USERR4
 40
3.0
  9
$USERR5
 40
10.0
  9
$WORLDVIEW
 70
     1
  9
$SHADEDGE
 70
     3
  9
$SHADEDIF
 70
    70
  9
$TILEMODE
 70
     1
  9
$MAXACTVP
 70
    16
  9
$PLIMCHECK
 70
     0
  9
$PEXTMIN
 10
1.0000000000000000E+020
 20
1.0000000000000000E+020
 30
1.0000000000000000E+020
  9
$PEXTMAX
 10
-1.0000000000000000E+020
 20
-1.0000000000000000E+020
 30
-1.0000000000000000E+020
  9
$PLIMMIN
 10
0.0
 20
0.0
  9
$PLIMMAX
 10
12.0
 20
9.0
  9
$UNITMODE
 70
     0
  9
$VISRETAIN
 70
     0
  9
$PLINEGEN
 70
     0
  9
$PSLTSCALE
 70
     0
  0
ENDSEC
  0
SECTION
  2
TABLES
  0
TABLE
  2
VPORT
 70
     1
  0
VPORT
  2
*ACTIVE
 70
     0
 10
0.0
 20
0.0
 11
1.0
 21
1.0
 12
93.747139195326156
 22
128.52200066104751
 13
0.0
 23
0.0
 14
5.0
 24
5.0
 15
10.0
 25
10.0
 16
0.0
 26
0.0
 36
1.0
 17
0.0
 27
0.0
 37
0.0
 40
265.51036705526212
 41
1.7807262569832401
 42
50.0
 43
0.0
 44
0.0
 50
0.0
 51
0.0
 71
     0
 72
   100
 73
     1
 74
     0
 75
     0
 76
     0
 77
     0
 78
     0
  0
ENDTAB
  0
TABLE
  2
LTYPE
 70
     4
  0
LTYPE
  2
CONTINUOUS
 70
     0
  3
Solid Line
 72
    65
 73
     0
 40
0.0
  0
LTYPE
  2
CENTER
 70
     0
  3
____ _ ____ _ ____ _ ____ _ ____ _ ____ _ ____
 72
    65
 73
     4
 40
2.0
 49
1.25
 49
-0.25
 49
0.25
 49
-0.25
  0
LTYPE
  2
HIDDEN
 70
     0
  3
_ _ _ _ _ _ _ _ _ _ _ _ _ _ _ _ _ _ _ _ _ _ _
 72
    65
 73
     2
 40
0.375
 49
0.25
 49
-0.125
  0
LTYPE
  2
PHANTOM2
 70
     0
  3
___ _ _ ___ _ _ ___ _ _ ___ _ _
 72
    65
 73
     6
 40
1.25
 49
0.625
 49
-0.125
 49
0.125
 49
-0.125
 49
0.125
 49
-0.125
  0
ENDTAB
  0
TABLE
  2
LAYER
 70
     4
  0
LAYER
  2
0
 70
     0
 62
     7
  6
CONTINUOUS
  0
LAYER
  2
1
 70
     0
 62
     1
  6
CENTER
  0
LAYER
  2
2
 70
     0
 62
     2
  6
HIDDEN
  0
LAYER
  2
3
 70
     0
 62
     3
  6
CONTINUOUS
  0
ENDTAB
  0
TABLE
  2
STYLE
 70
     2
  0
STYLE
  2
STANDARD
 70
     0
 40
0.0
 41
1.0
 50
0.0
 71
     0
 42
0.06
  3
TXT
  4
BIGFONT
  0
STYLE
  2
STANDARD1
 70
     0
 40
0.0
 41
1.0
 50
0.0
 71
     0
 42
3.0
  3
txt
  4

  0
ENDTAB
  0
TABLE
  2
VIEW
 70
     2
  0
VIEW
  2
OLE1
 70
     0
 40
24.514257897662329
 10
44.901529473115893
 20
103.25177669290009
 41
34.172454060781448
 11
0.0
 21
0.0
 31
1.0
 12
0.0
 22
0.0
 32
0.0
 42
50.0
 43
0.0
 44
0.0
 50
0.0
 71
     0
  0
VIEW
  2
OLE2
 70
     0
 40
111.8251716252055
 10
23.153306359535989
 20
84.753742215946431
 41
155.8823667497492
 11
0.0
 21
0.0
 31
1.0
 12
0.0
 22
0.0
 32
0.0
 42
50.0
 43
0.0
 44
0.0
 50
0.0
 71
     0
  0
ENDTAB
  0
TABLE
  2
UCS
 70
     0
  0
ENDTAB
  0
TABLE
  2
APPID
 70
     3
  0
APPID
  2
ACAD
 70
     0
  0
APPID
  2
ACAD_MLEADERVER
 70
     0
  0
APPID
  2
ACAD_NAV_VCDISPLAY
 70
     0
  0
ENDTAB
  0
TABLE
  2
DIMSTYLE
 70
     1
  0
DIMSTYLE
  2
STANDARD
 70
     0
  3

  4

  5

  6

  7

 40
1.0
 41
0.18
 42
0.0625
 43
0.38
 44
0.18
 45
0.0
 46
0.0
 47
0.0
 48
0.0
140
0.18
141
0.09
142
0.0
143
25.399999999999999
144
1.0
145
0.0
146
1.0
147
0.09
 71
     0
 72
     0
 73
     1
 74
     1
 75
     0
 76
     0
 77
     0
 78
     0
170
     0
171
     2
172
     0
173
     0
174
     0
175
     0
176
     0
177
     0
178
     0
  0
ENDTAB
  0
ENDSEC
  0
SECTION
  2
BLOCKS
  0
BLOCK
  8
0
  2
$MODEL_SPACE
 70
     0
 10
0.0
 20
0.0
 30
0.0
  3
$MODEL_SPACE
  1

  0
ENDBLK
  5
E6
  8
0
  0
BLOCK
 67
     1
  8
0
  2
$PAPER_SPACE
 70
     0
 10
0.0
 20
0.0
 30
0.0
  3
$PAPER_SPACE
  1

  0
ENDBLK
  5
E4
 67
     1
  8
0
  0
ENDSEC
  0
SECTION
  2
ENTITIES
  0
ARC
  5
B16
  8
0
 10
74.985357776660692
 20
163.9517051817337
 30
0.0
 40
14.284999999999959
 50
138.31512357949259
 51
151.80176434056719
  0
ARC
  5
B18
  8
0
 10
74.985357776660649
 20
163.95170518173359
 30
0.0
 40
14.28499999999992
 50
208.1982356594323
 51
221.68487642050761
  0
ARC
  5
B19
  8
0
 10
74.985357776660948
 20
163.9517051817335
 30
0.0
 40
14.284999999999719
 50
318.31512357949242
 51
331.80176434056762
  0
ARC
  5
B1B
  8
0
 10
74.98535777666072
 20
163.9517051817337
 30
0.0
 40
14.284999999999989
 50
28.19823565943237
 51
41.684876420507301
  0
LINE
  5
B1C
  8
2
 10
81.985357776660706
 20
154.4517051817337
 30
0.0
 11
81.985357776660706
 21
173.4517051817337
 31
0.0
  0
LINE
  5
B1D
  8
2
 10
67.98535777666072
 20
173.4517051817337
 30
0.0
 11
67.98535777666072
 21
154.4517051817337
 31
0.0
  0
LINE
  5
B1E
  8
0
 10
64.317123386659716
 20
154.4517051817337
 30
0.0
 11
85.653592166661724
 21
154.4517051817337
 31
0.0
  0
LINE
  5
B1F
  8
0
 10
85.653592166661724
 20
173.4517051817337
 30
0.0
 11
64.317123386659716
 21
173.4517051817337
 31
0.0
  0
LINE
  5
B22
  8
1
 10
74.98535777666072
 20
178.52401317226929
 30
0.0
 11
74.985357776660706
 21
149.3981187905687
 31
0.0
  0
ARC
  5
B23
  8
0
 10
74.985357776660706
 20
163.9517051817337
 30
0.0
 40
19.0
 50
159.19042642232401
 51
200.8095735776767
  0
ARC
  5
B24
  8
0
 10
74.98535777666072
 20
163.9517051817337
 30
0.0
 40
19.0
 50
339.19042642232341
 51
20.809573577676659
  0
LINE
  5
B2B
  8
0
 10
92.745918015572101
 20
157.20170518173359
 30
0.0
 11
57.224797537749332
 21
157.2017051817337
 31
0.0
  0
LINE
  5
B30
  8
0
 10
57.224797537749332
 20
170.7017051817337
 30
0.0
 11
92.745918015572101
 21
170.70170518173359
 31
0.0
  0
LINE
  5
B36
  8
1
 10
50.9130497861251
 20
163.9517051817337
 30
0.0
 11
99.057665767196355
 21
163.95170518173359
 31
0.0
  0
LINE
  5
B3B
  8
1
 10
50.913049786125121
 20
87.276283642679118
 30
0.0
 11
99.057665767196355
 21
87.27628364267909
 31
0.0
  0
LINE
  5
B3C
  8
1
 10
74.98535777666072
 20
111.3485916332147
 30
0.0
 11
74.985357776660408
 21
21.20397565214347
 31
0.0
  0
LINE
  5
B3D
  8
0
 10
67.98535777666072
 20
62.276283642679111
 30
0.0
 11
68.598857776660708
 21
62.276283642679111
 31
0.0
  0
LINE
  5
B3E
  8
3
 10
68.598857776660708
 20
26.27628364267909
 30
0.0
 11
68.598857776660708
 21
62.276283642679111
 31
0.0
  0
LINE
  5
B3F
  8
0
 10
81.985357776660706
 20
62.27628364267909
 30
0.0
 11
67.98535777666072
 21
62.276283642679111
 31
0.0
  0
LINE
  5
B40
  8
0
 10
81.985357776660706
 20
62.27628364267909
 30
0.0
 11
81.371857776660704
 21
62.27628364267909
 31
0.0
  0
LINE
  5
B41
  8
3
 10
81.371857776660704
 20
26.27628364267909
 30
0.0
 11
81.371857776660704
 21
62.27628364267909
 31
0.0
  0
CIRCLE
  5
B42
  8
0
 10
74.98535777666072
 20
87.276283642679104
 30
0.0
 40
12.589627675193571
  0
POLYLINE
  5
B43
  8
0
 66
     1
 10
0.0
 20
0.0
 30
0.0
  0
VERTEX
  5
D49
  8
0
 10
73.131308154886753
 20
62.27628364267909
 30
0.0
  0
VERTEX
  5
D4A
  8
0
 10
73.088038908924062
 20
62.295262529650131
 30
0.0
  0
VERTEX
  5
D4B
  8
0
 10
73.001521960346196
 20
62.334424562673327
 30
0.0
  0
VERTEX
  5
D4C
  8
0
 10
72.915018599024364
 20
62.375184444254749
 30
0.0
  0
VERTEX
  5
D4D
  8
0
 10
72.871766399827862
 20
62.396160827952343
 30
0.0
  0
VERTEX
  5
D4E
  8
0
 10
72.828510892878924
 20
62.417533470870517
 30
0.0
  0
VERTEX
  5
D4F
  8
0
 10
72.741981160371935
 20
62.461463712751417
 30
0.0
  0
VERTEX
  5
D50
  8
0
 10
72.655411954120524
 20
62.506967995052172
 30
0.0
  0
VERTEX
  5
D51
  8
0
 10
72.568786045085531
 20
62.554039880176248
 30
0.0
  0
VERTEX
  5
D52
  8
0
 10
72.482086407299363
 20
62.602673651203808
 30
0.0
  0
VERTEX
  5
D53
  8
0
 10
72.395296203098781
 20
62.652864296373842
 30
0.0
  0
VERTEX
  5
D54
  8
0
 10
72.351861924785894
 20
62.678542069813091
 30
0.0
  0
VERTEX
  5
D55
  8
0
 10
72.308398768830727
 20
62.704607494574461
 30
0.0
  0
VERTEX
  5
D56
  8
0
 10
72.221377601000185
 20
62.757899601799281
 30
0.0
  0
VERTEX
  5
D57
  8
0
 10
72.134216342831564
 20
62.81273763852947
 30
0.0
  0
VERTEX
  5
D58
  8
0
 10
71.82781556490238
 20
63.016817134303331
 30
0.0
  0
VERTEX
  5
D59
  8
0
 10
71.563143500923644
 20
63.206766350834968
 30
0.0
  0
VERTEX
  5
D5A
  8
0
 10
71.296137539920409
 20
63.410612537356897
 30
0.0
  0
VERTEX
  5
D5B
  8
0
 10
70.753442451880716
 20
63.860351017329357
 30
0.0
  0
VERTEX
  5
D5C
  8
0
 10
70.196364177741785
 20
64.367206296920543
 30
0.0
  0
VERTEX
  5
D5D
  8
0
 10
69.621477841186135
 20
64.933087000448594
 30
0.0
  0
VERTEX
  5
D5E
  8
0
 10
69.025224572267291
 20
65.560646636723177
 30
0.0
  0
VERTEX
  5
D5F
  8
0
 10
68.403835291381696
 20
66.253318466793402
 30
0.0
  0
VERTEX
  5
D60
  8
0
 10
68.082459603270095
 20
66.625371835441925
 30
0.0
  0
VERTEX
  5
D61
  8
0
 10
67.753249931226506
 20
67.015375732405033
 30
0.0
  0
VERTEX
  5
D62
  8
0
 10
67.069028382986659
 20
67.852019314779724
 30
0.0
  0
VERTEX
  5
D63
  8
0
 10
66.346249025280144
 20
68.769496591814899
 30
0.0
  0
VERTEX
  5
D64
  8
0
 10
63.425977440050971
 20
72.738162072216667
 30
0.0
  0
VERTEX
  5
D65
  8
0
 10
60.239326957185348
 20
77.377188983515438
 30
0.0
  0
SEQEND
  5
D66
  8
0
  0
POLYLINE
  5
B44
  8
0
 66
     1
 10
0.0
 20
0.0
 30
0.0
  0
VERTEX
  5
D67
  8
0
 10
89.731388596136085
 20
77.377188983515438
 30
0.0
  0
VERTEX
  5
D68
  8
0
 10
86.544738113270469
 20
72.738162072216653
 30
0.0
  0
VERTEX
  5
D69
  8
0
 10
83.624466528041296
 20
68.769496591814885
 30
0.0
  0
VERTEX
  5
D6A
  8
0
 10
82.901687170334796
 20
67.85201931477971
 30
0.0
  0
VERTEX
  5
D6B
  8
0
 10
82.21746562209492
 20
67.015375732405033
 30
0.0
  0
VERTEX
  5
D6C
  8
0
 10
81.888255950051317
 20
66.625371835441925
 30
0.0
  0
VERTEX
  5
D6D
  8
0
 10
81.566880261939744
 20
66.253318466793388
 30
0.0
  0
VERTEX
  5
D6E
  8
0
 10
80.945490981054164
 20
65.560646636723163
 30
0.0
  0
VERTEX
  5
D6F
  8
0
 10
80.349237712135306
 20
64.933087000448594
 30
0.0
  0
VERTEX
  5
D70
  8
0
 10
79.774351375579641
 20
64.367206296920529
 30
0.0
  0
VERTEX
  5
D71
  8
0
 10
79.217273101440696
 20
63.86035101732935
 30
0.0
  0
VERTEX
  5
D72
  8
0
 10
78.674578013401003
 20
63.410612537356897
 30
0.0
  0
VERTEX
  5
D73
  8
0
 10
78.407572052397768
 20
63.206766350834947
 30
0.0
  0
VERTEX
  5
D74
  8
0
 10
78.14289998841906
 20
63.016817134303331
 30
0.0
  0
VERTEX
  5
D75
  8
0
 10
77.836499210489876
 20
62.812737638529448
 30
0.0
  0
VERTEX
  5
D76
  8
0
 10
77.749337952321255
 20
62.757899601799281
 30
0.0
  0
VERTEX
  5
D77
  8
0
 10
77.662316784490713
 20
62.704607494574461
 30
0.0
  0
VERTEX
  5
D78
  8
0
 10
77.618853628535547
 20
62.678542069813091
 30
0.0
  0
VERTEX
  5
D79
  8
0
 10
77.57541935022266
 20
62.652864296373842
 30
0.0
  0
VERTEX
  5
D7A
  8
0
 10
77.488629146022078
 20
62.60267365120383
 30
0.0
  0
VERTEX
  5
D7B
  8
0
 10
77.401929508235895
 20
62.554039880176248
 30
0.0
  0
VERTEX
  5
D7C
  8
0
 10
77.315303599200917
 20
62.506967995052172
 30
0.0
  0
VERTEX
  5
D7D
  8
0
 10
77.228734392949505
 20
62.46146371275141
 30
0.0
  0
VERTEX
  5
D7E
  8
0
 10
77.142204660442502
 20
62.417533470870517
 30
0.0
  0
VERTEX
  5
D7F
  8
0
 10
77.098949153493578
 20
62.396160827952343
 30
0.0
  0
VERTEX
  5
D80
  8
0
 10
77.055696954297076
 20
62.375184444254749
 30
0.0
  0
VERTEX
  5
D81
  8
0
 10
76.969193592975245
 20
62.334424562673348
 30
0.0
  0
VERTEX
  5
D82
  8
0
 10
76.882676644397378
 20
62.295262529650117
 30
0.0
  0
VERTEX
  5
D83
  8
0
 10
76.839407398434673
 20
62.27628364267909
 30
0.0
  0
SEQEND
  5
D84
  8
0
  0
ARC
  5
B45
  8
0
 10
74.98535777666072
 20
87.276283642679104
 30
0.0
 40
17.760560238911388
 50
326.12631260604638
 51
213.87368739395359
  0
LINE
  5
B48
  8
0
 10
60.23932695718613
 20
77.377188983515325
 30
0.0
 11
58.767838702249399
 21
77.377188983515438
 31
0.0
  0
LINE
  5
B49
  8
0
 10
89.731388596135304
 20
77.377188983513207
 30
0.0
 11
91.20287685107202
 21
77.377188983513093
 31
0.0
  0
LINE
  5
B4A
  8
0
 10
81.371857776660704
 20
26.276283642678631
 30
0.0
 11
68.598857776660708
 21
26.276283642679541
 31
0.0
  0
LINE
  5
B4B
  8
0
 10
81.985357776660706
 20
26.889783642678591
 30
0.0
 11
67.98535777666072
 21
26.889783642679589
 31
0.0
  0
LINE
  5
B4D
  8
0
 10
58.767838702249399
 20
77.377188983514273
 30
0.0
 11
67.98535777666072
 21
62.276283642679111
 31
0.0
  0
LINE
  5
B4E
  8
0
 10
81.985357776660706
 20
62.27628364267909
 30
0.0
 11
91.20287685107202
 21
77.377188983514273
 31
0.0
  0
LINE
  5
B4F
  8
0
 10
67.985357776660692
 20
26.889783642679109
 30
0.0
 11
68.598857776660708
 21
26.27628364267909
 31
0.0
  0
LINE
  5
B50
  8
0
 10
81.371857776660718
 20
26.27628364267909
 30
0.0
 11
81.985357776660706
 21
26.889783642679109
 31
0.0
  0
LINE
  5
B51
  8
0
 10
67.98535777666072
 20
62.276283642679111
 30
0.0
 11
67.98535777666072
 21
26.889783642679109
 31
0.0
  0
LINE
  5
B52
  8
0
 10
81.985357776660706
 20
26.889783642679109
 30
0.0
 11
81.985357776660706
 21
62.27628364267909
 31
0.0
  0
ARC
  5
B53
  8
0
 10
74.98535777666072
 20
87.276283642679104
 30
0.0
 40
19.0
 50
328.60031212235492
 51
211.39968787764511
  0
CIRCLE
  5
B56
  8
0
 10
74.98535777666072
 20
87.276283642679104
 30
0.0
 40
7.0
  0
CIRCLE
  5
B57
  8
0
 10
74.98535777666072
 20
87.276283642679104
 30
0.0
 40
10.66823439000099
  0
LINE
  5
B5D
  8
3
 10
150.18588323104919
 20
26.276283642679122
 30
0.0
 11
150.18588323104919
 21
62.27628364267909
 31
0.0
  0
LINE
  5
B5E
  8
0
 10
163.5723832310492
 20
62.27628364267909
 30
0.0
 11
149.5723832310492
 21
62.27628364267909
 31
0.0
  0
LINE
  5
B60
  8
3
 10
162.95888323104921
 20
26.276283642679122
 30
0.0
 11
162.95888323104921
 21
62.27628364267909
 31
0.0
  0
LINE
  5
B61
  8
0
 10
163.3223832310492
 20
99.865911317872673
 30
0.0
 11
163.3223832310492
 21
74.686655967485535
 31
0.0
  0
LINE
  5
B62
  8
0
 10
149.8223832310492
 20
99.865911317872673
 30
0.0
 11
149.8223832310492
 21
74.686655967485535
 31
0.0
  0
LINE
  5
B6A
  8
0
 10
162.95888323104921
 20
26.276283642679122
 30
0.0
 11
150.18588323104919
 21
26.276283642679122
 31
0.0
  0
LINE
  5
B6B
  8
0
 10
163.5723832310492
 20
26.889783642679109
 30
0.0
 11
149.5723832310492
 21
26.889783642679109
 31
0.0
  0
ARC
  5
B6C
  8
2
 10
156.5723832310492
 20
87.276283642679118
 30
0.0
 40
14.285
 50
61.80176434056704
 51
118.1982356594327
  0
ARC
  5
B6D
  8
2
 10
156.5723832310492
 20
87.276283642679118
 30
0.0
 40
14.285
 50
241.8017643405673
 51
298.1982356594329
  0
LINE
  5
B6E
  8
0
 10
149.5723832310492
 20
26.889783642679109
 30
0.0
 11
150.18588323104919
 21
26.276283642679122
 31
0.0
  0
LINE
  5
B6F
  8
0
 10
162.95888323104921
 20
26.276283642679122
 30
0.0
 11
163.5723832310492
 21
26.889783642679109
 31
0.0
  0
LINE
  5
B70
  8
0
 10
149.5723832310492
 20
62.27628364267909
 30
0.0
 11
149.5723832310492
 21
26.889783642679109
 31
0.0
  0
LINE
  5
B71
  8
0
 10
163.5723832310492
 20
26.889783642679109
 30
0.0
 11
163.5723832310492
 21
62.27628364267909
 31
0.0
  0
ARC
  5
B72
  8
0
 10
156.5723832310492
 20
87.276283642679118
 30
0.0
 40
19.0
 50
69.190426422323455
 51
110.8095735776765
  0
LINE
  5
B76
  8
0
 10
147.0723832310492
 20
76.608049252678114
 30
0.0
 11
147.0723832310492
 21
97.944518032680094
 31
0.0
  0
LINE
  5
B77
  8
0
 10
166.0723832310492
 20
76.608049252678114
 30
0.0
 11
166.0723832310492
 21
97.944518032680094
 31
0.0
  0
LINE
  5
B78
  8
2
 10
147.0723832310492
 20
80.276283642679104
 30
0.0
 11
166.0723832310492
 21
80.276283642679104
 31
0.0
  0
LINE
  5
B79
  8
2
 10
166.0723832310492
 20
94.276283642679076
 30
0.0
 11
147.0723832310492
 21
94.276283642679118
 31
0.0
  0
ARC
  5
B7A
  8
0
 10
156.572383231049
 20
87.276283642679459
 30
0.0
 40
14.285000000000419
 50
298.1982356594329
 51
311.68487642050729
  0
ARC
  5
B7C
  8
0
 10
156.57238323104951
 20
87.276283642679516
 30
0.0
 40
14.285000000000471
 50
228.31512357949259
 51
241.80176434056699
  0
ARC
  5
B7D
  8
0
 10
156.5723832310494
 20
87.276283642678834
 30
0.0
 40
14.28500000000035
 50
118.1982356594329
 51
131.68487642050729
  0
ARC
  5
B7F
  8
0
 10
156.57238323104909
 20
87.276283642678948
 30
0.0
 40
14.285000000000171
 50
48.315123579492401
 51
61.80176434056704
  0
LINE
  5
BFB
  8
0
 10
163.3223832310492
 20
74.686655967485507
 30
0.0
 11
163.32238323104909
 21
62.276283642679061
 31
0.0
  0
LINE
  5
BFC
  8
0
 10
149.8223832310492
 20
74.686655967485535
 30
0.0
 11
149.8223832310492
 21
62.27628364267909
 31
0.0
  0
LINE
  5
C2F
  8
1
 10
156.5723832310492
 20
111.3485916332147
 30
0.0
 11
156.57238323104889
 21
21.203975652143502
 31
0.0
  0
LINE
  5
C30
  8
1
 10
142.0000782470579
 20
87.276283642679118
 30
0.0
 11
171.1446882150405
 21
87.276283642679104
 31
0.0
  0
LINE
  5
C32
  8
0
 10
163.32238323104929
 20
105.0368438815904
 30
0.0
 11
163.3223832310492
 21
99.865911317872715
 31
0.0
  0
LINE
  5
C33
  8
0
 10
149.82238323104909
 20
105.0368438815904
 30
0.0
 11
149.8223832310492
 21
99.865911317872673
 31
0.0
  0
TEXT
  5
CE6
  8
0
 62
     3
 10
0.0
 20
0.0
 30
0.0
 40
10.0
  1
REJ14-M14X61
  7
STANDARD1
  0
ENDSEC
  0
EOF
