  0
SECTION
  2
HEADER
  9
$ACADVER
  1
AC1009
  9
$INSBASE
 10
0.0
 20
0.0
 30
0.0
  9
$EXTMIN
 10
0.0
 20
-2.960436562073669
 30
0.0
  9
$EXTMAX
 10
120.77455722011381
 20
149.04054794458079
 30
0.0
  9
$LIMMIN
 10
0.0
 20
0.0
  9
$LIMMAX
 10
187.5
 20
135.0
  9
$ORTHOMODE
 70
     1
  9
$REGENMODE
 70
     1
  9
$FILLMODE
 70
     1
  9
$QTEXTMODE
 70
     0
  9
$MIRRTEXT
 70
     0
  9
$DRAGMODE
 70
     2
  9
$LTSCALE
 40
5.0
  9
$OSMODE
 70
    55
  9
$ATTMODE
 70
     1
  9
$TEXTSIZE
 40
0.06
  9
$TRACEWID
 40
0.05
  9
$TEXTSTYLE
  7
STANDARD
  9
$CLAYER
  8
0
  9
$CELTYPE
  6
BYLAYER
  9
$CECOLOR
 62
   256
  9
$DIMSCALE
 40
0.5
  9
$DIMASZ
 40
3.0
  9
$DIMEXO
 40
2.0
  9
$DIMDLI
 40
10.0
  9
$DIMRND
 40
0.0
  9
$DIMDLE
 40
0.0
  9
$DIMEXE
 40
2.0
  9
$DIMTP
 40
0.0
  9
$DIMTM
 40
0.0
  9
$DIMTXT
 40
3.0
  9
$DIMCEN
 40
0.0
  9
$DIMTSZ
 40
0.0
  9
$DIMTOL
 70
     0
  9
$DIMLIM
 70
     0
  9
$DIMTIH
 70
     0
  9
$DIMTOH
 70
     0
  9
$DIMSE1
 70
     0
  9
$DIMSE2
 70
     0
  9
$DIMTAD
 70
     1
  9
$DIMZIN
 70
     8
  9
$DIMBLK
  1

  9
$DIMASO
 70
     0
  9
$DIMSHO
 70
     0
  9
$DIMPOST
  1

  9
$DIMAPOST
  1

  9
$DIMALT
 70
     0
  9
$DIMALTD
 70
     2
  9
$DIMALTF
 40
25.399999999999999
  9
$DIMLFAC
 40
1.0
  9
$DIMTOFL
 70
     1
  9
$DIMTVP
 40
1.6000000000000001
  9
$DIMTIX
 70
     1
  9
$DIMSOXD
 70
     0
  9
$DIMSAH
 70
     0
  9
$DIMBLK1
  1

  9
$DIMBLK2
  1

  9
$DIMSTYLE
  2
STANDARD
  9
$DIMCLRD
 70
     0
  9
$DIMCLRE
 70
     0
  9
$DIMCLRT
 70
     0
  9
$DIMTFAC
 40
1.0
  9
$DIMGAP
 40
0.09
  9
$LUNITS
 70
     2
  9
$LUPREC
 70
     4
  9
$SKETCHINC
 40
0.1
  9
$FILLETRAD
 40
0.4
  9
$AUNITS
 70
     0
  9
$AUPREC
 70
     4
  9
$MENU
  1
E:\r13\win\SUPPORT\ACAD
  9
$ELEVATION
 40
0.0
  9
$PELEVATION
 40
0.0
  9
$THICKNESS
 40
0.0
  9
$LIMCHECK
 70
     0
  9
$BLIPMODE
 70
     0
  9
$CHAMFERA
 40
0.0
  9
$CHAMFERB
 40
0.0
  9
$SKPOLY
 70
     0
  9
$TDCREATE
 40
2449840.5914699072
  9
$TDUPDATE
 40
2456598.5927656251
  9
$TDINDWG
 40
0.1164988079
  9
$TDUSRTIMER
 40
0.1164988079
  9
$USRTIMER
 70
     1
  9
$ANGBASE
 50
0.0
  9
$ANGDIR
 70
     0
  9
$PDMODE
 70
     0
  9
$PDSIZE
 40
0.0
  9
$PLINEWID
 40
0.0
  9
$COORDS
 70
     1
  9
$SPLFRAME
 70
     0
  9
$SPLINETYPE
 70
     6
  9
$SPLINESEGS
 70
     8
  9
$ATTDIA
 70
     0
  9
$ATTREQ
 70
     1
  9
$HANDLING
 70
     1
  9
$HANDSEED
  5
C49
  9
$SURFTAB1
 70
     6
  9
$SURFTAB2
 70
     6
  9
$SURFTYPE
 70
     6
  9
$SURFU
 70
     6
  9
$SURFV
 70
     6
  9
$UCSNAME
  2

  9
$UCSORG
 10
0.0
 20
0.0
 30
0.0
  9
$UCSXDIR
 10
1.0
 20
0.0
 30
0.0
  9
$UCSYDIR
 10
0.0
 20
1.0
 30
0.0
  9
$PUCSNAME
  2

  9
$PUCSORG
 10
0.0
 20
0.0
 30
0.0
  9
$PUCSXDIR
 10
1.0
 20
0.0
 30
0.0
  9
$PUCSYDIR
 10
0.0
 20
1.0
 30
0.0
  9
$USERI1
 70
     3
  9
$USERI2
 70
     1
  9
$USERI3
 70
     0
  9
$USERI4
 70
     0
  9
$USERI5
 70
     0
  9
$USERR1
 40
0.5
  9
$USERR2
 40
3.0
  9
$USERR3
 40
3.0
  9
$USERR4
 40
3.0
  9
$USERR5
 40
10.0
  9
$WORLDVIEW
 70
     1
  9
$SHADEDGE
 70
     3
  9
$SHADEDIF
 70
    70
  9
$TILEMODE
 70
     1
  9
$MAXACTVP
 70
    16
  9
$PLIMCHECK
 70
     0
  9
$PEXTMIN
 10
1.0000000000000000E+020
 20
1.0000000000000000E+020
 30
1.0000000000000000E+020
  9
$PEXTMAX
 10
-1.0000000000000000E+020
 20
-1.0000000000000000E+020
 30
-1.0000000000000000E+020
  9
$PLIMMIN
 10
0.0
 20
0.0
  9
$PLIMMAX
 10
12.0
 20
9.0
  9
$UNITMODE
 70
     0
  9
$VISRETAIN
 70
     0
  9
$PLINEGEN
 70
     0
  9
$PSLTSCALE
 70
     0
  0
ENDSEC
  0
SECTION
  2
TABLES
  0
TABLE
  2
VPORT
 70
     1
  0
VPORT
  2
*ACTIVE
 70
     0
 10
0.0
 20
0.0
 11
1.0
 21
1.0
 12
93.747139195326156
 22
107.1617070152203
 13
0.0
 23
0.0
 14
5.0
 24
5.0
 15
10.0
 25
10.0
 16
0.0
 26
0.0
 36
1.0
 17
0.0
 27
0.0
 37
0.0
 40
222.3762998969184
 41
1.7807262569832401
 42
50.0
 43
0.0
 44
0.0
 50
0.0
 51
0.0
 71
     0
 72
   100
 73
     1
 74
     0
 75
     0
 76
     0
 77
     0
 78
     0
  0
ENDTAB
  0
TABLE
  2
LTYPE
 70
     4
  0
LTYPE
  2
CONTINUOUS
 70
     0
  3
Solid Line
 72
    65
 73
     0
 40
0.0
  0
LTYPE
  2
CENTER
 70
     0
  3
____ _ ____ _ ____ _ ____ _ ____ _ ____ _ ____
 72
    65
 73
     4
 40
2.0
 49
1.25
 49
-0.25
 49
0.25
 49
-0.25
  0
LTYPE
  2
HIDDEN
 70
     0
  3
_ _ _ _ _ _ _ _ _ _ _ _ _ _ _ _ _ _ _ _ _ _ _
 72
    65
 73
     2
 40
0.375
 49
0.25
 49
-0.125
  0
LTYPE
  2
PHANTOM2
 70
     0
  3
___ _ _ ___ _ _ ___ _ _ ___ _ _
 72
    65
 73
     6
 40
1.25
 49
0.625
 49
-0.125
 49
0.125
 49
-0.125
 49
0.125
 49
-0.125
  0
ENDTAB
  0
TABLE
  2
LAYER
 70
     4
  0
LAYER
  2
0
 70
     0
 62
     7
  6
CONTINUOUS
  0
LAYER
  2
1
 70
     0
 62
     1
  6
CENTER
  0
LAYER
  2
2
 70
     0
 62
     2
  6
HIDDEN
  0
LAYER
  2
3
 70
     0
 62
     3
  6
CONTINUOUS
  0
ENDTAB
  0
TABLE
  2
STYLE
 70
     2
  0
STYLE
  2
STANDARD
 70
     0
 40
0.0
 41
1.0
 50
0.0
 71
     0
 42
0.06
  3
TXT
  4
BIGFONT
  0
STYLE
  2
STANDARD1
 70
     0
 40
0.0
 41
1.0
 50
0.0
 71
     0
 42
3.0
  3
txt
  4

  0
ENDTAB
  0
TABLE
  2
VIEW
 70
     2
  0
VIEW
  2
OLE1
 70
     0
 40
24.514257897662329
 10
44.901529473115893
 20
103.25177669290009
 41
34.172454060781448
 11
0.0
 21
0.0
 31
1.0
 12
0.0
 22
0.0
 32
0.0
 42
50.0
 43
0.0
 44
0.0
 50
0.0
 71
     0
  0
VIEW
  2
OLE2
 70
     0
 40
111.8251716252055
 10
23.153306359535989
 20
84.753742215946431
 41
155.8823667497492
 11
0.0
 21
0.0
 31
1.0
 12
0.0
 22
0.0
 32
0.0
 42
50.0
 43
0.0
 44
0.0
 50
0.0
 71
     0
  0
ENDTAB
  0
TABLE
  2
UCS
 70
     0
  0
ENDTAB
  0
TABLE
  2
APPID
 70
     3
  0
APPID
  2
ACAD
 70
     0
  0
APPID
  2
ACAD_MLEADERVER
 70
     0
  0
APPID
  2
ACAD_NAV_VCDISPLAY
 70
     0
  0
ENDTAB
  0
TABLE
  2
DIMSTYLE
 70
     1
  0
DIMSTYLE
  2
STANDARD
 70
     0
  3

  4

  5

  6

  7

 40
1.0
 41
0.18
 42
0.0625
 43
0.38
 44
0.18
 45
0.0
 46
0.0
 47
0.0
 48
0.0
140
0.18
141
0.09
142
0.0
143
25.399999999999999
144
1.0
145
0.0
146
1.0
147
0.09
 71
     0
 72
     0
 73
     1
 74
     1
 75
     0
 76
     0
 77
     0
 78
     0
170
     0
171
     2
172
     0
173
     0
174
     0
175
     0
176
     0
177
     0
178
     0
  0
ENDTAB
  0
ENDSEC
  0
SECTION
  2
BLOCKS
  0
BLOCK
  8
0
  2
$MODEL_SPACE
 70
     0
 10
0.0
 20
0.0
 30
0.0
  3
$MODEL_SPACE
  1

  0
ENDBLK
  5
E6
  8
0
  0
BLOCK
 67
     1
  8
0
  2
$PAPER_SPACE
 70
     0
 10
0.0
 20
0.0
 30
0.0
  3
$PAPER_SPACE
  1

  0
ENDBLK
  5
E4
 67
     1
  8
0
  0
ENDSEC
  0
SECTION
  2
ENTITIES
  0
ARC
  5
9E2
  8
0
 10
39.763676545086469
 20
138.4242124591145
 30
0.0
 40
11.11000000000017
 50
133.93957419486969
 51
147.31268469676931
  0
ARC
  5
9E4
  8
0
 10
39.763676545086348
 20
138.42421245911461
 30
0.0
 40
11.110000000000049
 50
212.68731530323069
 51
226.06042580513011
  0
ARC
  5
9E5
  8
0
 10
39.763676545086412
 20
138.4242124591145
 30
0.0
 40
11.1099999999999
 50
313.93957419486969
 51
327.31268469676928
  0
ARC
  5
9E7
  8
0
 10
39.763676545086469
 20
138.4242124591147
 30
0.0
 40
11.109999999999831
 50
32.687315303230712
 51
46.060425805130222
  0
LINE
  5
9E8
  8
2
 10
45.763676545086319
 20
130.42421245911461
 30
0.0
 11
45.763676545086319
 21
146.42421245911461
 31
0.0
  0
LINE
  5
9E9
  8
2
 10
33.763676545086327
 20
146.42421245911461
 30
0.0
 11
33.763676545086327
 21
130.42421245911461
 31
0.0
  0
LINE
  5
9EA
  8
0
 10
32.054454794481423
 20
130.42421245911461
 30
0.0
 11
47.47289829569123
 21
130.42421245911461
 31
0.0
  0
LINE
  5
9EB
  8
0
 10
47.472898295691259
 20
146.42421245911461
 30
0.0
 11
32.054454794481423
 21
146.42421245911461
 31
0.0
  0
ARC
  5
9EF
  8
0
 10
39.763676545086298
 20
138.42421245911461
 30
0.0
 40
16.999999999999972
 50
159.33268350648771
 51
200.6673164935122
  0
ARC
  5
9F0
  8
0
 10
39.763676545086327
 20
138.42421245911461
 30
0.0
 40
16.999999999999989
 50
339.3326835064878
 51
20.6673164935122
  0
LINE
  5
A07
  8
1
 10
20.147341059620139
 20
75.430789214558871
 30
0.0
 11
59.3800120305525
 21
75.430789214558871
 31
0.0
  0
LINE
  5
A08
  8
1
 10
39.763676545086327
 20
95.047124700025051
 30
0.0
 11
39.763676545086327
 21
18.814453729092751
 31
0.0
  0
LINE
  5
A09
  8
0
 10
33.763676545086327
 20
53.430789214558871
 30
0.0
 11
34.377176545086307
 21
53.430789214558871
 31
0.0
  0
LINE
  5
A0A
  8
3
 10
34.377176545086307
 20
21.430789214558871
 30
0.0
 11
34.377176545086307
 21
53.430789214558871
 31
0.0
  0
LINE
  5
A0B
  8
0
 10
45.763676545086319
 20
53.430789214558871
 30
0.0
 11
33.763676545086327
 21
53.430789214558871
 31
0.0
  0
LINE
  5
A0C
  8
0
 10
45.763676545086319
 20
53.430789214558871
 30
0.0
 11
45.15017654508631
 21
53.430789214558871
 31
0.0
  0
LINE
  5
A0D
  8
3
 10
45.15017654508631
 20
21.430789214558871
 30
0.0
 11
45.15017654508631
 21
53.430789214558871
 31
0.0
  0
CIRCLE
  5
A0E
  8
0
 10
39.763676545086327
 20
75.430789214558871
 30
0.0
 40
9.3505133548912678
  0
POLYLINE
  5
A0F
  8
0
 66
     1
 10
0.0
 20
0.0
 30
0.0
  0
VERTEX
  5
BA5
  8
0
 10
39.763676545086327
 20
53.430789214558871
 30
0.0
  0
VERTEX
  5
BA6
  8
0
 10
39.717630907782528
 20
53.431061832063932
 30
0.0
  0
VERTEX
  5
BA7
  8
0
 10
39.625905057413831
 20
53.433229522417463
 30
0.0
  0
VERTEX
  5
BA8
  8
0
 10
39.534636685193853
 20
53.437532121530893
 30
0.0
  0
VERTEX
  5
BA9
  8
0
 10
39.489163138263251
 20
53.440473847840991
 30
0.0
  0
VERTEX
  5
BAA
  8
0
 10
39.443790986683069
 20
53.443937349172792
 30
0.0
  0
VERTEX
  5
BAB
  8
0
 10
39.353334131186081
 20
53.452414857950913
 30
0.0
  0
VERTEX
  5
BAC
  8
0
 10
39.263233203186729
 20
53.462936153807867
 30
0.0
  0
VERTEX
  5
BAD
  8
0
 10
39.173456146910503
 20
53.475474521673192
 30
0.0
  0
VERTEX
  5
BAE
  8
0
 10
39.083971713790639
 20
53.490004955938019
 30
0.0
  0
VERTEX
  5
BAF
  8
0
 10
38.994749412631357
 20
53.506504095445933
 30
0.0
  0
VERTEX
  5
BB0
  8
0
 10
38.950227228435473
 20
53.515485063920629
 30
0.0
  0
VERTEX
  5
BB1
  8
0
 10
38.905759462276649
 20
53.524950162717772
 30
0.0
  0
VERTEX
  5
BB2
  8
0
 10
38.816972746607412
 20
53.545322907149369
 30
0.0
  0
VERTEX
  5
BB3
  8
0
 10
38.728360771702
 20
53.567603551942767
 30
0.0
  0
VERTEX
  5
BB4
  8
0
 10
38.639895625007313
 20
53.591774744547791
 30
0.0
  0
VERTEX
  5
BB5
  8
0
 10
38.551549936377967
 20
53.617820510411292
 30
0.0
  0
VERTEX
  5
BB6
  8
0
 10
38.463296840850909
 20
53.645726209843673
 30
0.0
  0
VERTEX
  5
BB7
  8
0
 10
38.419196749540248
 20
53.660372314798707
 30
0.0
  0
VERTEX
  5
BB8
  8
0
 10
38.375109943032193
 20
53.67547849782877
 30
0.0
  0
VERTEX
  5
BB9
  8
0
 10
38.28696328297989
 20
53.70706528661637
 30
0.0
  0
VERTEX
  5
BBA
  8
0
 10
38.198831303476048
 20
53.740475710948573
 30
0.0
  0
VERTEX
  5
BBB
  8
0
 10
38.154762934656759
 20
53.757861717333732
 30
0.0
  0
VERTEX
  5
BBC
  8
0
 10
38.110688818585942
 20
53.775700095782582
 30
0.0
  0
VERTEX
  5
BBD
  8
0
 10
38.02251098341074
 20
53.812729926383518
 30
0.0
  0
VERTEX
  5
BBE
  8
0
 10
37.934273264944103
 20
53.851557820670479
 30
0.0
  0
VERTEX
  5
BBF
  8
0
 10
37.890124361254749
 20
53.871644038186083
 30
0.0
  0
VERTEX
  5
BC0
  8
0
 10
37.845951413949848
 20
53.89217750370775
 30
0.0
  0
VERTEX
  5
BC1
  8
0
 10
37.757521437781463
 20
53.934583784242669
 30
0.0
  0
VERTEX
  5
BC2
  8
0
 10
37.66895957406993
 20
53.978772533198111
 30
0.0
  0
VERTEX
  5
BC3
  8
0
 10
37.580242265209591
 20
54.024740664035981
 30
0.0
  0
VERTEX
  5
BC4
  8
0
 10
37.491346133575547
 20
54.07248611491471
 30
0.0
  0
VERTEX
  5
BC5
  8
0
 10
37.402247957410538
 20
54.122007832569551
 30
0.0
  0
VERTEX
  5
BC6
  8
0
 10
37.35761588265396
 20
54.147434734483767
 30
0.0
  0
VERTEX
  5
BC7
  8
0
 10
37.312924647320557
 20
54.173305757851921
 30
0.0
  0
VERTEX
  5
BC8
  8
0
 10
37.223353223323699
 20
54.226380812868541
 30
0.0
  0
VERTEX
  5
BC9
  8
0
 10
37.13351079239667
 20
54.28123488966591
 30
0.0
  0
VERTEX
  5
BCA
  8
0
 10
37.043374526468227
 20
54.337870840413217
 30
0.0
  0
VERTEX
  5
BCB
  8
0
 10
36.952921640809507
 20
54.396292469038677
 30
0.0
  0
VERTEX
  5
BCC
  8
0
 10
36.862129372773097
 20
54.456504524280291
 30
0.0
  0
VERTEX
  5
BCD
  8
0
 10
36.816598857910833
 20
54.48728370281092
 30
0.0
  0
VERTEX
  5
BCE
  8
0
 10
36.770974960835559
 20
54.518512694116758
 30
0.0
  0
VERTEX
  5
BCF
  8
0
 10
36.679435623898627
 20
54.582323601546562
 30
0.0
  0
VERTEX
  5
BD0
  8
0
 10
36.587488540805651
 20
54.647944801689533
 30
0.0
  0
VERTEX
  5
BD1
  8
0
 10
36.262131615857669
 20
54.89200596519921
 30
0.0
  0
VERTEX
  5
BD2
  8
0
 10
35.689235304423313
 20
55.363636213177557
 30
0.0
  0
VERTEX
  5
BD3
  8
0
 10
35.092735480259108
 20
55.905435410100353
 30
0.0
  0
VERTEX
  5
BD4
  8
0
 10
34.78392453930784
 20
56.204017616250859
 30
0.0
  0
VERTEX
  5
BD5
  8
0
 10
34.467101903805059
 20
56.521956261584791
 30
0.0
  0
VERTEX
  5
BD6
  8
0
 10
33.806275760606042
 20
57.219169331851482
 30
0.0
  0
VERTEX
  5
BD7
  8
0
 10
33.103472806071039
 20
58.004657031651931
 30
0.0
  0
VERTEX
  5
BD8
  8
0
 10
32.350948869933433
 20
58.887888843959992
 30
0.0
  0
VERTEX
  5
BD9
  8
0
 10
31.53971047230673
 20
59.880598893882762
 30
0.0
  0
VERTEX
  5
BDA
  8
0
 10
30.659147407459361
 20
60.997297513955772
 30
0.0
  0
VERTEX
  5
BDB
  8
0
 10
30.188996748039958
 20
61.60760178392902
 30
0.0
  0
VERTEX
  5
BDC
  8
0
 10
29.696555014224511
 20
62.255963587776392
 30
0.0
  0
VERTEX
  5
BDD
  8
0
 10
28.636499732711371
 20
63.678986987332763
 30
0.0
  0
VERTEX
  5
BDE
  8
0
 10
27.459959498831189
 20
65.294464985106373
 30
0.0
  0
VERTEX
  5
BDF
  8
0
 10
26.820798556581771
 20
66.185146490838491
 30
0.0
  0
SEQEND
  5
BE0
  8
0
  0
POLYLINE
  5
A10
  8
0
 66
     1
 10
0.0
 20
0.0
 30
0.0
  0
VERTEX
  5
BE1
  8
0
 10
52.706554533590889
 20
66.185146490838491
 30
0.0
  0
VERTEX
  5
BE2
  8
0
 10
49.338356342132698
 20
61.60760178392902
 30
0.0
  0
VERTEX
  5
BE3
  8
0
 10
46.423880284101607
 20
58.004657031651981
 30
0.0
  0
VERTEX
  5
BE4
  8
0
 10
45.721077329566612
 20
57.219169331851482
 30
0.0
  0
VERTEX
  5
BE5
  8
0
 10
45.060251186367587
 20
56.521956261584791
 30
0.0
  0
VERTEX
  5
BE6
  8
0
 10
44.74342855086482
 20
56.204017616250859
 30
0.0
  0
VERTEX
  5
BE7
  8
0
 10
44.434617609913538
 20
55.905435410100353
 30
0.0
  0
VERTEX
  5
BE8
  8
0
 10
43.83811778574934
 20
55.363636213177557
 30
0.0
  0
VERTEX
  5
BE9
  8
0
 10
43.265221474314977
 20
54.89200596519921
 30
0.0
  0
VERTEX
  5
BEA
  8
0
 10
42.710754232261792
 20
54.48728370281092
 30
0.0
  0
VERTEX
  5
BEB
  8
0
 10
42.393842297775983
 20
54.28123488966591
 30
0.0
  0
VERTEX
  5
BEC
  8
0
 10
42.303999866848933
 20
54.226380812868541
 30
0.0
  0
VERTEX
  5
BED
  8
0
 10
42.214428442852061
 20
54.173305757851921
 30
0.0
  0
VERTEX
  5
BEE
  8
0
 10
42.169737207518693
 20
54.147434734483767
 30
0.0
  0
VERTEX
  5
BEF
  8
0
 10
42.125105132762108
 20
54.122007832569551
 30
0.0
  0
VERTEX
  5
BF0
  8
0
 10
42.036006956597042
 20
54.07248611491471
 30
0.0
  0
VERTEX
  5
BF1
  8
0
 10
41.947110824963033
 20
54.024740664035981
 30
0.0
  0
VERTEX
  5
BF2
  8
0
 10
41.858393516102659
 20
53.978772533198111
 30
0.0
  0
VERTEX
  5
BF3
  8
0
 10
41.769831652391161
 20
53.934583784242669
 30
0.0
  0
VERTEX
  5
BF4
  8
0
 10
41.681401676222777
 20
53.89217750370775
 30
0.0
  0
VERTEX
  5
BF5
  8
0
 10
41.637228728917883
 20
53.871644038186083
 30
0.0
  0
VERTEX
  5
BF6
  8
0
 10
41.593079825228493
 20
53.851557820670479
 30
0.0
  0
VERTEX
  5
BF7
  8
0
 10
41.504842106761913
 20
53.812729926383518
 30
0.0
  0
VERTEX
  5
BF8
  8
0
 10
41.416664271586683
 20
53.775700095782582
 30
0.0
  0
VERTEX
  5
BF9
  8
0
 10
41.372590155515837
 20
53.757861717333732
 30
0.0
  0
VERTEX
  5
BFA
  8
0
 10
41.328521786696598
 20
53.740475710948573
 30
0.0
  0
VERTEX
  5
BFB
  8
0
 10
41.240389807192713
 20
53.70706528661637
 30
0.0
  0
VERTEX
  5
BFC
  8
0
 10
41.152243147140432
 20
53.67547849782877
 30
0.0
  0
VERTEX
  5
BFD
  8
0
 10
41.108156340632398
 20
53.660372314798707
 30
0.0
  0
VERTEX
  5
BFE
  8
0
 10
41.064056249321709
 20
53.645726209843673
 30
0.0
  0
VERTEX
  5
BFF
  8
0
 10
40.975803153794658
 20
53.617820510411292
 30
0.0
  0
VERTEX
  5
C00
  8
0
 10
40.887457465165312
 20
53.591774744547791
 30
0.0
  0
VERTEX
  5
C01
  8
0
 10
40.798992318470617
 20
53.567603551942767
 30
0.0
  0
VERTEX
  5
C02
  8
0
 10
40.710380343565213
 20
53.545322907149369
 30
0.0
  0
VERTEX
  5
C03
  8
0
 10
40.621593627895969
 20
53.524950162717772
 30
0.0
  0
VERTEX
  5
C04
  8
0
 10
40.577125861737159
 20
53.515485063920629
 30
0.0
  0
VERTEX
  5
C05
  8
0
 10
40.532603677541289
 20
53.506504095445933
 30
0.0
  0
VERTEX
  5
C06
  8
0
 10
40.443381376382007
 20
53.490004955938019
 30
0.0
  0
VERTEX
  5
C07
  8
0
 10
40.353896943262122
 20
53.475474521673192
 30
0.0
  0
VERTEX
  5
C08
  8
0
 10
40.264119886985902
 20
53.462936153807867
 30
0.0
  0
VERTEX
  5
C09
  8
0
 10
40.174018958986522
 20
53.452414857950913
 30
0.0
  0
VERTEX
  5
C0A
  8
0
 10
40.08356210348952
 20
53.443937349172792
 30
0.0
  0
VERTEX
  5
C0B
  8
0
 10
40.038189951909366
 20
53.440473847840991
 30
0.0
  0
VERTEX
  5
C0C
  8
0
 10
39.992716404978779
 20
53.437532121530893
 30
0.0
  0
VERTEX
  5
C0D
  8
0
 10
39.9014480327588
 20
53.433229522417463
 30
0.0
  0
VERTEX
  5
C0E
  8
0
 10
39.809722182390118
 20
53.431061832063932
 30
0.0
  0
VERTEX
  5
C0F
  8
0
 10
39.763676545086327
 20
53.430789214558871
 30
0.0
  0
SEQEND
  5
C10
  8
0
  0
ARC
  5
A11
  8
0
 10
39.763676545086327
 20
75.430789214558871
 30
0.0
 40
15.905973720586861
 50
324.46018280346811
 51
215.53981719653191
  0
LINE
  5
A14
  8
0
 10
52.706554533589241
 20
66.185146490834171
 30
0.0
 11
54.029653224769817
 21
66.185146490834001
 31
0.0
  0
LINE
  5
A15
  8
0
 10
26.820798556583409
 20
66.185146490838264
 30
0.0
 11
25.49769986540284
 21
66.185146490838491
 31
0.0
  0
LINE
  5
A16
  8
0
 10
45.15017654508631
 20
21.430789214558079
 30
0.0
 11
34.377176545086307
 21
21.43078921455978
 31
0.0
  0
LINE
  5
A17
  8
0
 10
45.763676545086319
 20
22.044289214557949
 30
0.0
 11
33.763676545086327
 21
22.044289214559829
 31
0.0
  0
ARC
  5
A19
  8
0
 10
39.763676545086327
 20
75.430789214558871
 30
0.0
 40
16.999999999999989
 50
327.05311433521638
 51
212.94688566478359
  0
LINE
  5
A1A
  8
0
 10
45.763676545086291
 20
53.430789214558871
 30
0.0
 11
54.029653224769838
 21
66.185146490836203
 31
0.0
  0
LINE
  5
A1B
  8
0
 10
33.763676545086298
 20
22.044289214558919
 30
0.0
 11
34.377176545086307
 21
21.430789214558871
 31
0.0
  0
LINE
  5
A1C
  8
0
 10
45.15017654508631
 20
21.430789214558871
 30
0.0
 11
45.763676545086319
 21
22.044289214558919
 31
0.0
  0
LINE
  5
A1D
  8
0
 10
33.763676545086327
 20
53.430789214558871
 30
0.0
 11
33.763676545086327
 21
22.044289214558919
 31
0.0
  0
LINE
  5
A1E
  8
0
 10
45.763676545086319
 20
22.044289214558919
 30
0.0
 11
45.763676545086319
 21
53.430789214558871
 31
0.0
  0
LINE
  5
A1F
  8
0
 10
25.497699865402812
 20
66.185146490836203
 30
0.0
 11
33.763676545086327
 21
53.430789214558871
 31
0.0
  0
CIRCLE
  5
A22
  8
0
 10
39.763676545086327
 20
75.430789214558871
 30
0.0
 40
6.0
  0
CIRCLE
  5
A23
  8
0
 10
39.763676545086327
 20
75.430789214558871
 30
0.0
 40
7.7092217506049172
  0
LINE
  5
A28
  8
0
 10
104.1582217346476
 20
53.430789214558871
 30
0.0
 11
104.7717217346476
 21
53.430789214558871
 31
0.0
  0
LINE
  5
A29
  8
3
 10
104.7717217346476
 20
21.430789214558871
 30
0.0
 11
104.7717217346476
 21
53.430789214558871
 31
0.0
  0
LINE
  5
A2A
  8
0
 10
116.1582217346476
 20
53.430789214558871
 30
0.0
 11
104.1582217346476
 21
53.430789214558871
 31
0.0
  0
LINE
  5
A2B
  8
0
 10
116.1582217346476
 20
53.430789214558871
 30
0.0
 11
115.5447217346476
 21
53.430789214558871
 31
0.0
  0
LINE
  5
A2C
  8
3
 10
115.5447217346476
 20
21.430789214558871
 30
0.0
 11
115.5447217346476
 21
53.430789214558871
 31
0.0
  0
LINE
  5
A2D
  8
0
 10
116.1582217346476
 20
84.781302569450119
 30
0.0
 11
116.1582217346476
 21
66.080275859667637
 31
0.0
  0
LINE
  5
A2E
  8
0
 10
104.1582217346476
 20
84.781302569450119
 30
0.0
 11
104.1582217346476
 21
66.080275859667637
 31
0.0
  0
LINE
  5
A36
  8
0
 10
115.5447217346476
 20
21.430789214558871
 30
0.0
 11
104.7717217346476
 21
21.430789214558871
 31
0.0
  0
LINE
  5
A37
  8
0
 10
116.1582217346476
 20
22.044289214558919
 30
0.0
 11
104.1582217346476
 21
22.044289214558919
 31
0.0
  0
ARC
  5
A38
  8
2
 10
110.1582217346475
 20
75.430789214558843
 30
0.0
 40
11.109999999999991
 50
57.312684696769949
 51
122.68731530322999
  0
ARC
  5
A39
  8
2
 10
110.1582217346475
 20
75.430789214558843
 30
0.0
 40
11.109999999999991
 50
237.31268469676999
 51
302.68731530322998
  0
ARC
  5
A3A
  8
0
 10
110.1582217346475
 20
75.430789214558871
 30
0.0
 40
16.999999999999989
 50
69.332683506487001
 51
110.667316493513
  0
LINE
  5
A3B
  8
0
 10
104.1582217346476
 20
22.044289214558919
 30
0.0
 11
104.7717217346476
 21
21.430789214558871
 31
0.0
  0
LINE
  5
A3C
  8
0
 10
115.5447217346476
 20
21.430789214558871
 30
0.0
 11
116.1582217346476
 21
22.044289214558919
 31
0.0
  0
LINE
  5
A3D
  8
0
 10
104.1582217346476
 20
53.430789214558871
 30
0.0
 11
104.1582217346476
 21
22.044289214558919
 31
0.0
  0
LINE
  5
A3E
  8
0
 10
116.1582217346476
 20
22.044289214558919
 30
0.0
 11
116.1582217346476
 21
53.430789214558871
 31
0.0
  0
LINE
  5
A42
  8
0
 10
102.1582217346476
 20
67.721567463953946
 30
0.0
 11
102.1582217346476
 21
83.140010965163782
 31
0.0
  0
LINE
  5
A43
  8
0
 10
118.1582217346476
 20
67.721567463953946
 30
0.0
 11
118.1582217346476
 21
83.140010965163782
 31
0.0
  0
LINE
  5
A44
  8
2
 10
102.1582217346476
 20
69.430789214558914
 30
0.0
 11
118.1582217346476
 21
69.430789214558914
 31
0.0
  0
LINE
  5
A45
  8
2
 10
118.1582217346476
 20
81.430789214558857
 30
0.0
 11
102.1582217346476
 21
81.430789214558857
 31
0.0
  0
ARC
  5
A46
  8
0
 10
110.1582217346477
 20
75.430789214558644
 30
0.0
 40
11.10999999999974
 50
302.68731530322998
 51
316.06042580513139
  0
ARC
  5
A48
  8
0
 10
110.1582217346478
 20
75.43078921455907
 30
0.0
 40
11.11000000000028
 50
223.93957419486921
 51
237.31268469676931
  0
ARC
  5
A49
  8
0
 10
110.1582217346475
 20
75.430789214558871
 30
0.0
 40
11.109999999999969
 50
122.68731530322999
 51
136.06042580513079
  0
ARC
  5
A4B
  8
0
 10
110.1582217346475
 20
75.430789214558715
 30
0.0
 40
11.11000000000014
 50
43.939574194869166
 51
57.312684696769949
  0
LINE
  5
A56
  8
1
 10
110.1582217346475
 20
95.047124700025051
 30
0.0
 11
110.1582217346475
 21
18.814453729092751
 31
0.0
  0
LINE
  5
A57
  8
1
 10
99.541886249181303
 20
75.430789214558871
 30
0.0
 11
120.77455722011381
 21
75.430789214558871
 31
0.0
  0
LINE
  5
A5A
  8
0
 10
104.1582217346475
 20
91.336762935145686
 30
0.0
 11
104.1582217346476
 21
84.781302569450133
 31
0.0
  0
LINE
  5
A5B
  8
0
 10
116.1582217346477
 20
91.336762935145686
 30
0.0
 11
116.1582217346476
 21
84.781302569450119
 31
0.0
  0
LINE
  5
A5C
  8
0
 10
116.1582217346476
 20
66.080275859667594
 30
0.0
 11
116.1582217346476
 21
53.430789214558871
 31
0.0
  0
LINE
  5
A5D
  8
0
 10
104.1582217346476
 20
66.080275859667566
 30
0.0
 11
104.1582217346476
 21
53.430789214558857
 31
0.0
  0
LINE
  5
A66
  8
1
 10
20.147341059620139
 20
138.42421245911461
 30
0.0
 11
59.3800120305525
 21
138.42421245911461
 31
0.0
  0
LINE
  5
A67
  8
0
 10
23.85770282449942
 20
144.4242124591145
 30
0.0
 11
55.669650265673241
 21
144.4242124591145
 31
0.0
  0
LINE
  5
A68
  8
0
 10
55.669650265673233
 20
132.4242124591147
 30
0.0
 11
23.857702824499409
 21
132.4242124591147
 31
0.0
  0
LINE
  5
A6B
  8
1
 10
39.763676545086327
 20
149.04054794458079
 30
0.0
 11
39.763676545086327
 21
127.8078769736484
 31
0.0
  0
TEXT
  5
B42
  8
0
 62
     3
 10
0.0
 20
0.0
 30
0.0
 40
10.0
  1
REJ12-M12X54
  7
STANDARD1
  0
ENDSEC
  0
EOF
