  0
SECTION
  2
HEADER
  9
$ACADVER
  1
AC1009
  9
$INSBASE
 10
0.0
 20
0.0
 30
0.0
  9
$EXTMIN
 10
0.0
 20
-2.960436562073669
 30
0.0
  9
$EXTMAX
 10
109.4423772581502
 20
142.5748584902845
 30
0.0
  9
$LIMMIN
 10
0.0
 20
0.0
  9
$LIMMAX
 10
187.5
 20
135.0
  9
$ORTHOMODE
 70
     1
  9
$REGENMODE
 70
     1
  9
$FILLMODE
 70
     1
  9
$QTEXTMODE
 70
     0
  9
$MIRRTEXT
 70
     0
  9
$DRAGMODE
 70
     2
  9
$LTSCALE
 40
5.0
  9
$OSMODE
 70
    55
  9
$ATTMODE
 70
     1
  9
$TEXTSIZE
 40
0.06
  9
$TRACEWID
 40
0.05
  9
$TEXTSTYLE
  7
STANDARD
  9
$CLAYER
  8
0
  9
$CELTYPE
  6
BYLAYER
  9
$CECOLOR
 62
   256
  9
$DIMSCALE
 40
0.5
  9
$DIMASZ
 40
3.0
  9
$DIMEXO
 40
2.0
  9
$DIMDLI
 40
10.0
  9
$DIMRND
 40
0.0
  9
$DIMDLE
 40
0.0
  9
$DIMEXE
 40
2.0
  9
$DIMTP
 40
0.0
  9
$DIMTM
 40
0.0
  9
$DIMTXT
 40
3.0
  9
$DIMCEN
 40
0.0
  9
$DIMTSZ
 40
0.0
  9
$DIMTOL
 70
     0
  9
$DIMLIM
 70
     0
  9
$DIMTIH
 70
     0
  9
$DIMTOH
 70
     0
  9
$DIMSE1
 70
     0
  9
$DIMSE2
 70
     0
  9
$DIMTAD
 70
     1
  9
$DIMZIN
 70
     8
  9
$DIMBLK
  1

  9
$DIMASO
 70
     0
  9
$DIMSHO
 70
     0
  9
$DIMPOST
  1

  9
$DIMAPOST
  1

  9
$DIMALT
 70
     0
  9
$DIMALTD
 70
     2
  9
$DIMALTF
 40
25.399999999999999
  9
$DIMLFAC
 40
1.0
  9
$DIMTOFL
 70
     1
  9
$DIMTVP
 40
1.6000000000000001
  9
$DIMTIX
 70
     1
  9
$DIMSOXD
 70
     0
  9
$DIMSAH
 70
     0
  9
$DIMBLK1
  1

  9
$DIMBLK2
  1

  9
$DIMSTYLE
  2
STANDARD
  9
$DIMCLRD
 70
     0
  9
$DIMCLRE
 70
     0
  9
$DIMCLRT
 70
     0
  9
$DIMTFAC
 40
1.0
  9
$DIMGAP
 40
0.09
  9
$LUNITS
 70
     2
  9
$LUPREC
 70
     4
  9
$SKETCHINC
 40
0.1
  9
$FILLETRAD
 40
0.4
  9
$AUNITS
 70
     0
  9
$AUPREC
 70
     4
  9
$MENU
  1
E:\r13\win\SUPPORT\ACAD
  9
$ELEVATION
 40
0.0
  9
$PELEVATION
 40
0.0
  9
$THICKNESS
 40
0.0
  9
$LIMCHECK
 70
     0
  9
$BLIPMODE
 70
     0
  9
$CHAMFERA
 40
0.0
  9
$CHAMFERB
 40
0.0
  9
$SKPOLY
 70
     0
  9
$TDCREATE
 40
2449840.5914699072
  9
$TDUPDATE
 40
2456598.5925997002
  9
$TDINDWG
 40
0.1091150694
  9
$TDUSRTIMER
 40
0.1091150694
  9
$USRTIMER
 70
     1
  9
$ANGBASE
 50
0.0
  9
$ANGDIR
 70
     0
  9
$PDMODE
 70
     0
  9
$PDSIZE
 40
0.0
  9
$PLINEWID
 40
0.0
  9
$COORDS
 70
     1
  9
$SPLFRAME
 70
     0
  9
$SPLINETYPE
 70
     6
  9
$SPLINESEGS
 70
     8
  9
$ATTDIA
 70
     0
  9
$ATTREQ
 70
     1
  9
$HANDLING
 70
     1
  9
$HANDSEED
  5
B5F
  9
$SURFTAB1
 70
     6
  9
$SURFTAB2
 70
     6
  9
$SURFTYPE
 70
     6
  9
$SURFU
 70
     6
  9
$SURFV
 70
     6
  9
$UCSNAME
  2

  9
$UCSORG
 10
0.0
 20
0.0
 30
0.0
  9
$UCSXDIR
 10
1.0
 20
0.0
 30
0.0
  9
$UCSYDIR
 10
0.0
 20
1.0
 30
0.0
  9
$PUCSNAME
  2

  9
$PUCSORG
 10
0.0
 20
0.0
 30
0.0
  9
$PUCSXDIR
 10
1.0
 20
0.0
 30
0.0
  9
$PUCSYDIR
 10
0.0
 20
1.0
 30
0.0
  9
$USERI1
 70
     3
  9
$USERI2
 70
     1
  9
$USERI3
 70
     0
  9
$USERI4
 70
     0
  9
$USERI5
 70
     0
  9
$USERR1
 40
0.5
  9
$USERR2
 40
3.0
  9
$USERR3
 40
3.0
  9
$USERR4
 40
3.0
  9
$USERR5
 40
10.0
  9
$WORLDVIEW
 70
     1
  9
$SHADEDGE
 70
     3
  9
$SHADEDIF
 70
    70
  9
$TILEMODE
 70
     1
  9
$MAXACTVP
 70
    16
  9
$PLIMCHECK
 70
     0
  9
$PEXTMIN
 10
1.0000000000000000E+020
 20
1.0000000000000000E+020
 30
1.0000000000000000E+020
  9
$PEXTMAX
 10
-1.0000000000000000E+020
 20
-1.0000000000000000E+020
 30
-1.0000000000000000E+020
  9
$PLIMMIN
 10
0.0
 20
0.0
  9
$PLIMMAX
 10
12.0
 20
9.0
  9
$UNITMODE
 70
     0
  9
$VISRETAIN
 70
     0
  9
$PLINEGEN
 70
     0
  9
$PSLTSCALE
 70
     0
  0
ENDSEC
  0
SECTION
  2
TABLES
  0
TABLE
  2
VPORT
 70
     1
  0
VPORT
  2
*ACTIVE
 70
     0
 10
0.0
 20
0.0
 11
1.0
 21
1.0
 12
93.74713919532617
 22
102.4768426746985
 13
0.0
 23
0.0
 14
5.0
 24
5.0
 15
10.0
 25
10.0
 16
0.0
 26
0.0
 36
1.0
 17
0.0
 27
0.0
 37
0.0
 40
212.92011249068321
 41
1.7807262569832401
 42
50.0
 43
0.0
 44
0.0
 50
0.0
 51
0.0
 71
     0
 72
   100
 73
     1
 74
     0
 75
     0
 76
     0
 77
     0
 78
     0
  0
ENDTAB
  0
TABLE
  2
LTYPE
 70
     4
  0
LTYPE
  2
CONTINUOUS
 70
     0
  3
Solid Line
 72
    65
 73
     0
 40
0.0
  0
LTYPE
  2
CENTER
 70
     0
  3
____ _ ____ _ ____ _ ____ _ ____ _ ____ _ ____
 72
    65
 73
     4
 40
2.0
 49
1.25
 49
-0.25
 49
0.25
 49
-0.25
  0
LTYPE
  2
HIDDEN
 70
     0
  3
_ _ _ _ _ _ _ _ _ _ _ _ _ _ _ _ _ _ _ _ _ _ _
 72
    65
 73
     2
 40
0.375
 49
0.25
 49
-0.125
  0
LTYPE
  2
PHANTOM2
 70
     0
  3
___ _ _ ___ _ _ ___ _ _ ___ _ _
 72
    65
 73
     6
 40
1.25
 49
0.625
 49
-0.125
 49
0.125
 49
-0.125
 49
0.125
 49
-0.125
  0
ENDTAB
  0
TABLE
  2
LAYER
 70
     4
  0
LAYER
  2
0
 70
     0
 62
     7
  6
CONTINUOUS
  0
LAYER
  2
1
 70
     0
 62
     1
  6
CENTER
  0
LAYER
  2
2
 70
     0
 62
     2
  6
HIDDEN
  0
LAYER
  2
3
 70
     0
 62
     3
  6
CONTINUOUS
  0
ENDTAB
  0
TABLE
  2
STYLE
 70
     2
  0
STYLE
  2
STANDARD
 70
     0
 40
0.0
 41
1.0
 50
0.0
 71
     0
 42
0.06
  3
TXT
  4
BIGFONT
  0
STYLE
  2
STANDARD1
 70
     0
 40
0.0
 41
1.0
 50
0.0
 71
     0
 42
3.0
  3
txt
  4

  0
ENDTAB
  0
TABLE
  2
VIEW
 70
     2
  0
VIEW
  2
OLE1
 70
     0
 40
24.514257897662329
 10
44.901529473115893
 20
103.25177669290009
 41
34.172454060781448
 11
0.0
 21
0.0
 31
1.0
 12
0.0
 22
0.0
 32
0.0
 42
50.0
 43
0.0
 44
0.0
 50
0.0
 71
     0
  0
VIEW
  2
OLE2
 70
     0
 40
111.8251716252055
 10
23.153306359535989
 20
84.753742215946431
 41
155.8823667497492
 11
0.0
 21
0.0
 31
1.0
 12
0.0
 22
0.0
 32
0.0
 42
50.0
 43
0.0
 44
0.0
 50
0.0
 71
     0
  0
ENDTAB
  0
TABLE
  2
UCS
 70
     0
  0
ENDTAB
  0
TABLE
  2
APPID
 70
     3
  0
APPID
  2
ACAD
 70
     0
  0
APPID
  2
ACAD_MLEADERVER
 70
     0
  0
APPID
  2
ACAD_NAV_VCDISPLAY
 70
     0
  0
ENDTAB
  0
TABLE
  2
DIMSTYLE
 70
     1
  0
DIMSTYLE
  2
STANDARD
 70
     0
  3

  4

  5

  6

  7

 40
1.0
 41
0.18
 42
0.0625
 43
0.38
 44
0.18
 45
0.0
 46
0.0
 47
0.0
 48
0.0
140
0.18
141
0.09
142
0.0
143
25.399999999999999
144
1.0
145
0.0
146
1.0
147
0.09
 71
     0
 72
     0
 73
     1
 74
     1
 75
     0
 76
     0
 77
     0
 78
     0
170
     0
171
     2
172
     0
173
     0
174
     0
175
     0
176
     0
177
     0
178
     0
  0
ENDTAB
  0
ENDSEC
  0
SECTION
  2
BLOCKS
  0
BLOCK
  8
0
  2
$MODEL_SPACE
 70
     0
 10
0.0
 20
0.0
 30
0.0
  3
$MODEL_SPACE
  1

  0
ENDBLK
  5
E6
  8
0
  0
BLOCK
 67
     1
  8
0
  2
$PAPER_SPACE
 70
     0
 10
0.0
 20
0.0
 30
0.0
  3
$PAPER_SPACE
  1

  0
ENDBLK
  5
E4
 67
     1
  8
0
  0
ENDSEC
  0
SECTION
  2
ENTITIES
  0
ARC
  5
830
  8
0
 10
39.76367654508639
 20
132.95852300481829
 30
0.0
 40
9.5250000000000554
 50
132.7005456715701
 51
146.5519206866675
  0
ARC
  5
832
  8
0
 10
39.76367654508639
 20
132.9585230048184
 30
0.0
 40
9.5250000000000146
 50
213.4480793133325
 51
227.2994543284299
  0
ARC
  5
833
  8
0
 10
39.763676545086547
 20
132.9585230048182
 30
0.0
 40
9.5249999999997375
 50
312.70054567157013
 51
326.55192068666747
  0
ARC
  5
835
  8
0
 10
39.763676545086469
 20
132.9585230048184
 30
0.0
 40
9.5249999999998494
 50
33.448079313332478
 51
47.299454328429867
  0
LINE
  5
836
  8
2
 10
44.763676545086319
 20
125.9585230048184
 30
0.0
 11
44.763676545086319
 21
139.95852300481829
 31
0.0
  0
LINE
  5
837
  8
2
 10
34.763676545086327
 20
139.95852300481829
 30
0.0
 11
34.763676545086327
 21
125.9585230048184
 31
0.0
  0
LINE
  5
838
  8
0
 10
33.304139022941293
 20
125.9585230048184
 30
0.0
 11
46.223214067231389
 21
125.9585230048184
 31
0.0
  0
LINE
  5
839
  8
0
 10
46.223214067231389
 20
139.95852300481829
 30
0.0
 11
33.304139022941293
 21
139.95852300481829
 31
0.0
  0
ARC
  5
83D
  8
0
 10
39.763676545086327
 20
132.9585230048184
 30
0.0
 40
14.99999999999998
 50
159.51268488527759
 51
200.48731511472241
  0
ARC
  5
83E
  8
0
 10
39.763676545086348
 20
132.9585230048184
 30
0.0
 40
14.999999999999989
 50
339.51268488527762
 51
20.487315114722371
  0
LINE
  5
853
  8
1
 10
22.14734105962016
 20
75.430789214558871
 30
0.0
 11
57.380012030552543
 21
75.430789214558843
 31
0.0
  0
LINE
  5
854
  8
1
 10
39.763676545086327
 20
93.047124700025037
 30
0.0
 11
39.763676545086327
 21
24.814453729092449
 31
0.0
  0
LINE
  5
855
  8
0
 10
34.763676545086327
 20
55.430789214558871
 30
0.0
 11
35.37717654508635
 21
55.430789214558871
 31
0.0
  0
LINE
  5
857
  8
0
 10
44.763676545086319
 20
55.430789214558843
 30
0.0
 11
34.763676545086327
 21
55.430789214558871
 31
0.0
  0
LINE
  5
858
  8
0
 10
44.763676545086319
 20
55.430789214558843
 30
0.0
 11
44.150176545086332
 21
55.430789214558843
 31
0.0
  0
CIRCLE
  5
85A
  8
0
 10
39.763676545086348
 20
75.430789214558843
 30
0.0
 40
7.9475231990853601
  0
POLYLINE
  5
85B
  8
0
 66
     1
 10
0.0
 20
0.0
 30
0.0
  0
VERTEX
  5
ACD
  8
0
 10
51.250534384502153
 20
67.338224912864874
 30
0.0
  0
VERTEX
  5
ACE
  8
0
 10
49.846829567783509
 20
65.369145323474953
 30
0.0
  0
VERTEX
  5
ACF
  8
0
 10
47.643772617152393
 20
62.40508722355667
 30
0.0
  0
VERTEX
  5
AD0
  8
0
 10
45.972228697159011
 20
60.316780389461371
 30
0.0
  0
VERTEX
  5
AD1
  8
0
 10
45.271128041680427
 20
59.50230967510646
 30
0.0
  0
VERTEX
  5
AD2
  8
0
 10
44.637298913931453
 20
58.807164505896701
 30
0.0
  0
VERTEX
  5
AD3
  8
0
 10
43.966552412903347
 20
58.123048750778082
 30
0.0
  0
VERTEX
  5
AD4
  8
0
 10
43.786417602365212
 20
57.949688787180747
 30
0.0
  0
VERTEX
  5
AD5
  8
0
 10
43.610813196409367
 20
57.78533140617742
 30
0.0
  0
VERTEX
  5
AD6
  8
0
 10
43.524620053789413
 20
57.706404783435431
 30
0.0
  0
VERTEX
  5
AD7
  8
0
 10
43.439453979402259
 20
57.629583914737559
 30
0.0
  0
VERTEX
  5
AD8
  8
0
 10
43.272072459087639
 20
57.48208319438254
 30
0.0
  0
VERTEX
  5
AD9
  8
0
 10
43.108417298811418
 20
57.342493342598658
 30
0.0
  0
VERTEX
  5
ADA
  8
0
 10
42.948251900716762
 20
57.210503554782662
 30
0.0
  0
VERTEX
  5
ADB
  8
0
 10
42.791353122458048
 20
57.085826219806712
 30
0.0
  0
VERTEX
  5
ADC
  8
0
 10
42.637510112192857
 20
56.96819520576534
 30
0.0
  0
VERTEX
  5
ADD
  8
0
 10
42.561671726704958
 20
56.911944392816139
 30
0.0
  0
VERTEX
  5
ADE
  8
0
 10
42.486523248507069
 20
56.857364315451512
 30
0.0
  0
VERTEX
  5
ADF
  8
0
 10
42.338203173558298
 20
56.753105893682033
 30
0.0
  0
VERTEX
  5
AE0
  8
0
 10
42.192369909126221
 20
56.655209570814151
 30
0.0
  0
VERTEX
  5
AE1
  8
0
 10
42.048852046470067
 20
56.563481128721442
 30
0.0
  0
VERTEX
  5
AE2
  8
0
 10
41.907486001942203
 20
56.477741477169083
 30
0.0
  0
VERTEX
  5
AE3
  8
0
 10
41.768115331213323
 20
56.397825729985897
 30
0.0
  0
VERTEX
  5
AE4
  8
0
 10
41.699131167444413
 20
56.360003970723277
 30
0.0
  0
VERTEX
  5
AE5
  8
0
 10
41.630590095753028
 20
56.323582371704049
 30
0.0
  0
VERTEX
  5
AE6
  8
0
 10
41.494766275892367
 20
56.254872506452529
 30
0.0
  0
VERTEX
  5
AE7
  8
0
 10
41.360505225390597
 20
56.191569181871408
 30
0.0
  0
VERTEX
  5
AE8
  8
0
 10
41.227673162943681
 20
56.133556781678408
 30
0.0
  0
VERTEX
  5
AE9
  8
0
 10
41.096140696523491
 20
56.080730481284569
 30
0.0
  0
VERTEX
  5
AEA
  8
0
 10
40.965782376825842
 20
56.032995761535801
 30
0.0
  0
VERTEX
  5
AEB
  8
0
 10
40.90100529313974
 20
56.011010917595627
 30
0.0
  0
VERTEX
  5
AEC
  8
0
 10
40.836476276446511
 20
55.990267976263077
 30
0.0
  0
VERTEX
  5
AED
  8
0
 10
40.708103591697949
 20
55.95247196986756
 30
0.0
  0
VERTEX
  5
AEE
  8
0
 10
40.580548264233549
 20
55.919541741655898
 30
0.0
  0
VERTEX
  5
AEF
  8
0
 10
40.453696619866399
 20
55.891420154084763
 30
0.0
  0
VERTEX
  5
AF0
  8
0
 10
40.327437022155067
 20
55.868058682476317
 30
0.0
  0
VERTEX
  5
AF1
  8
0
 10
40.201659538488663
 20
55.849417204138831
 30
0.0
  0
VERTEX
  5
AF2
  8
0
 10
40.138917621568993
 20
55.841856178151261
 30
0.0
  0
VERTEX
  5
AF3
  8
0
 10
40.076255616535462
 20
55.835463825167892
 30
0.0
  0
VERTEX
  5
AF4
  8
0
 10
39.951117769028507
 20
55.826174743525257
 30
0.0
  0
VERTEX
  5
AF5
  8
0
 10
39.826139264947727
 20
55.821534147293697
 30
0.0
  0
VERTEX
  5
AF6
  8
0
 10
39.763676545086327
 20
55.820954257503843
 30
0.0
  0
VERTEX
  5
AF7
  8
0
 10
39.701213825224961
 20
55.821534147293697
 30
0.0
  0
VERTEX
  5
AF8
  8
0
 10
39.576235321144203
 20
55.826174743525257
 30
0.0
  0
VERTEX
  5
AF9
  8
0
 10
39.451097473637248
 20
55.835463825167892
 30
0.0
  0
VERTEX
  5
AFA
  8
0
 10
39.388435468603717
 20
55.841856178151261
 30
0.0
  0
VERTEX
  5
AFB
  8
0
 10
39.325693551684061
 20
55.849417204138831
 30
0.0
  0
VERTEX
  5
AFC
  8
0
 10
39.199916068017622
 20
55.868058682476317
 30
0.0
  0
VERTEX
  5
AFD
  8
0
 10
39.073656470306283
 20
55.891420154084763
 30
0.0
  0
VERTEX
  5
AFE
  8
0
 10
38.946804825939118
 20
55.919541741655898
 30
0.0
  0
VERTEX
  5
AFF
  8
0
 10
38.819249498474733
 20
55.95247196986756
 30
0.0
  0
VERTEX
  5
B00
  8
0
 10
38.69087681372617
 20
55.990267976263112
 30
0.0
  0
VERTEX
  5
B01
  8
0
 10
38.626347797032942
 20
56.011010917595662
 30
0.0
  0
VERTEX
  5
B02
  8
0
 10
38.561570713346867
 20
56.03299576153583
 30
0.0
  0
VERTEX
  5
B03
  8
0
 10
38.43121239364919
 20
56.080730481284597
 30
0.0
  0
VERTEX
  5
B04
  8
0
 10
38.299679927228993
 20
56.133556781678429
 30
0.0
  0
VERTEX
  5
B05
  8
0
 10
38.166847864782113
 20
56.191569181871436
 30
0.0
  0
VERTEX
  5
B06
  8
0
 10
38.032586814280307
 20
56.254872506452557
 30
0.0
  0
VERTEX
  5
B07
  8
0
 10
37.896762994419682
 20
56.32358237170407
 30
0.0
  0
VERTEX
  5
B08
  8
0
 10
37.828221922728261
 20
56.360003970723312
 30
0.0
  0
VERTEX
  5
B09
  8
0
 10
37.759237758959358
 20
56.397825729985918
 30
0.0
  0
VERTEX
  5
B0A
  8
0
 10
37.619867088230507
 20
56.477741477169097
 30
0.0
  0
VERTEX
  5
B0B
  8
0
 10
37.478501043702607
 20
56.563481128721463
 30
0.0
  0
VERTEX
  5
B0C
  8
0
 10
37.334983181046461
 20
56.655209570814179
 30
0.0
  0
VERTEX
  5
B0D
  8
0
 10
37.189149916614348
 20
56.753105893682061
 30
0.0
  0
VERTEX
  5
B0E
  8
0
 10
37.040829841665612
 20
56.857364315451548
 30
0.0
  0
VERTEX
  5
B0F
  8
0
 10
36.965681363467731
 20
56.91194439281616
 30
0.0
  0
VERTEX
  5
B10
  8
0
 10
36.889842977979839
 20
56.968195205765369
 30
0.0
  0
VERTEX
  5
B11
  8
0
 10
36.735999967714633
 20
57.085826219806727
 30
0.0
  0
VERTEX
  5
B12
  8
0
 10
36.579101189455912
 20
57.21050355478269
 30
0.0
  0
VERTEX
  5
B13
  8
0
 10
36.418935791361271
 20
57.342493342598679
 30
0.0
  0
VERTEX
  5
B14
  8
0
 10
36.255280631085043
 20
57.482083194382568
 30
0.0
  0
VERTEX
  5
B15
  8
0
 10
36.087899110770422
 20
57.629583914737587
 30
0.0
  0
VERTEX
  5
B16
  8
0
 10
36.002733036383262
 20
57.70640478343546
 30
0.0
  0
VERTEX
  5
B17
  8
0
 10
35.916539893763307
 20
57.785331406177448
 30
0.0
  0
VERTEX
  5
B18
  8
0
 10
35.740935487807469
 20
57.949688787180769
 30
0.0
  0
VERTEX
  5
B19
  8
0
 10
35.560800677269327
 20
58.123048750778111
 30
0.0
  0
VERTEX
  5
B1A
  8
0
 10
35.375830784356793
 20
58.30583619463993
 30
0.0
  0
VERTEX
  5
B1B
  8
0
 10
35.185699736267139
 20
58.498511158381632
 30
0.0
  0
VERTEX
  5
B1C
  8
0
 10
34.990057911641003
 20
58.701572109375377
 30
0.0
  0
VERTEX
  5
B1D
  8
0
 10
34.890054176241222
 20
58.807164505896729
 30
0.0
  0
VERTEX
  5
B1E
  8
0
 10
34.788529735504092
 20
58.915559624922111
 30
0.0
  0
VERTEX
  5
B1F
  8
0
 10
34.580710986921332
 20
59.141060526390639
 30
0.0
  0
VERTEX
  5
B20
  8
0
 10
34.366165777710762
 20
59.378712530118598
 30
0.0
  0
VERTEX
  5
B21
  8
0
 10
34.256225048492269
 20
59.502309675106481
 30
0.0
  0
VERTEX
  5
B22
  8
0
 10
33.555124393013671
 20
60.316780389461393
 30
0.0
  0
VERTEX
  5
B23
  8
0
 10
31.883580473020292
 20
62.405087223556698
 30
0.0
  0
VERTEX
  5
B24
  8
0
 10
29.680523522389169
 20
65.369145323474982
 30
0.0
  0
VERTEX
  5
B25
  8
0
 10
28.276818705670539
 20
67.338224912864916
 30
0.0
  0
SEQEND
  5
B26
  8
0
  0
ARC
  5
85C
  8
0
 10
39.763676545086348
 20
75.430789214558843
 30
0.0
 40
14.05124549639639
 50
324.8350612436293
 51
215.1649387563707
  0
LINE
  5
85E
  8
0
 10
51.250534384501748
 20
67.338224912863808
 30
0.0
 11
52.393419338308178
 21
67.338224912863751
 31
0.0
  0
LINE
  5
85F
  8
0
 10
28.276818705670941
 20
67.33822491286486
 30
0.0
 11
27.133933751864511
 21
67.338224912864916
 31
0.0
  0
LINE
  5
860
  8
0
 10
44.150176545086332
 20
27.430789214558651
 30
0.0
 11
35.377176545086307
 21
27.43078921455907
 31
0.0
  0
LINE
  5
861
  8
0
 10
44.763676545086319
 20
28.044289214558631
 30
0.0
 11
34.763676545086327
 21
28.044289214559122
 31
0.0
  0
ARC
  5
863
  8
0
 10
39.763676545086348
 20
75.430789214558843
 30
0.0
 40
15.0
 50
327.35010012621052
 51
212.6498998737909
  0
LINE
  5
864
  8
0
 10
34.763676545086327
 20
28.044289214558891
 30
0.0
 11
35.377176545086307
 21
27.430789214558871
 31
0.0
  0
LINE
  5
865
  8
0
 10
44.150176545086332
 20
27.43078921455885
 30
0.0
 11
44.763676545086319
 21
28.044289214558859
 31
0.0
  0
LINE
  5
866
  8
0
 10
34.763676545086327
 20
55.430789214558871
 30
0.0
 11
34.763676545086327
 21
28.044289214558891
 31
0.0
  0
LINE
  5
867
  8
0
 10
44.763676545086319
 20
28.044289214558859
 30
0.0
 11
44.763676545086319
 21
55.430789214558843
 31
0.0
  0
LINE
  5
868
  8
0
 10
27.133933751864479
 20
67.338224912864348
 30
0.0
 11
34.763676545086348
 21
55.430789214558871
 31
0.0
  0
LINE
  5
869
  8
0
 10
44.763676545086319
 20
55.430789214558843
 30
0.0
 11
52.393419338308178
 21
67.338224912864305
 31
0.0
  0
CIRCLE
  5
86C
  8
0
 10
39.763676545086348
 20
75.430789214558843
 30
0.0
 40
5.0
  0
CIRCLE
  5
86D
  8
0
 10
39.763676545086348
 20
75.430789214558843
 30
0.0
 40
6.459537522145065
  0
LINE
  5
871
  8
1
 10
99.826041772683965
 20
93.047124700025037
 30
0.0
 11
99.826041772683965
 21
24.814453729092449
 31
0.0
  0
LINE
  5
872
  8
0
 10
94.826041772683965
 20
55.430789214558857
 30
0.0
 11
95.439541772683938
 21
55.430789214558857
 31
0.0
  0
LINE
  5
874
  8
0
 10
104.82604177268389
 20
55.430789214558857
 30
0.0
 11
94.826041772683965
 21
55.430789214558857
 31
0.0
  0
LINE
  5
875
  8
0
 10
104.82604177268389
 20
55.430789214558857
 30
0.0
 11
104.21254177268391
 21
55.430789214558857
 31
0.0
  0
LINE
  5
877
  8
0
 10
105.07604177268389
 20
83.378312413644224
 30
0.0
 11
105.07604177268389
 21
67.48326601547349
 31
0.0
  0
LINE
  5
878
  8
0
 10
94.576041772683965
 20
83.378312413644224
 30
0.0
 11
94.576041772683965
 21
67.48326601547349
 31
0.0
  0
LINE
  5
880
  8
0
 10
104.21254177268391
 20
27.43078921455886
 30
0.0
 11
95.439541772683938
 21
27.43078921455886
 31
0.0
  0
LINE
  5
881
  8
0
 10
104.82604177268389
 20
28.044289214558852
 30
0.0
 11
94.826041772683965
 21
28.044289214558852
 31
0.0
  0
ARC
  5
882
  8
2
 10
99.826041772683993
 20
75.430789214558843
 30
0.0
 40
9.5249999999999932
 50
56.551920686666811
 51
123.4480793133331
  0
ARC
  5
883
  8
2
 10
99.826041772683993
 20
75.430789214558843
 30
0.0
 40
9.5249999999999932
 50
236.5519206866669
 51
303.44807931333321
  0
ARC
  5
884
  8
0
 10
99.826041772683993
 20
75.430789214558899
 30
0.0
 40
14.99999999999995
 50
69.512684885276826
 51
110.48731511472241
  0
LINE
  5
885
  8
0
 10
94.826041772683965
 20
28.044289214558852
 30
0.0
 11
95.439541772683938
 21
27.43078921455886
 31
0.0
  0
LINE
  5
886
  8
0
 10
104.21254177268391
 20
27.43078921455886
 30
0.0
 11
104.82604177268389
 21
28.044289214558852
 31
0.0
  0
LINE
  5
887
  8
0
 10
94.826041772683965
 20
55.430789214558857
 30
0.0
 11
94.826041772683965
 21
28.044289214558852
 31
0.0
  0
LINE
  5
888
  8
0
 10
104.82604177268389
 20
28.044289214558852
 30
0.0
 11
104.82604177268389
 21
55.430789214558857
 31
0.0
  0
LINE
  5
889
  8
0
 10
94.576041772683965
 20
55.820954257503828
 30
0.0
 11
94.826041772683965
 21
55.430789214558857
 31
0.0
  0
LINE
  5
88A
  8
0
 10
104.82604177268389
 20
55.430789214558857
 30
0.0
 11
105.07604177268389
 21
55.820954257503828
 31
0.0
  0
LINE
  5
88B
  8
1
 10
90.209706287217756
 20
75.430789214558843
 30
0.0
 11
109.4423772581502
 21
75.430789214558871
 31
0.0
  0
LINE
  5
88E
  8
0
 10
92.826041772683965
 20
68.971251692413787
 30
0.0
 11
92.826041772683965
 21
81.890326736703926
 31
0.0
  0
LINE
  5
88F
  8
0
 10
106.82604177268389
 20
68.971251692413787
 30
0.0
 11
106.82604177268389
 21
81.890326736703926
 31
0.0
  0
LINE
  5
890
  8
2
 10
92.826041772683965
 20
70.430789214558857
 30
0.0
 11
106.82604177268389
 21
70.430789214558857
 31
0.0
  0
LINE
  5
891
  8
2
 10
106.82604177268389
 20
80.430789214558857
 30
0.0
 11
92.826041772683965
 21
80.430789214558857
 31
0.0
  0
ARC
  5
892
  8
0
 10
99.826041772684064
 20
75.430789214558715
 30
0.0
 40
9.5249999999998671
 50
303.44807931333321
 51
317.2994543284305
  0
ARC
  5
894
  8
0
 10
99.826041772684064
 20
75.430789214558928
 30
0.0
 40
9.5250000000001052
 50
222.70054567157069
 51
236.5519206866669
  0
ARC
  5
895
  8
0
 10
99.826041772684022
 20
75.430789214558786
 30
0.0
 40
9.5250000000000714
 50
123.4480793133331
 51
137.29945432842931
  0
ARC
  5
897
  8
0
 10
99.826041772684064
 20
75.430789214558899
 30
0.0
 40
9.5249999999999204
 50
42.700545671569479
 51
56.551920686666811
  0
LINE
  5
926
  8
0
 10
94.576041772684064
 20
89.482034710955276
 30
0.0
 11
94.576041772683965
 21
83.378312413644224
 31
0.0
  0
LINE
  5
927
  8
0
 10
105.07604177268411
 20
89.482034710955205
 30
0.0
 11
105.07604177268389
 21
83.378312413644224
 31
0.0
  0
LINE
  5
928
  8
0
 10
94.576041772683965
 20
67.483266015473504
 30
0.0
 11
94.576041772683965
 21
55.820954257503828
 31
0.0
  0
LINE
  5
929
  8
0
 10
105.07604177268389
 20
67.483266015473475
 30
0.0
 11
105.07604177268389
 21
55.820954257503828
 31
0.0
  0
LINE
  5
932
  8
0
 10
25.712431048689918
 20
138.20852300481829
 30
0.0
 11
53.81492204148276
 21
138.20852300481829
 31
0.0
  0
LINE
  5
933
  8
0
 10
25.70825764643175
 20
127.7085230048184
 30
0.0
 11
53.810748639224578
 21
127.7085230048184
 31
0.0
  0
LINE
  5
93D
  8
1
 10
22.147341059620128
 20
132.9585230048184
 30
0.0
 11
57.380012030552507
 21
132.9585230048184
 31
0.0
  0
LINE
  5
93F
  8
1
 10
39.763676545086327
 20
142.5748584902845
 30
0.0
 11
39.763676545086327
 21
123.34218751935219
 31
0.0
  0
LINE
  5
98C
  8
3
 10
95.593041772683975
 20
27.43078921455886
 30
0.0
 11
95.593041772683975
 21
55.430789214558857
 31
0.0
  0
LINE
  5
98F
  8
3
 10
104.0590417726839
 20
27.43078921455886
 30
0.0
 11
104.0590417726839
 21
55.430789214558857
 31
0.0
  0
LINE
  5
9BA
  8
3
 10
43.996676545086324
 20
27.43078921455886
 30
0.0
 11
43.996676545086324
 21
55.430789214558857
 31
0.0
  0
LINE
  5
9BB
  8
3
 10
35.530676545086337
 20
27.43078921455886
 30
0.0
 11
35.530676545086337
 21
55.430789214558857
 31
0.0
  0
TEXT
  5
A6A
  8
0
 62
     3
 10
0.0
 20
0.0
 30
0.0
 40
10.0
  1
REJ10-M10FX48
  7
STANDARD1
  0
ENDSEC
  0
EOF
