  0
SECTION
  2
HEADER
  9
$ACADVER
  1
AC1009
  9
$INSBASE
 10
0.0
 20
0.0
 30
0.0
  9
$EXTMIN
 10
0.0
 20
-2.960436562073669
 30
0.0
  9
$EXTMAX
 10
98.615279672578453
 20
111.2103390241645
 30
0.0
  9
$LIMMIN
 10
0.0
 20
0.0
  9
$LIMMAX
 10
187.5
 20
135.0
  9
$ORTHOMODE
 70
     1
  9
$REGENMODE
 70
     1
  9
$FILLMODE
 70
     1
  9
$QTEXTMODE
 70
     0
  9
$MIRRTEXT
 70
     0
  9
$DRAGMODE
 70
     2
  9
$LTSCALE
 40
5.0
  9
$OSMODE
 70
    55
  9
$ATTMODE
 70
     1
  9
$TEXTSIZE
 40
0.06
  9
$TRACEWID
 40
0.05
  9
$TEXTSTYLE
  7
STANDARD
  9
$CLAYER
  8
0
  9
$CELTYPE
  6
BYLAYER
  9
$CECOLOR
 62
   256
  9
$DIMSCALE
 40
0.5
  9
$DIMASZ
 40
3.0
  9
$DIMEXO
 40
2.0
  9
$DIMDLI
 40
10.0
  9
$DIMRND
 40
0.0
  9
$DIMDLE
 40
0.0
  9
$DIMEXE
 40
2.0
  9
$DIMTP
 40
0.0
  9
$DIMTM
 40
0.0
  9
$DIMTXT
 40
3.0
  9
$DIMCEN
 40
0.0
  9
$DIMTSZ
 40
0.0
  9
$DIMTOL
 70
     0
  9
$DIMLIM
 70
     0
  9
$DIMTIH
 70
     0
  9
$DIMTOH
 70
     0
  9
$DIMSE1
 70
     0
  9
$DIMSE2
 70
     0
  9
$DIMTAD
 70
     1
  9
$DIMZIN
 70
     8
  9
$DIMBLK
  1

  9
$DIMASO
 70
     0
  9
$DIMSHO
 70
     0
  9
$DIMPOST
  1

  9
$DIMAPOST
  1

  9
$DIMALT
 70
     0
  9
$DIMALTD
 70
     2
  9
$DIMALTF
 40
25.399999999999999
  9
$DIMLFAC
 40
1.0
  9
$DIMTOFL
 70
     1
  9
$DIMTVP
 40
1.6000000000000001
  9
$DIMTIX
 70
     1
  9
$DIMSOXD
 70
     0
  9
$DIMSAH
 70
     0
  9
$DIMBLK1
  1

  9
$DIMBLK2
  1

  9
$DIMSTYLE
  2
STANDARD
  9
$DIMCLRD
 70
     0
  9
$DIMCLRE
 70
     0
  9
$DIMCLRT
 70
     0
  9
$DIMTFAC
 40
1.0
  9
$DIMGAP
 40
0.09
  9
$LUNITS
 70
     2
  9
$LUPREC
 70
     4
  9
$SKETCHINC
 40
0.1
  9
$FILLETRAD
 40
0.4
  9
$AUNITS
 70
     0
  9
$AUPREC
 70
     4
  9
$MENU
  1
E:\r13\win\SUPPORT\ACAD
  9
$ELEVATION
 40
0.0
  9
$PELEVATION
 40
0.0
  9
$THICKNESS
 40
0.0
  9
$LIMCHECK
 70
     0
  9
$BLIPMODE
 70
     0
  9
$CHAMFERA
 40
0.0
  9
$CHAMFERB
 40
0.0
  9
$SKPOLY
 70
     0
  9
$TDCREATE
 40
2449840.5914699072
  9
$TDUPDATE
 40
2456598.5924940738
  9
$TDINDWG
 40
0.13567
  9
$TDUSRTIMER
 40
0.13567
  9
$USRTIMER
 70
     1
  9
$ANGBASE
 50
0.0
  9
$ANGDIR
 70
     0
  9
$PDMODE
 70
     0
  9
$PDSIZE
 40
0.0
  9
$PLINEWID
 40
0.0
  9
$COORDS
 70
     1
  9
$SPLFRAME
 70
     0
  9
$SPLINETYPE
 70
     6
  9
$SPLINESEGS
 70
     8
  9
$ATTDIA
 70
     0
  9
$ATTREQ
 70
     1
  9
$HANDLING
 70
     1
  9
$HANDSEED
  5
BE9
  9
$SURFTAB1
 70
     6
  9
$SURFTAB2
 70
     6
  9
$SURFTYPE
 70
     6
  9
$SURFU
 70
     6
  9
$SURFV
 70
     6
  9
$UCSNAME
  2

  9
$UCSORG
 10
0.0
 20
0.0
 30
0.0
  9
$UCSXDIR
 10
1.0
 20
0.0
 30
0.0
  9
$UCSYDIR
 10
0.0
 20
1.0
 30
0.0
  9
$PUCSNAME
  2

  9
$PUCSORG
 10
0.0
 20
0.0
 30
0.0
  9
$PUCSXDIR
 10
1.0
 20
0.0
 30
0.0
  9
$PUCSYDIR
 10
0.0
 20
1.0
 30
0.0
  9
$USERI1
 70
     3
  9
$USERI2
 70
     1
  9
$USERI3
 70
     0
  9
$USERI4
 70
     0
  9
$USERI5
 70
     0
  9
$USERR1
 40
0.5
  9
$USERR2
 40
3.0
  9
$USERR3
 40
3.0
  9
$USERR4
 40
3.0
  9
$USERR5
 40
10.0
  9
$WORLDVIEW
 70
     1
  9
$SHADEDGE
 70
     3
  9
$SHADEDIF
 70
    70
  9
$TILEMODE
 70
     1
  9
$MAXACTVP
 70
    16
  9
$PLIMCHECK
 70
     0
  9
$PEXTMIN
 10
1.0000000000000000E+020
 20
1.0000000000000000E+020
 30
1.0000000000000000E+020
  9
$PEXTMAX
 10
-1.0000000000000000E+020
 20
-1.0000000000000000E+020
 30
-1.0000000000000000E+020
  9
$PLIMMIN
 10
0.0
 20
0.0
  9
$PLIMMAX
 10
12.0
 20
9.0
  9
$UNITMODE
 70
     0
  9
$VISRETAIN
 70
     0
  9
$PLINEGEN
 70
     0
  9
$PSLTSCALE
 70
     0
  0
ENDSEC
  0
SECTION
  2
TABLES
  0
TABLE
  2
VPORT
 70
     1
  0
VPORT
  2
*ACTIVE
 70
     0
 10
0.0
 20
0.0
 11
1.0
 21
1.0
 12
93.747139195326156
 22
96.983959220318994
 13
0.0
 23
0.0
 14
5.0
 24
5.0
 15
10.0
 25
10.0
 16
0.0
 26
0.0
 36
1.0
 17
0.0
 27
0.0
 37
0.0
 40
201.84293963319561
 41
1.7807262569832401
 42
50.0
 43
0.0
 44
0.0
 50
0.0
 51
0.0
 71
     0
 72
   100
 73
     1
 74
     0
 75
     0
 76
     0
 77
     0
 78
     0
  0
ENDTAB
  0
TABLE
  2
LTYPE
 70
     4
  0
LTYPE
  2
CONTINUOUS
 70
     0
  3
Solid Line
 72
    65
 73
     0
 40
0.0
  0
LTYPE
  2
CENTER
 70
     0
  3
____ _ ____ _ ____ _ ____ _ ____ _ ____ _ ____
 72
    65
 73
     4
 40
2.0
 49
1.25
 49
-0.25
 49
0.25
 49
-0.25
  0
LTYPE
  2
HIDDEN
 70
     0
  3
_ _ _ _ _ _ _ _ _ _ _ _ _ _ _ _ _ _ _ _ _ _ _
 72
    65
 73
     2
 40
0.375
 49
0.25
 49
-0.125
  0
LTYPE
  2
PHANTOM2
 70
     0
  3
___ _ _ ___ _ _ ___ _ _ ___ _ _
 72
    65
 73
     6
 40
1.25
 49
0.625
 49
-0.125
 49
0.125
 49
-0.125
 49
0.125
 49
-0.125
  0
ENDTAB
  0
TABLE
  2
LAYER
 70
     4
  0
LAYER
  2
0
 70
     0
 62
     7
  6
CONTINUOUS
  0
LAYER
  2
1
 70
     0
 62
     1
  6
CENTER
  0
LAYER
  2
2
 70
     0
 62
     2
  6
HIDDEN
  0
LAYER
  2
3
 70
     0
 62
     3
  6
CONTINUOUS
  0
ENDTAB
  0
TABLE
  2
STYLE
 70
     2
  0
STYLE
  2
STANDARD
 70
     0
 40
0.0
 41
1.0
 50
0.0
 71
     0
 42
0.06
  3
TXT
  4
BIGFONT
  0
STYLE
  2
STANDARD1
 70
     0
 40
0.0
 41
1.0
 50
0.0
 71
     0
 42
3.0
  3
txt
  4

  0
ENDTAB
  0
TABLE
  2
VIEW
 70
     2
  0
VIEW
  2
OLE1
 70
     0
 40
24.514257897662329
 10
44.901529473115893
 20
103.25177669290009
 41
34.172454060781448
 11
0.0
 21
0.0
 31
1.0
 12
0.0
 22
0.0
 32
0.0
 42
50.0
 43
0.0
 44
0.0
 50
0.0
 71
     0
  0
VIEW
  2
OLE2
 70
     0
 40
111.8251716252055
 10
23.153306359535989
 20
84.753742215946431
 41
155.8823667497492
 11
0.0
 21
0.0
 31
1.0
 12
0.0
 22
0.0
 32
0.0
 42
50.0
 43
0.0
 44
0.0
 50
0.0
 71
     0
  0
ENDTAB
  0
TABLE
  2
UCS
 70
     0
  0
ENDTAB
  0
TABLE
  2
APPID
 70
     3
  0
APPID
  2
ACAD
 70
     0
  0
APPID
  2
ACAD_MLEADERVER
 70
     0
  0
APPID
  2
ACAD_NAV_VCDISPLAY
 70
     0
  0
ENDTAB
  0
TABLE
  2
DIMSTYLE
 70
     1
  0
DIMSTYLE
  2
STANDARD
 70
     0
  3

  4

  5

  6

  7

 40
1.0
 41
0.18
 42
0.0625
 43
0.38
 44
0.18
 45
0.0
 46
0.0
 47
0.0
 48
0.0
140
0.18
141
0.09
142
0.0
143
25.399999999999999
144
1.0
145
0.0
146
1.0
147
0.09
 71
     0
 72
     0
 73
     1
 74
     1
 75
     0
 76
     0
 77
     0
 78
     0
170
     0
171
     2
172
     0
173
     0
174
     0
175
     0
176
     0
177
     0
178
     0
  0
ENDTAB
  0
ENDSEC
  0
SECTION
  2
BLOCKS
  0
BLOCK
  8
0
  2
$MODEL_SPACE
 70
     0
 10
0.0
 20
0.0
 30
0.0
  3
$MODEL_SPACE
  1

  0
ENDBLK
  5
E6
  8
0
  0
BLOCK
 67
     1
  8
0
  2
$PAPER_SPACE
 70
     0
 10
0.0
 20
0.0
 30
0.0
  3
$PAPER_SPACE
  1

  0
ENDBLK
  5
E4
 67
     1
  8
0
  0
ENDSEC
  0
SECTION
  2
ENTITIES
  0
ARC
  5
83C
  8
0
 10
39.763676545086518
 20
102.5940035386981
 30
0.0
 40
7.9350000000002563
 50
130.87459852168629
 51
145.45121434666629
  0
ARC
  5
83E
  8
0
 10
39.763676545086263
 20
102.5940035386982
 30
0.0
 40
7.934999999999933
 50
214.54878565333291
 51
229.12540147831359
  0
ARC
  5
83F
  8
0
 10
39.763676545086341
 20
102.5940035386983
 30
0.0
 40
7.9349999999999703
 50
310.87459852168632
 51
325.45121434666697
  0
ARC
  5
841
  8
0
 10
39.763676545086319
 20
102.5940035386983
 30
0.0
 40
7.9349999999999801
 50
34.548785653332963
 51
49.125401478313613
  0
LINE
  5
842
  8
2
 10
43.763676545086291
 20
96.594003538698317
 30
0.0
 11
43.763676545086298
 21
108.5940035386983
 31
0.0
  0
LINE
  5
843
  8
2
 10
35.763676545086312
 20
108.5940035386983
 30
0.0
 11
35.763676545086291
 21
96.594003538698317
 31
0.0
  0
LINE
  5
844
  8
0
 10
34.570967714427688
 20
96.594003538698317
 30
0.0
 11
44.956385375744922
 21
96.594003538698317
 31
0.0
  0
LINE
  5
845
  8
0
 10
44.956385375744922
 20
108.5940035386983
 30
0.0
 11
34.570967714427688
 21
108.5940035386983
 31
0.0
  0
ARC
  5
849
  8
0
 10
39.763676545086291
 20
102.5940035386983
 30
0.0
 40
11.999999999999989
 50
157.97568716295791
 51
202.02431283704209
  0
ARC
  5
84A
  8
0
 10
39.763676545086319
 20
102.5940035386983
 30
0.0
 40
11.999999999999989
 50
337.97568716295791
 51
22.02431283704205
  0
LINE
  5
87E
  8
0
 10
85.571204480232012
 20
43.495166527164038
 30
0.0
 11
86.184704480232014
 21
43.495166527164038
 31
0.0
  0
LINE
  5
87F
  8
3
 10
86.184704480232014
 20
18.495166527164042
 30
0.0
 11
86.184704480232014
 21
43.495166527164038
 31
0.0
  0
LINE
  5
880
  8
0
 10
93.571204480231998
 20
43.495166527164038
 30
0.0
 11
85.571204480232012
 21
43.495166527164038
 31
0.0
  0
LINE
  5
881
  8
0
 10
93.571204480231998
 20
43.495166527164038
 30
0.0
 11
92.957704480231996
 21
43.495166527164038
 31
0.0
  0
LINE
  5
882
  8
3
 10
92.957704480231996
 20
18.495166527164042
 30
0.0
 11
92.957704480231996
 21
43.495166527164038
 31
0.0
  0
LINE
  5
883
  8
0
 10
94.071204480232012
 20
68.030778587254559
 30
0.0
 11
94.071204480232012
 21
54.959554467073609
 31
0.0
  0
LINE
  5
884
  8
0
 10
85.071204480232012
 20
68.030778587254559
 30
0.0
 11
85.071204480232012
 21
54.959554467073609
 31
0.0
  0
LINE
  5
88C
  8
0
 10
92.957704480231996
 20
18.495166527164042
 30
0.0
 11
86.184704480232014
 21
18.495166527164042
 31
0.0
  0
LINE
  5
88D
  8
0
 10
93.571204480231998
 20
19.108666527164029
 30
0.0
 11
85.571204480232012
 21
19.108666527164029
 31
0.0
  0
ARC
  5
88E
  8
2
 10
89.571204480232041
 20
61.495166527164081
 30
0.0
 40
7.9349999999999961
 50
55.451214346667008
 51
124.5487856533329
  0
ARC
  5
88F
  8
2
 10
89.571204480232041
 20
61.495166527164081
 30
0.0
 40
7.9349999999999961
 50
235.45121434666709
 51
304.54878565333303
  0
ARC
  5
890
  8
0
 10
89.571204480232041
 20
61.495166527164038
 30
0.0
 40
11.999999999999989
 50
67.975687162957911
 51
112.024312837042
  0
LINE
  5
891
  8
0
 10
85.571204480232012
 20
19.108666527164029
 30
0.0
 11
86.184704480232014
 21
18.495166527164042
 31
0.0
  0
LINE
  5
892
  8
0
 10
92.957704480231996
 20
18.495166527164042
 30
0.0
 11
93.571204480231998
 21
19.108666527164029
 31
0.0
  0
LINE
  5
893
  8
0
 10
85.571204480232012
 20
43.495166527164038
 30
0.0
 11
85.571204480232012
 21
19.108666527164029
 31
0.0
  0
LINE
  5
894
  8
0
 10
93.571204480231998
 20
19.108666527164029
 30
0.0
 11
93.571204480231998
 21
43.495166527164038
 31
0.0
  0
LINE
  5
895
  8
0
 10
85.071204480232012
 20
44.355568599372631
 30
0.0
 11
85.571204480232012
 21
43.495166527164038
 31
0.0
  0
LINE
  5
896
  8
0
 10
93.571204480231998
 20
43.495166527164038
 30
0.0
 11
94.071204480232012
 21
44.355568599372631
 31
0.0
  0
LINE
  5
89A
  8
0
 10
83.571204480231998
 20
56.302457696505478
 30
0.0
 11
83.571204480231998
 21
66.687875357822705
 31
0.0
  0
LINE
  5
89B
  8
0
 10
95.571204480232012
 20
56.302457696505478
 30
0.0
 11
95.571204480232012
 21
66.687875357822705
 31
0.0
  0
LINE
  5
89C
  8
2
 10
83.571204480231998
 20
57.495166527164081
 30
0.0
 11
95.571204480232012
 21
57.495166527164081
 31
0.0
  0
LINE
  5
89D
  8
2
 10
95.571204480232012
 20
65.495166527164088
 30
0.0
 11
83.571204480231998
 21
65.495166527164088
 31
0.0
  0
ARC
  5
89E
  8
0
 10
89.571204480232026
 20
61.495166527164102
 30
0.0
 40
7.9350000000000351
 50
304.54878565333303
 51
319.12540147831362
  0
ARC
  5
89F
  8
2
 10
89.571204480232041
 20
61.495166527164081
 30
0.0
 40
7.9349999999999987
 50
235.45121434666709
 51
304.54878565333303
  0
ARC
  5
8A0
  8
0
 10
89.571204480232026
 20
61.495166527164052
 30
0.0
 40
7.9349999999999596
 50
220.87459852168641
 51
235.45121434666709
  0
ARC
  5
8A1
  8
0
 10
89.571204480231955
 20
61.495166527164173
 30
0.0
 40
7.934999999999885
 50
124.5487856533329
 51
139.12540147831359
  0
ARC
  5
8A2
  8
2
 10
89.571204480232041
 20
61.495166527164081
 30
0.0
 40
7.9349999999999961
 50
55.451214346667008
 51
124.5487856533329
  0
ARC
  5
8A3
  8
0
 10
89.571204480232026
 20
61.495166527164052
 30
0.0
 40
7.9350000000000289
 50
40.874598521686359
 51
55.451214346667008
  0
LINE
  5
8AE
  8
0
 10
85.071204480232055
 20
72.61946425780755
 30
0.0
 11
85.071204480232012
 21
67.030778587254531
 31
0.0
  0
LINE
  5
8AF
  8
0
 10
94.071204480232055
 20
72.619464257807536
 30
0.0
 11
94.071204480232055
 21
67.030778587254503
 31
0.0
  0
LINE
  5
8B0
  8
0
 10
94.071204480232055
 20
53.95955446707358
 30
0.0
 11
94.071204480232012
 21
44.355568599372631
 31
0.0
  0
LINE
  5
8B1
  8
0
 10
85.071204480232012
 20
44.355568599372631
 30
0.0
 11
85.071204480231984
 21
53.959554467073602
 31
0.0
  0
LINE
  5
8BA
  8
1
 10
80.954868994765874
 20
61.495166527164073
 30
0.0
 11
98.187539965698264
 21
61.495166527164073
 31
0.0
  0
LINE
  5
8BB
  8
1
 10
89.571204480232041
 20
75.111502012630254
 30
0.0
 11
89.571204480232154
 21
15.878831041697831
 31
0.0
  0
LINE
  5
8BE
  8
0
 10
28.6393788144428
 20
107.0940035386983
 30
0.0
 11
50.88797427572981
 21
107.0940035386983
 31
0.0
  0
LINE
  5
8BF
  8
0
 10
50.88797427572981
 20
98.094003538698331
 30
0.0
 11
28.6393788144428
 21
98.094003538698345
 31
0.0
  0
LINE
  5
8CA
  8
1
 10
25.147341059620128
 20
102.5940035386983
 30
0.0
 11
54.38001203055255
 21
102.5940035386983
 31
0.0
  0
LINE
  5
8CB
  8
1
 10
39.763676545086348
 20
111.2103390241645
 30
0.0
 11
39.763676545086383
 21
93.977668053232179
 31
0.0
  0
ARC
  5
A79
  8
0
 10
39.763676545086383
 20
61.495166527227227
 30
0.0
 40
12.0
 50
331.92751306414721
 51
90.0
  0
ARC
  5
A7A
  8
0
 10
39.763676545086383
 20
61.495166527227227
 30
0.0
 40
12.0
 50
90.0
 51
208.07248693585291
  0
LINE
  5
A7B
  8
0
 10
29.17544125096871
 20
55.848107703697863
 30
0.0
 11
35.763676545086383
 21
43.495166527227227
 31
0.0
  0
LINE
  5
A7C
  8
0
 10
43.763676545086369
 20
43.495166527227227
 30
0.0
 11
50.351911839204007
 21
55.848107703697842
 31
0.0
  0
LINE
  5
A7D
  8
0
 10
43.763676545086369
 20
19.108666527227228
 30
0.0
 11
43.763676545086369
 21
43.495166527227227
 31
0.0
  0
LINE
  5
A7E
  8
0
 10
35.763676545086383
 20
43.495166527227227
 30
0.0
 11
35.763676545086362
 21
19.108666527227239
 31
0.0
  0
LINE
  5
A7F
  8
0
 10
35.763676545046728
 20
19.108666527227239
 30
0.0
 11
36.377176545109947
 21
18.495166527164042
 31
0.0
  0
LINE
  5
A80
  8
0
 10
43.150176545062799
 20
18.495166527164042
 30
0.0
 11
43.763676545125989
 21
19.108666527227228
 31
0.0
  0
CIRCLE
  5
A81
  8
0
 10
39.763694849005923
 20
61.495001796247159
 30
0.0
 40
5.1925440997108181
  0
CIRCLE
  5
A82
  8
0
 10
39.763676545086383
 20
61.495166527227248
 30
0.0
 40
3.9999999999999849
  0
ARC
  5
A83
  8
0
 10
39.763676545086383
 20
61.494852591365131
 30
0.0
 40
11.124138369779271
 50
329.49511063611942
 51
210.50488936388061
  0
CIRCLE
  5
A84
  8
0
 10
39.76477210820449
 20
61.495373581225728
 30
0.0
 40
6.5354050979193801
  0
POLYLINE
  5
A85
  8
0
 66
     1
 10
0.0
 20
0.0
 30
0.0
 70
   128
  0
VERTEX
  5
BCD
  8
0
 10
49.348076716385499
 20
55.848107703697842
 30
0.0
  0
VERTEX
  5
BCE
  8
0
 10
47.691657187697992
 20
53.084669407103682
 30
0.0
  0
VERTEX
  5
BCF
  8
0
 10
45.966675322648527
 20
50.36397965929195
 30
0.0
  0
VERTEX
  5
BD0
  8
0
 10
45.249016153601552
 20
49.278542047241061
 30
0.0
  0
VERTEX
  5
BD1
  8
0
 10
44.505523799902043
 20
48.203484618586501
 30
0.0
  0
VERTEX
  5
BD2
  8
0
 10
43.713799478304857
 20
47.167951772859979
 30
0.0
  0
VERTEX
  5
BD3
  8
0
 10
42.85144440556477
 20
46.201087909593291
 30
0.0
  0
VERTEX
  5
BD4
  8
0
 10
41.896059798436603
 20
45.332037428318209
 30
0.0
  0
VERTEX
  5
BD5
  8
0
 10
41.42420151828653
 20
44.988563622801067
 30
0.0
  0
VERTEX
  5
BD6
  8
0
 10
40.915367684533742
 20
44.704615695509709
 30
0.0
  0
VERTEX
  5
BD7
  8
0
 10
40.48326561587821
 20
44.54028635559775
 30
0.0
  0
VERTEX
  5
BD8
  8
0
 10
40.031118932578138
 20
44.44755452364867
 30
0.0
  0
VERTEX
  5
BD9
  8
0
 10
39.56575104752266
 20
44.44169366732946
 30
0.0
  0
VERTEX
  5
BDA
  8
0
 10
39.10701677847711
 20
44.522027083950832
 30
0.0
  0
VERTEX
  5
BDB
  8
0
 10
38.58266838520219
 20
44.718562449283432
 30
0.0
  0
VERTEX
  5
BDC
  8
0
 10
38.09399916963693
 20
44.99474123164881
 30
0.0
  0
VERTEX
  5
BDD
  8
0
 10
37.329225651141897
 20
45.582415943222642
 30
0.0
  0
VERTEX
  5
BDE
  8
0
 10
36.638035709044701
 20
46.262935727715387
 30
0.0
  0
VERTEX
  5
BDF
  8
0
 10
36.000791624547666
 20
46.993812152778958
 30
0.0
  0
VERTEX
  5
BE0
  8
0
 10
34.390658809446329
 20
49.095186049180199
 30
0.0
  0
VERTEX
  5
BE1
  8
0
 10
32.915615105592529
 20
51.298269853792533
 30
0.0
  0
VERTEX
  5
BE2
  8
0
 10
31.527780848526191
 20
53.562698695627802
 30
0.0
  0
VERTEX
  5
BE3
  8
0
 10
30.17927637378726
 20
55.848107703697842
 30
0.0
  0
SEQEND
  5
BE4
  8
0
  0
LINE
  5
A86
  8
0
 10
35.763676545086383
 20
43.495166527227227
 30
0.0
 11
43.763676545086369
 21
43.495166527227227
 31
0.0
  0
LINE
  5
A87
  8
0
 10
35.763676545086362
 20
19.108666527227239
 30
0.0
 11
43.763676545086369
 21
19.108666527227228
 31
0.0
  0
LINE
  5
A88
  8
0
 10
39.763676545086383
 20
18.495166527164042
 30
0.0
 11
43.150176545062799
 21
18.495166527164042
 31
0.0
  0
LINE
  5
A89
  8
0
 10
36.377176545109947
 20
18.495166527164042
 30
0.0
 11
39.763676545086383
 21
18.495166527164042
 31
0.0
  0
LINE
  5
A8A
  8
0
 10
50.351911839204007
 20
55.848107703697842
 30
0.0
 11
49.348076716385499
 21
55.848107703697842
 31
0.0
  0
LINE
  5
A8B
  8
0
 10
30.179276373787239
 20
55.848107703697842
 30
0.0
 11
29.17544125096871
 21
55.848107703697863
 31
0.0
  0
LINE
  5
ACF
  8
1
 10
39.76367654508639
 20
75.111502012630254
 30
0.0
 11
39.763676545086497
 21
15.878831041697831
 31
0.0
  0
LINE
  5
AD0
  8
3
 10
36.377176545086378
 20
18.49516652716407
 30
0.0
 11
36.377176545086378
 21
43.495166527164073
 31
0.0
  0
LINE
  5
AD1
  8
3
 10
43.150176545086367
 20
18.49516652716407
 30
0.0
 11
43.150176545086367
 21
43.495166527164073
 31
0.0
  0
LINE
  5
AD2
  8
1
 10
25.147341059620182
 20
61.495166527164073
 30
0.0
 11
54.380012030552599
 21
61.495166527164073
 31
0.0
  0
TEXT
  5
B68
  8
0
 62
     3
 10
0.0
 20
0.0
 30
0.0
 40
10.0
  1
REJ08-M08X43
  7
STANDARD1
  0
ENDSEC
  0
EOF
