  0
SECTION
  2
HEADER
  9
$ACADVER
  1
AC1009
  9
$INSBASE
 10
0.0
 20
0.0
 30
0.0
  9
$EXTMIN
 10
0.0
 20
-2.960436562073669
 30
0.0
  9
$EXTMAX
 10
119.50125342835361
 20
130.1308250896906
 30
0.0
  9
$LIMMIN
 10
0.0
 20
0.0
  9
$LIMMAX
 10
187.5
 20
135.0
  9
$ORTHOMODE
 70
     1
  9
$REGENMODE
 70
     1
  9
$FILLMODE
 70
     1
  9
$QTEXTMODE
 70
     0
  9
$MIRRTEXT
 70
     0
  9
$DRAGMODE
 70
     2
  9
$LTSCALE
 40
5.0
  9
$OSMODE
 70
    55
  9
$ATTMODE
 70
     1
  9
$TEXTSIZE
 40
0.06
  9
$TRACEWID
 40
0.05
  9
$TEXTSTYLE
  7
STANDARD
  9
$CLAYER
  8
0
  9
$CELTYPE
  6
BYLAYER
  9
$CECOLOR
 62
   256
  9
$DIMSCALE
 40
0.5
  9
$DIMASZ
 40
3.0
  9
$DIMEXO
 40
2.0
  9
$DIMDLI
 40
10.0
  9
$DIMRND
 40
0.0
  9
$DIMDLE
 40
0.0
  9
$DIMEXE
 40
2.0
  9
$DIMTP
 40
0.0
  9
$DIMTM
 40
0.0
  9
$DIMTXT
 40
3.0
  9
$DIMCEN
 40
0.0
  9
$DIMTSZ
 40
0.0
  9
$DIMTOL
 70
     0
  9
$DIMLIM
 70
     0
  9
$DIMTIH
 70
     0
  9
$DIMTOH
 70
     0
  9
$DIMSE1
 70
     0
  9
$DIMSE2
 70
     0
  9
$DIMTAD
 70
     1
  9
$DIMZIN
 70
     8
  9
$DIMBLK
  1

  9
$DIMASO
 70
     0
  9
$DIMSHO
 70
     0
  9
$DIMPOST
  1

  9
$DIMAPOST
  1

  9
$DIMALT
 70
     0
  9
$DIMALTD
 70
     2
  9
$DIMALTF
 40
25.399999999999999
  9
$DIMLFAC
 40
1.0
  9
$DIMTOFL
 70
     1
  9
$DIMTVP
 40
1.6000000000000001
  9
$DIMTIX
 70
     1
  9
$DIMSOXD
 70
     0
  9
$DIMSAH
 70
     0
  9
$DIMBLK1
  1

  9
$DIMBLK2
  1

  9
$DIMSTYLE
  2
STANDARD
  9
$DIMCLRD
 70
     0
  9
$DIMCLRE
 70
     0
  9
$DIMCLRT
 70
     0
  9
$DIMTFAC
 40
1.0
  9
$DIMGAP
 40
0.09
  9
$LUNITS
 70
     2
  9
$LUPREC
 70
     4
  9
$SKETCHINC
 40
0.1
  9
$FILLETRAD
 40
0.4
  9
$AUNITS
 70
     0
  9
$AUPREC
 70
     4
  9
$MENU
  1
E:\r13\win\SUPPORT\ACAD
  9
$ELEVATION
 40
0.0
  9
$PELEVATION
 40
0.0
  9
$THICKNESS
 40
0.0
  9
$LIMCHECK
 70
     0
  9
$BLIPMODE
 70
     0
  9
$CHAMFERA
 40
0.0
  9
$CHAMFERB
 40
0.0
  9
$SKPOLY
 70
     0
  9
$TDCREATE
 40
2449840.5914699072
  9
$TDUPDATE
 40
2456598.5923787039
  9
$TDINDWG
 40
0.0814876157
  9
$TDUSRTIMER
 40
0.0814876157
  9
$USRTIMER
 70
     1
  9
$ANGBASE
 50
0.0
  9
$ANGDIR
 70
     0
  9
$PDMODE
 70
     0
  9
$PDSIZE
 40
0.0
  9
$PLINEWID
 40
0.0
  9
$COORDS
 70
     1
  9
$SPLFRAME
 70
     0
  9
$SPLINETYPE
 70
     6
  9
$SPLINESEGS
 70
     8
  9
$ATTDIA
 70
     0
  9
$ATTREQ
 70
     1
  9
$HANDLING
 70
     1
  9
$HANDSEED
  5
89C
  9
$SURFTAB1
 70
     6
  9
$SURFTAB2
 70
     6
  9
$SURFTYPE
 70
     6
  9
$SURFU
 70
     6
  9
$SURFV
 70
     6
  9
$UCSNAME
  2

  9
$UCSORG
 10
0.0
 20
0.0
 30
0.0
  9
$UCSXDIR
 10
1.0
 20
0.0
 30
0.0
  9
$UCSYDIR
 10
0.0
 20
1.0
 30
0.0
  9
$PUCSNAME
  2

  9
$PUCSORG
 10
0.0
 20
0.0
 30
0.0
  9
$PUCSXDIR
 10
1.0
 20
0.0
 30
0.0
  9
$PUCSYDIR
 10
0.0
 20
1.0
 30
0.0
  9
$USERI1
 70
     3
  9
$USERI2
 70
     1
  9
$USERI3
 70
     0
  9
$USERI4
 70
     0
  9
$USERI5
 70
     0
  9
$USERR1
 40
0.5
  9
$USERR2
 40
3.0
  9
$USERR3
 40
3.0
  9
$USERR4
 40
3.0
  9
$USERR5
 40
10.0
  9
$WORLDVIEW
 70
     1
  9
$SHADEDGE
 70
     3
  9
$SHADEDIF
 70
    70
  9
$TILEMODE
 70
     1
  9
$MAXACTVP
 70
    16
  9
$PLIMCHECK
 70
     0
  9
$PEXTMIN
 10
1.0000000000000000E+020
 20
1.0000000000000000E+020
 30
1.0000000000000000E+020
  9
$PEXTMAX
 10
-1.0000000000000000E+020
 20
-1.0000000000000000E+020
 30
-1.0000000000000000E+020
  9
$PLIMMIN
 10
0.0
 20
0.0
  9
$PLIMMAX
 10
12.0
 20
9.0
  9
$UNITMODE
 70
     0
  9
$VISRETAIN
 70
     0
  9
$PLINEGEN
 70
     0
  9
$PSLTSCALE
 70
     0
  0
ENDSEC
  0
SECTION
  2
TABLES
  0
TABLE
  2
VPORT
 70
     1
  0
VPORT
  2
*ACTIVE
 70
     0
 10
0.0
 20
0.0
 11
1.0
 21
1.0
 12
93.747139195326156
 22
96.983959220318994
 13
0.0
 23
0.0
 14
5.0
 24
5.0
 15
10.0
 25
10.0
 16
0.0
 26
0.0
 36
1.0
 17
0.0
 27
0.0
 37
0.0
 40
201.84293963319561
 41
1.7807262569832401
 42
50.0
 43
0.0
 44
0.0
 50
0.0
 51
0.0
 71
     0
 72
   100
 73
     1
 74
     0
 75
     0
 76
     0
 77
     0
 78
     0
  0
ENDTAB
  0
TABLE
  2
LTYPE
 70
     4
  0
LTYPE
  2
CONTINUOUS
 70
     0
  3
Solid Line
 72
    65
 73
     0
 40
0.0
  0
LTYPE
  2
CENTER
 70
     0
  3
____ _ ____ _ ____ _ ____ _ ____ _ ____ _ ____
 72
    65
 73
     4
 40
2.0
 49
1.25
 49
-0.25
 49
0.25
 49
-0.25
  0
LTYPE
  2
HIDDEN
 70
     0
  3
_ _ _ _ _ _ _ _ _ _ _ _ _ _ _ _ _ _ _ _ _ _ _
 72
    65
 73
     2
 40
0.375
 49
0.25
 49
-0.125
  0
LTYPE
  2
PHANTOM2
 70
     0
  3
___ _ _ ___ _ _ ___ _ _ ___ _ _
 72
    65
 73
     6
 40
1.25
 49
0.625
 49
-0.125
 49
0.125
 49
-0.125
 49
0.125
 49
-0.125
  0
ENDTAB
  0
TABLE
  2
LAYER
 70
     4
  0
LAYER
  2
0
 70
     0
 62
     7
  6
CONTINUOUS
  0
LAYER
  2
1
 70
     0
 62
     1
  6
CENTER
  0
LAYER
  2
2
 70
     0
 62
     2
  6
HIDDEN
  0
LAYER
  2
3
 70
     0
 62
     3
  6
CONTINUOUS
  0
ENDTAB
  0
TABLE
  2
STYLE
 70
     2
  0
STYLE
  2
STANDARD
 70
     0
 40
0.0
 41
1.0
 50
0.0
 71
     0
 42
0.06
  3
TXT
  4
BIGFONT
  0
STYLE
  2
STANDARD1
 70
     0
 40
0.0
 41
1.0
 50
0.0
 71
     0
 42
3.0
  3
txt
  4

  0
ENDTAB
  0
TABLE
  2
VIEW
 70
     2
  0
VIEW
  2
OLE1
 70
     0
 40
24.514257897662329
 10
44.901529473115893
 20
103.25177669290009
 41
34.172454060781448
 11
0.0
 21
0.0
 31
1.0
 12
0.0
 22
0.0
 32
0.0
 42
50.0
 43
0.0
 44
0.0
 50
0.0
 71
     0
  0
VIEW
  2
OLE2
 70
     0
 40
111.8251716252055
 10
23.153306359535989
 20
84.753742215946431
 41
155.8823667497492
 11
0.0
 21
0.0
 31
1.0
 12
0.0
 22
0.0
 32
0.0
 42
50.0
 43
0.0
 44
0.0
 50
0.0
 71
     0
  0
ENDTAB
  0
TABLE
  2
UCS
 70
     0
  0
ENDTAB
  0
TABLE
  2
APPID
 70
     3
  0
APPID
  2
ACAD
 70
     0
  0
APPID
  2
ACAD_MLEADERVER
 70
     0
  0
APPID
  2
ACAD_NAV_VCDISPLAY
 70
     0
  0
ENDTAB
  0
TABLE
  2
DIMSTYLE
 70
     1
  0
DIMSTYLE
  2
STANDARD
 70
     0
  3

  4

  5

  6

  7

 40
1.0
 41
0.18
 42
0.0625
 43
0.38
 44
0.18
 45
0.0
 46
0.0
 47
0.0
 48
0.0
140
0.18
141
0.09
142
0.0
143
25.399999999999999
144
1.0
145
0.0
146
1.0
147
0.09
 71
     0
 72
     0
 73
     1
 74
     1
 75
     0
 76
     0
 77
     0
 78
     0
170
     0
171
     2
172
     0
173
     0
174
     0
175
     0
176
     0
177
     0
178
     0
  0
ENDTAB
  0
ENDSEC
  0
SECTION
  2
BLOCKS
  0
BLOCK
  8
0
  2
$MODEL_SPACE
 70
     0
 10
0.0
 20
0.0
 30
0.0
  3
$MODEL_SPACE
  1

  0
ENDBLK
  5
E6
  8
0
  0
BLOCK
 67
     1
  8
0
  2
$PAPER_SPACE
 70
     0
 10
0.0
 20
0.0
 30
0.0
  3
$PAPER_SPACE
  1

  0
ENDBLK
  5
E4
 67
     1
  8
0
  0
ENDSEC
  0
SECTION
  2
ENTITIES
  0
ARC
  5
3EA
  8
0
 10
112.5730902688553
 20
86.214284648264254
 30
0.0
 40
6.0350000000000081
 50
41.785008521337332
 51
54.55295362298645
  0
ARC
  5
3EC
  8
0
 10
112.57309026885549
 20
86.214284648264055
 30
0.0
 40
6.035000000000263
 50
125.44704637701361
 51
138.21499147866251
  0
ARC
  5
3ED
  8
0
 10
112.5730902688554
 20
86.214284648264353
 30
0.0
 40
6.0350000000001636
 50
221.7850085213374
 51
234.55295362298631
  0
ARC
  5
3EE
  8
2
 10
112.5730902688553
 20
86.214284648264254
 30
0.0
 40
6.0349999999999966
 50
234.55295362298651
 51
305.44704637701352
  0
ARC
  5
3EF
  8
0
 10
112.5730902688553
 20
86.214284648264254
 30
0.0
 40
6.0350000000000072
 50
305.44704637701352
 51
318.21499147866268
  0
LINE
  5
3F0
  8
2
 10
117.0730902688553
 20
89.214284648264254
 30
0.0
 11
108.0730902688553
 21
89.214284648264254
 31
0.0
  0
LINE
  5
3F1
  8
2
 10
108.0730902688553
 20
83.214284648264254
 30
0.0
 11
117.0730902688553
 21
83.214284648264254
 31
0.0
  0
LINE
  5
3F2
  8
0
 10
117.0730902688553
 20
82.192938480623383
 30
0.0
 11
117.0730902688553
 21
90.235630815905154
 31
0.0
  0
LINE
  5
3F3
  8
0
 10
108.0730902688553
 20
82.192938480623383
 30
0.0
 11
108.0730902688553
 21
90.235630815905154
 31
0.0
  0
LINE
  5
3F4
  8
0
 10
117.0730902688553
 20
89.214284648264254
 30
0.0
 11
117.0730902688553
 21
83.214284648264254
 31
0.0
  0
LINE
  5
3F5
  8
0
 10
108.0730902688553
 20
83.214284648264254
 30
0.0
 11
108.0730902688553
 21
89.214284648264254
 31
0.0
  0
LINE
  5
3F6
  8
1
 10
105.644927109357
 20
86.214284648264254
 30
0.0
 11
119.50125342835361
 21
86.214284648264254
 31
0.0
  0
ARC
  5
3F7
  8
0
 10
112.5730902688553
 20
86.214284648264268
 30
0.0
 40
9.9999999999999734
 50
69.51268488527721
 51
110.4873151147227
  0
LINE
  5
3F8
  8
0
 10
117.5730902688553
 20
59.547617981597597
 30
0.0
 11
117.5730902688553
 21
70.680506099528614
 31
0.0
  0
LINE
  5
3F9
  8
0
 10
107.5730902688553
 20
70.680506099528614
 30
0.0
 11
107.5730902688553
 21
59.547617981597597
 31
0.0
  0
LINE
  5
3FA
  8
2
 10
115.0315902688553
 20
69.194869011461563
 30
0.0
 11
112.5730902688553
 21
70.61428464826426
 31
0.0
  0
LINE
  5
3FB
  8
2
 10
112.5730902688553
 20
70.61428464826426
 30
0.0
 11
110.1145902688553
 21
69.194869011461563
 31
0.0
  0
LINE
  5
3FC
  8
2
 10
115.0315902688553
 20
56.75578464826426
 30
0.0
 11
115.0315902688553
 21
69.194869011461563
 31
0.0
  0
LINE
  5
3FD
  8
2
 10
110.1145902688553
 20
69.194869011461563
 30
0.0
 11
110.1145902688553
 21
56.75578464826426
 31
0.0
  0
LINE
  5
3FE
  8
2
 10
115.5730902688553
 20
56.214284648264261
 30
0.0
 11
115.0315902688553
 21
56.75578464826426
 31
0.0
  0
LINE
  5
3FF
  8
2
 10
110.1145902688553
 20
56.75578464826426
 30
0.0
 11
109.5730902688553
 21
56.214284648264261
 31
0.0
  0
ARC
  5
401
  8
2
 10
112.5730902688553
 20
86.214284648264254
 30
0.0
 40
6.0349999999999966
 50
54.55295362298645
 51
125.44704637701351
  0
LINE
  5
402
  8
0
 10
107.0730902688553
 20
59.547617981597597
 30
0.0
 11
118.0730902688553
 21
59.547617981597597
 31
0.0
  0
LINE
  5
403
  8
0
 10
107.0730902688553
 20
56.214284648264261
 30
0.0
 11
118.0730902688553
 21
56.214284648264261
 31
0.0
  0
LINE
  5
406
  8
0
 10
109.0730902688553
 20
74.214284648264254
 30
0.0
 11
116.0730902688553
 21
74.214284648264254
 31
0.0
  0
LINE
  5
407
  8
0
 10
118.0730902688553
 20
56.214284648264261
 30
0.0
 11
118.0730902688553
 21
59.547617981597597
 31
0.0
  0
LINE
  5
40E
  8
0
 10
107.0730902688553
 20
59.547617981597597
 30
0.0
 11
107.0730902688553
 21
56.214284648264261
 31
0.0
  0
POLYLINE
  5
40F
  8
0
 66
     1
 10
0.0
 20
0.0
 30
0.0
  0
VERTEX
  5
750
  8
0
 10
116.0730902688553
 20
74.214284648264254
 30
0.0
  0
VERTEX
  5
751
  8
0
 10
116.1511224304886
 20
74.030452395670153
 30
0.0
  0
VERTEX
  5
752
  8
0
 10
116.30190973946991
 20
73.675219757070352
 30
0.0
  0
VERTEX
  5
753
  8
0
 10
116.44541714577539
 20
73.337137494412161
 30
0.0
  0
VERTEX
  5
754
  8
0
 10
116.51435276056959
 20
73.174735363209834
 30
0.0
  0
VERTEX
  5
755
  8
0
 10
116.5813644749534
 20
73.016865657340816
 30
0.0
  0
VERTEX
  5
756
  8
0
 10
116.7094863123509
 20
72.715029523594154
 30
0.0
  0
VERTEX
  5
757
  8
0
 10
116.82953252129219
 20
72.432218378251605
 30
0.0
  0
VERTEX
  5
758
  8
0
 10
116.9412687314291
 20
72.168984363252434
 30
0.0
  0
VERTEX
  5
759
  8
0
 10
117.04447679631031
 20
71.925841399430084
 30
0.0
  0
VERTEX
  5
75A
  8
0
 10
117.1389552192761
 20
71.703264183166823
 30
0.0
  0
VERTEX
  5
75B
  8
0
 10
117.1828624975017
 20
71.599825117882034
 30
0.0
  0
VERTEX
  5
75C
  8
0
 10
117.2245195468474
 20
71.501687259627715
 30
0.0
  0
VERTEX
  5
75D
  8
0
 10
117.27024833149819
 20
71.393956994121879
 30
0.0
  0
VERTEX
  5
75E
  8
0
 10
117.2827417625754
 20
71.364524314961415
 30
0.0
  0
VERTEX
  5
75F
  8
0
 10
117.2949797417198
 20
71.335693442841404
 30
0.0
  0
VERTEX
  5
760
  8
0
 10
117.3010027288408
 20
71.321504174383051
 30
0.0
  0
VERTEX
  5
761
  8
0
 10
117.30696160514211
 20
71.30746594155093
 30
0.0
  0
VERTEX
  5
762
  8
0
 10
117.318686702945
 20
71.279843342152304
 30
0.0
  0
VERTEX
  5
763
  8
0
 10
117.3301543991582
 20
71.252827142897871
 30
0.0
  0
VERTEX
  5
764
  8
0
 10
117.3413640717728
 20
71.226418809148811
 30
0.0
  0
VERTEX
  5
765
  8
0
 10
117.352315112775
 20
71.200619773295557
 30
0.0
  0
VERTEX
  5
766
  8
0
 10
117.3630069281794
 20
71.175431434680206
 30
0.0
  0
VERTEX
  5
767
  8
0
 10
117.36825544450571
 20
71.163066705075749
 30
0.0
  0
VERTEX
  5
768
  8
0
 10
117.3734389380608
 20
71.150855159520574
 30
0.0
  0
VERTEX
  5
769
  8
0
 10
117.38361057658631
 20
71.126892280836103
 30
0.0
  0
VERTEX
  5
76A
  8
0
 10
117.39352129204499
 20
71.103544098375551
 30
0.0
  0
VERTEX
  5
76B
  8
0
 10
117.403170546879
 20
71.080811878546513
 30
0.0
  0
VERTEX
  5
76C
  8
0
 10
117.4125578177117
 20
71.058696854346664
 30
0.0
  0
VERTEX
  5
76D
  8
0
 10
117.42168259537669
 20
71.037200225296971
 30
0.0
  0
VERTEX
  5
76E
  8
0
 10
117.4261463940492
 20
71.026684174633886
 30
0.0
  0
VERTEX
  5
76F
  8
0
 10
117.43054438494519
 20
71.016323157376604
 30
0.0
  0
VERTEX
  5
770
  8
0
 10
117.4391427057529
 20
70.996066782959645
 30
0.0
  0
VERTEX
  5
771
  8
0
 10
117.44747709142609
 20
70.97643220075372
 30
0.0
  0
VERTEX
  5
772
  8
0
 10
117.455547089907
 20
70.957420475740378
 30
0.0
  0
VERTEX
  5
773
  8
0
 10
117.4633522634781
 20
70.939032639117329
 30
0.0
  0
VERTEX
  5
774
  8
0
 10
117.470892188786
 20
70.921269688242575
 30
0.0
  0
VERTEX
  5
775
  8
0
 10
117.4745625549767
 20
70.912622847368738
 30
0.0
  0
VERTEX
  5
776
  8
0
 10
117.4781664568645
 20
70.904132586580175
 30
0.0
  0
VERTEX
  5
777
  8
0
 10
117.48517467315661
 20
70.887622263648154
 30
0.0
  0
VERTEX
  5
778
  8
0
 10
117.49191645753611
 20
70.871739614967908
 30
0.0
  0
VERTEX
  5
779
  8
0
 10
117.49839144432789
 20
70.856485502015772
 30
0.0
  0
VERTEX
  5
77A
  8
0
 10
117.5045992823281
 20
70.841860752176302
 30
0.0
  0
VERTEX
  5
77B
  8
0
 10
117.5105396348231
 20
70.827866158697205
 30
0.0
  0
VERTEX
  5
77C
  8
0
 10
117.5134094027497
 20
70.821105409137886
 30
0.0
  0
VERTEX
  5
77D
  8
0
 10
117.51621217960751
 20
70.81450248064661
 30
0.0
  0
VERTEX
  5
77E
  8
0
 10
117.521616609002
 20
70.801770442871572
 30
0.0
  0
VERTEX
  5
77F
  8
0
 10
117.5267526298699
 20
70.789670735959035
 30
0.0
  0
VERTEX
  5
780
  8
0
 10
117.5292198994815
 20
70.783858213007335
 30
0.0
  0
VERTEX
  5
781
  8
0
 10
117.53161996363291
 20
70.778204016198231
 30
0.0
  0
VERTEX
  5
782
  8
0
 10
117.5362183462864
 20
70.767370905545079
 30
0.0
  0
VERTEX
  5
783
  8
0
 10
117.5405475284136
 20
70.757171991588535
 30
0.0
  0
VERTEX
  5
784
  8
0
 10
117.54261109532941
 20
70.752310532587884
 30
0.0
  0
VERTEX
  5
785
  8
0
 10
117.5446072751994
 20
70.747607827518607
 30
0.0
  0
VERTEX
  5
786
  8
0
 10
117.5483973664427
 20
70.738678932096434
 30
0.0
  0
VERTEX
  5
787
  8
0
 10
117.5519175965685
 20
70.730385789626126
 30
0.0
  0
VERTEX
  5
788
  8
0
 10
117.5551677746394
 20
70.722728849928544
 30
0.0
  0
VERTEX
  5
789
  8
0
 10
117.5581477243653
 20
70.715708528316782
 30
0.0
  0
VERTEX
  5
78A
  8
0
 10
117.5608572841135
 20
70.70932520557372
 30
0.0
  0
VERTEX
  5
78B
  8
0
 10
117.56211062124569
 20
70.70637252832563
 30
0.0
  0
VERTEX
  5
78C
  8
0
 10
117.5632963069171
 20
70.703579227931357
 30
0.0
  0
VERTEX
  5
78D
  8
0
 10
117.5654646604835
 20
70.698470907052126
 30
0.0
  0
VERTEX
  5
78E
  8
0
 10
117.5673622272009
 20
70.694000520011741
 30
0.0
  0
VERTEX
  5
78F
  8
0
 10
117.568988904145
 20
70.690168309284445
 30
0.0
  0
VERTEX
  5
790
  8
0
 10
117.57034460308481
 20
70.686974482729696
 30
0.0
  0
VERTEX
  5
791
  8
0
 10
117.5714292504871
 20
70.684419213580981
 30
0.0
  0
VERTEX
  5
792
  8
0
 10
117.57186991090239
 20
70.683381082698901
 30
0.0
  0
VERTEX
  5
793
  8
0
 10
117.57224278752039
 20
70.682502640436255
 30
0.0
  0
VERTEX
  5
794
  8
0
 10
117.57278517005859
 20
70.681224867250705
 30
0.0
  0
VERTEX
  5
795
  8
0
 10
117.5730563686825
 20
70.680585963330827
 30
0.0
  0
VERTEX
  5
796
  8
0
 10
117.5730902688553
 20
70.680506099528614
 30
0.0
  0
SEQEND
  5
797
  8
0
  0
POLYLINE
  5
411
  8
0
 66
     1
 10
0.0
 20
0.0
 30
0.0
  0
VERTEX
  5
798
  8
0
 10
109.0730902688553
 20
74.214284648264254
 30
0.0
  0
VERTEX
  5
799
  8
0
 10
108.99505810722199
 20
74.030452395670153
 30
0.0
  0
VERTEX
  5
79A
  8
0
 10
108.8442707982407
 20
73.675219757070352
 30
0.0
  0
VERTEX
  5
79B
  8
0
 10
108.7007633919351
 20
73.337137494412161
 30
0.0
  0
VERTEX
  5
79C
  8
0
 10
108.6318277771409
 20
73.174735363209834
 30
0.0
  0
VERTEX
  5
79D
  8
0
 10
108.5648160627572
 20
73.016865657340816
 30
0.0
  0
VERTEX
  5
79E
  8
0
 10
108.4366942253596
 20
72.715029523594154
 30
0.0
  0
VERTEX
  5
79F
  8
0
 10
108.3166480164183
 20
72.432218378251605
 30
0.0
  0
VERTEX
  5
7A0
  8
0
 10
108.2049118062814
 20
72.168984363252434
 30
0.0
  0
VERTEX
  5
7A1
  8
0
 10
108.1017037414003
 20
71.925841399430084
 30
0.0
  0
VERTEX
  5
7A2
  8
0
 10
108.00722531843449
 20
71.703264183166823
 30
0.0
  0
VERTEX
  5
7A3
  8
0
 10
107.9633180402088
 20
71.599825117882034
 30
0.0
  0
VERTEX
  5
7A4
  8
0
 10
107.9216609908631
 20
71.501687259627715
 30
0.0
  0
VERTEX
  5
7A5
  8
0
 10
107.8759322062123
 20
71.393956994121879
 30
0.0
  0
VERTEX
  5
7A6
  8
0
 10
107.86343877513519
 20
71.364524314961443
 30
0.0
  0
VERTEX
  5
7A7
  8
0
 10
107.85120079599081
 20
71.335693442841404
 30
0.0
  0
VERTEX
  5
7A8
  8
0
 10
107.84517780886981
 20
71.321504174383051
 30
0.0
  0
VERTEX
  5
7A9
  8
0
 10
107.8392189325685
 20
71.30746594155093
 30
0.0
  0
VERTEX
  5
7AA
  8
0
 10
107.82749383476551
 20
71.279843342152304
 30
0.0
  0
VERTEX
  5
7AB
  8
0
 10
107.8160261385523
 20
71.252827142897871
 30
0.0
  0
VERTEX
  5
7AC
  8
0
 10
107.8048164659378
 20
71.226418809148811
 30
0.0
  0
VERTEX
  5
7AD
  8
0
 10
107.7938654249356
 20
71.200619773295557
 30
0.0
  0
VERTEX
  5
7AE
  8
0
 10
107.7831736095312
 20
71.175431434680206
 30
0.0
  0
VERTEX
  5
7AF
  8
0
 10
107.7779250932049
 20
71.163066705075778
 30
0.0
  0
VERTEX
  5
7B0
  8
0
 10
107.77274159964971
 20
71.150855159520574
 30
0.0
  0
VERTEX
  5
7B1
  8
0
 10
107.7625699611243
 20
71.126892280836103
 30
0.0
  0
VERTEX
  5
7B2
  8
0
 10
107.7526592456655
 20
71.103544098375551
 30
0.0
  0
VERTEX
  5
7B3
  8
0
 10
107.7430099908315
 20
71.080811878546513
 30
0.0
  0
VERTEX
  5
7B4
  8
0
 10
107.73362271999881
 20
71.058696854346664
 30
0.0
  0
VERTEX
  5
7B5
  8
0
 10
107.7244979423338
 20
71.037200225296971
 30
0.0
  0
VERTEX
  5
7B6
  8
0
 10
107.72003414366139
 20
71.026684174633886
 30
0.0
  0
VERTEX
  5
7B7
  8
0
 10
107.7156361527654
 20
71.016323157376604
 30
0.0
  0
VERTEX
  5
7B8
  8
0
 10
107.70703783195761
 20
70.996066782959645
 30
0.0
  0
VERTEX
  5
7B9
  8
0
 10
107.6987034462844
 20
70.97643220075372
 30
0.0
  0
VERTEX
  5
7BA
  8
0
 10
107.69063344780361
 20
70.957420475740378
 30
0.0
  0
VERTEX
  5
7BB
  8
0
 10
107.68282827423251
 20
70.939032639117329
 30
0.0
  0
VERTEX
  5
7BC
  8
0
 10
107.6752883489246
 20
70.921269688242575
 30
0.0
  0
VERTEX
  5
7BD
  8
0
 10
107.67161798273391
 20
70.912622847368738
 30
0.0
  0
VERTEX
  5
7BE
  8
0
 10
107.66801408084611
 20
70.904132586580175
 30
0.0
  0
VERTEX
  5
7BF
  8
0
 10
107.661005864554
 20
70.887622263648154
 30
0.0
  0
VERTEX
  5
7C0
  8
0
 10
107.6542640801745
 20
70.871739614967908
 30
0.0
  0
VERTEX
  5
7C1
  8
0
 10
107.6477890933827
 20
70.856485502015772
 30
0.0
  0
VERTEX
  5
7C2
  8
0
 10
107.6415812553825
 20
70.841860752176302
 30
0.0
  0
VERTEX
  5
7C3
  8
0
 10
107.6356409028875
 20
70.827866158697205
 30
0.0
  0
VERTEX
  5
7C4
  8
0
 10
107.6327711349609
 20
70.821105409137886
 30
0.0
  0
VERTEX
  5
7C5
  8
0
 10
107.6299683581031
 20
70.81450248064661
 30
0.0
  0
VERTEX
  5
7C6
  8
0
 10
107.6245639287086
 20
70.801770442871572
 30
0.0
  0
VERTEX
  5
7C7
  8
0
 10
107.6194279078407
 20
70.789670735959035
 30
0.0
  0
VERTEX
  5
7C8
  8
0
 10
107.616960638229
 20
70.783858213007335
 30
0.0
  0
VERTEX
  5
7C9
  8
0
 10
107.6145605740777
 20
70.778204016198231
 30
0.0
  0
VERTEX
  5
7CA
  8
0
 10
107.6099621914242
 20
70.767370905545079
 30
0.0
  0
VERTEX
  5
7CB
  8
0
 10
107.60563300929689
 20
70.757171991588535
 30
0.0
  0
VERTEX
  5
7CC
  8
0
 10
107.6035694423811
 20
70.752310532587884
 30
0.0
  0
VERTEX
  5
7CD
  8
0
 10
107.6015732625112
 20
70.747607827518607
 30
0.0
  0
VERTEX
  5
7CE
  8
0
 10
107.59778317126791
 20
70.738678932096434
 30
0.0
  0
VERTEX
  5
7CF
  8
0
 10
107.59426294114201
 20
70.730385789626126
 30
0.0
  0
VERTEX
  5
7D0
  8
0
 10
107.59101276307111
 20
70.722728849928544
 30
0.0
  0
VERTEX
  5
7D1
  8
0
 10
107.58803281334529
 20
70.715708528316782
 30
0.0
  0
VERTEX
  5
7D2
  8
0
 10
107.5853232535971
 20
70.70932520557372
 30
0.0
  0
VERTEX
  5
7D3
  8
0
 10
107.5840699164649
 20
70.70637252832563
 30
0.0
  0
VERTEX
  5
7D4
  8
0
 10
107.5828842307934
 20
70.703579227931357
 30
0.0
  0
VERTEX
  5
7D5
  8
0
 10
107.58071587722711
 20
70.698470907052126
 30
0.0
  0
VERTEX
  5
7D6
  8
0
 10
107.5788183105097
 20
70.694000520011741
 30
0.0
  0
VERTEX
  5
7D7
  8
0
 10
107.5771916335656
 20
70.690168309284445
 30
0.0
  0
VERTEX
  5
7D8
  8
0
 10
107.5758359346257
 20
70.686974482729696
 30
0.0
  0
VERTEX
  5
7D9
  8
0
 10
107.57475128722351
 20
70.684419213580981
 30
0.0
  0
VERTEX
  5
7DA
  8
0
 10
107.5743106268081
 20
70.683381082698901
 30
0.0
  0
VERTEX
  5
7DB
  8
0
 10
107.5739377501901
 20
70.682502640436255
 30
0.0
  0
VERTEX
  5
7DC
  8
0
 10
107.573395367652
 20
70.681224867250705
 30
0.0
  0
VERTEX
  5
7DD
  8
0
 10
107.57312416902801
 20
70.680585963330827
 30
0.0
  0
VERTEX
  5
7DE
  8
0
 10
107.5730902688553
 20
70.680506099528614
 30
0.0
  0
SEQEND
  5
7DF
  8
0
  0
LINE
  5
413
  8
2
 10
115.0315902688553
 20
69.194869011461563
 30
0.0
 11
110.1145902688553
 21
69.194869011461563
 31
0.0
  0
LINE
  5
415
  8
2
 10
115.0315902688553
 20
56.75578464826426
 30
0.0
 11
110.1145902688553
 21
56.75578464826426
 31
0.0
  0
LINE
  5
418
  8
2
 10
115.5730902688553
 20
56.214284648264261
 30
0.0
 11
115.5730902688553
 21
68.214284648264254
 31
0.0
  0
LINE
  5
419
  8
2
 10
115.5730902688553
 20
68.214284648264254
 30
0.0
 11
109.5730902688553
 21
68.214284648264254
 31
0.0
  0
LINE
  5
41A
  8
2
 10
109.5730902688553
 20
56.214284648264261
 30
0.0
 11
109.5730902688553
 21
68.214284648264254
 31
0.0
  0
LINE
  5
41B
  8
1
 10
112.5730902688553
 20
98.642213978777789
 30
0.0
 11
112.5730902688553
 21
53.786355317750733
 31
0.0
  0
CIRCLE
  5
41F
  8
0
 10
67.479657467722035
 20
86.214284648264254
 30
0.0
 40
4.021346167640881
  0
CIRCLE
  5
420
  8
0
 10
67.479657467722035
 20
86.214284648264254
 30
0.0
 40
3.0
  0
ARC
  5
423
  8
0
 10
67.479657467722035
 20
86.214284648264254
 30
0.0
 40
10.0
 50
332.33500217986722
 51
207.6649978201329
  0
LINE
  5
424
  8
0
 10
60.979657467721999
 20
59.547617981597597
 30
0.0
 11
60.979657467721999
 21
56.214284648264282
 31
0.0
  0
LINE
  5
425
  8
0
 10
73.979657467722006
 20
56.214284648264261
 30
0.0
 11
73.979657467722006
 21
59.547617981597597
 31
0.0
  0
LINE
  5
426
  8
0
 10
72.479657467722006
 20
59.547617981597597
 30
0.0
 11
72.479657467722035
 21
74.214284648264254
 31
0.0
  0
LINE
  5
427
  8
0
 10
62.479657467722028
 20
74.214284648264282
 30
0.0
 11
62.479657467722006
 21
59.547617981597597
 31
0.0
  0
LINE
  5
428
  8
0
 10
72.479657467722035
 20
74.214284648264254
 30
0.0
 11
76.336431808255583
 21
81.571273956819908
 31
0.0
  0
LINE
  5
429
  8
0
 10
58.622883127188487
 20
81.571273956819908
 30
0.0
 11
62.479657467722028
 21
74.214284648264282
 31
0.0
  0
LINE
  5
42A
  8
2
 10
69.938157467722021
 20
69.194869011461563
 30
0.0
 11
67.479657467722035
 21
70.61428464826426
 31
0.0
  0
LINE
  5
42B
  8
2
 10
67.479657467722035
 20
70.61428464826426
 30
0.0
 11
65.02115746772202
 21
69.194869011461563
 31
0.0
  0
LINE
  5
42C
  8
2
 10
69.938157467722021
 20
56.75578464826426
 30
0.0
 11
69.938157467722021
 21
69.194869011461563
 31
0.0
  0
LINE
  5
42D
  8
2
 10
65.02115746772202
 20
69.194869011461563
 30
0.0
 11
65.02115746772202
 21
56.75578464826426
 31
0.0
  0
LINE
  5
42E
  8
2
 10
70.479657467722006
 20
56.214284648264261
 30
0.0
 11
69.938157467722021
 21
56.75578464826426
 31
0.0
  0
LINE
  5
42F
  8
2
 10
65.02115746772202
 20
56.75578464826426
 30
0.0
 11
64.479657467722006
 21
56.214284648264282
 31
0.0
  0
LINE
  5
431
  8
0
 10
60.979657467721999
 20
59.547617981597597
 30
0.0
 11
73.979657467722006
 21
59.547617981597597
 31
0.0
  0
LINE
  5
432
  8
0
 10
60.979657467721999
 20
56.214284648264282
 30
0.0
 11
73.979657467722006
 21
56.214284648264261
 31
0.0
  0
LINE
  5
434
  8
0
 10
75.615531834938693
 20
81.571273956819908
 30
0.0
 11
76.336431808255583
 21
81.571273956819908
 31
0.0
  0
LINE
  5
435
  8
0
 10
72.479657467722035
 20
74.214284648264254
 30
0.0
 11
62.479657467722028
 21
74.214284648264282
 31
0.0
  0
LINE
  5
436
  8
0
 10
59.343783100505327
 20
81.571273956819908
 30
0.0
 11
58.622883127188487
 21
81.571273956819908
 31
0.0
  0
POLYLINE
  5
437
  8
0
 66
     1
 10
0.0
 20
0.0
 30
0.0
  0
VERTEX
  5
7E0
  8
0
 10
71.050371681993454
 20
74.214284648264254
 30
0.0
  0
VERTEX
  5
7E1
  8
0
 10
71.651931232210046
 20
75.064868403594716
 30
0.0
  0
VERTEX
  5
7E2
  8
0
 10
73.006173275679828
 20
77.154941101689928
 30
0.0
  0
VERTEX
  5
7E3
  8
0
 10
74.64619127471326
 20
79.890271758944607
 30
0.0
  0
VERTEX
  5
7E4
  8
0
 10
75.615531834938693
 20
81.571273956819908
 30
0.0
  0
SEQEND
  5
7E5
  8
0
  0
POLYLINE
  5
438
  8
0
 66
     1
 10
0.0
 20
0.0
 30
0.0
  0
VERTEX
  5
7E6
  8
0
 10
59.343783100505341
 20
81.571273956819908
 30
0.0
  0
VERTEX
  5
7E7
  8
0
 10
60.313123660730788
 20
79.890271758944607
 30
0.0
  0
VERTEX
  5
7E8
  8
0
 10
61.953141659764221
 20
77.154941101689957
 30
0.0
  0
VERTEX
  5
7E9
  8
0
 10
63.307383703234017
 20
75.064868403594716
 30
0.0
  0
VERTEX
  5
7EA
  8
0
 10
63.908943253450587
 20
74.214284648264282
 30
0.0
  0
SEQEND
  5
7EB
  8
0
  0
ARC
  5
43A
  8
0
 10
67.479657467722035
 20
86.214284648264254
 30
0.0
 40
9.3674969975976001
 50
330.28730270092728
 51
209.71269729907189
  0
LINE
  5
43C
  8
0
 10
70.943759082859771
 20
59.547617981597597
 30
0.0
 11
70.943759082859771
 21
56.214284648264261
 31
0.0
  0
LINE
  5
43D
  8
0
 10
64.015555852584271
 20
56.214284648264282
 30
0.0
 11
64.015555852584271
 21
59.547617981597597
 31
0.0
  0
POLYLINE
  5
43E
  8
0
 66
     1
 10
0.0
 20
0.0
 30
0.0
  0
VERTEX
  5
7EC
  8
0
 10
63.908943253450587
 20
74.214284648264282
 30
0.0
  0
VERTEX
  5
7ED
  8
0
 10
64.067039423029343
 20
73.850734855975006
 30
0.0
  0
VERTEX
  5
7EE
  8
0
 10
64.259883303144335
 20
73.447884537450477
 30
0.0
  0
VERTEX
  5
7EF
  8
0
 10
64.316575970466232
 20
73.33713749441219
 30
0.0
  0
VERTEX
  5
7F0
  8
0
 10
64.373954891814947
 20
73.228369673811173
 30
0.0
  0
VERTEX
  5
7F1
  8
0
 10
64.402897813246909
 20
73.174735363209834
 30
0.0
  0
VERTEX
  5
7F2
  8
0
 10
64.432007618407226
 20
73.121604673634096
 30
0.0
  0
VERTEX
  5
7F3
  8
0
 10
64.490721555272842
 20
73.016865657340816
 30
0.0
  0
VERTEX
  5
7F4
  8
0
 10
64.550083963987021
 20
72.914175348838896
 30
0.0
  0
VERTEX
  5
7F5
  8
0
 10
64.610081965434262
 20
72.813556027553659
 30
0.0
  0
VERTEX
  5
7F6
  8
0
 10
64.670702542602442
 20
72.715029523594183
 30
0.0
  0
VERTEX
  5
7F7
  8
0
 10
64.731932543407083
 20
72.618617213017416
 30
0.0
  0
VERTEX
  5
7F8
  8
0
 10
64.76277193141442
 20
72.571210434967043
 30
0.0
  0
VERTEX
  5
7F9
  8
0
 10
64.793758683544667
 20
72.524340013190283
 30
0.0
  0
VERTEX
  5
7FA
  8
0
 10
64.856167549374817
 20
72.432218378251633
 30
0.0
  0
VERTEX
  5
7FB
  8
0
 10
64.919145600830547
 20
72.342272294674416
 30
0.0
  0
VERTEX
  5
7FC
  8
0
 10
64.950843806049619
 20
72.298121201472611
 30
0.0
  0
VERTEX
  5
7FD
  8
0
 10
64.982679174355724
 20
72.254521276929665
 30
0.0
  0
VERTEX
  5
7FE
  8
0
 10
65.046754485869684
 20
72.168984363252434
 30
0.0
  0
VERTEX
  5
7FF
  8
0
 10
65.111357633757621
 20
72.085680111511607
 30
0.0
  0
VERTEX
  5
800
  8
0
 10
65.1438527706907
 20
72.044870900858143
 30
0.0
  0
VERTEX
  5
801
  8
0
 10
65.176474601886696
 20
72.004626595183339
 30
0.0
  0
VERTEX
  5
802
  8
0
 10
65.242091262646994
 20
71.925841399430084
 30
0.0
  0
VERTEX
  5
803
  8
0
 10
65.308193380016519
 20
71.849341617285319
 30
0.0
  0
VERTEX
  5
804
  8
0
 10
65.37476661264995
 20
71.775143845945024
 30
0.0
  0
VERTEX
  5
805
  8
0
 10
65.441796516989882
 20
71.703264183166823
 30
0.0
  0
VERTEX
  5
806
  8
0
 10
65.509268550400691
 20
71.633718223777521
 30
0.0
  0
VERTEX
  5
807
  8
0
 10
65.543165794618318
 20
71.599825117882034
 30
0.0
  0
VERTEX
  5
808
  8
0
 10
65.577168074323509
 20
71.566521056289616
 30
0.0
  0
VERTEX
  5
809
  8
0
 10
65.6454803574523
 20
71.501687259627715
 30
0.0
  0
VERTEX
  5
80A
  8
0
 10
65.71419057892976
 20
71.439230899965622
 30
0.0
  0
VERTEX
  5
80B
  8
0
 10
65.783283831562954
 20
71.379165527674502
 30
0.0
  0
VERTEX
  5
80C
  8
0
 10
65.852745125057481
 20
71.321504174383051
 30
0.0
  0
VERTEX
  5
80D
  8
0
 10
65.922559389269765
 20
71.266259350150165
 30
0.0
  0
VERTEX
  5
80E
  8
0
 10
65.957594154945724
 20
71.239546902537114
 30
0.0
  0
VERTEX
  5
80F
  8
0
 10
65.992711477476604
 20
71.21344304075086
 30
0.0
  0
VERTEX
  5
810
  8
0
 10
66.063186169661321
 20
71.163066705075778
 30
0.0
  0
VERTEX
  5
811
  8
0
 10
66.133968175815966
 20
71.115141272645133
 30
0.0
  0
VERTEX
  5
812
  8
0
 10
66.205042139258495
 20
71.069677141237491
 30
0.0
  0
VERTEX
  5
813
  8
0
 10
66.276392639964655
 20
71.026684174633914
 30
0.0
  0
VERTEX
  5
814
  8
0
 10
66.348004197913241
 20
70.986171700477826
 30
0.0
  0
VERTEX
  5
815
  8
0
 10
66.383903020267724
 20
70.966848415855651
 30
0.0
  0
VERTEX
  5
816
  8
0
 10
66.419861276444863
 20
70.948148508251421
 30
0.0
  0
VERTEX
  5
817
  8
0
 10
66.491948285632532
 20
70.912622847368738
 30
0.0
  0
VERTEX
  5
818
  8
0
 10
66.564249585664143
 20
70.879602425385798
 30
0.0
  0
VERTEX
  5
819
  8
0
 10
66.636749490235573
 20
70.849094406328391
 30
0.0
  0
VERTEX
  5
81A
  8
0
 10
66.709432269954036
 20
70.821105409137886
 30
0.0
  0
VERTEX
  5
81B
  8
0
 10
66.782282155750522
 20
70.795641506235143
 30
0.0
  0
VERTEX
  5
81C
  8
0
 10
66.818764825586811
 20
70.783858213007335
 30
0.0
  0
VERTEX
  5
81D
  8
0
 10
66.855283342301163
 20
70.77270822220305
 30
0.0
  0
VERTEX
  5
81E
  8
0
 10
66.928419991456281
 20
70.752310532587884
 30
0.0
  0
VERTEX
  5
81F
  8
0
 10
67.001676235676541
 20
70.734452862820007
 30
0.0
  0
VERTEX
  5
820
  8
0
 10
67.075036181475653
 20
70.719139087253467
 30
0.0
  0
VERTEX
  5
821
  8
0
 10
67.148483912868443
 20
70.70637252832563
 30
0.0
  0
VERTEX
  5
822
  8
0
 10
67.222003494823952
 20
70.696155955836304
 30
0.0
  0
VERTEX
  5
823
  8
0
 10
67.258785245708481
 20
70.69200462880633
 30
0.0
  0
VERTEX
  5
824
  8
0
 10
67.295578976722766
 20
70.688491586346771
 30
0.0
  0
VERTEX
  5
825
  8
0
 10
67.369194395817601
 20
70.683381082698901
 30
0.0
  0
VERTEX
  5
826
  8
0
 10
67.442833780696375
 20
70.6808255536545
 30
0.0
  0
VERTEX
  5
827
  8
0
 10
67.479657467722035
 20
70.680506099528614
 30
0.0
  0
VERTEX
  5
828
  8
0
 10
67.516481154747652
 20
70.6808255536545
 30
0.0
  0
VERTEX
  5
829
  8
0
 10
67.590120539626469
 20
70.683381082698901
 30
0.0
  0
VERTEX
  5
82A
  8
0
 10
67.663735958721276
 20
70.688491586346771
 30
0.0
  0
VERTEX
  5
82B
  8
0
 10
67.700529689735575
 20
70.69200462880633
 30
0.0
  0
VERTEX
  5
82C
  8
0
 10
67.737311440620104
 20
70.696155955836304
 30
0.0
  0
VERTEX
  5
82D
  8
0
 10
67.810831022575627
 20
70.70637252832563
 30
0.0
  0
VERTEX
  5
82E
  8
0
 10
67.884278753968374
 20
70.719139087253467
 30
0.0
  0
VERTEX
  5
82F
  8
0
 10
67.9576386997675
 20
70.734452862820007
 30
0.0
  0
VERTEX
  5
830
  8
0
 10
68.030894943987789
 20
70.752310532587884
 30
0.0
  0
VERTEX
  5
831
  8
0
 10
68.104031593142906
 20
70.77270822220305
 30
0.0
  0
VERTEX
  5
832
  8
0
 10
68.140550109857244
 20
70.783858213007335
 30
0.0
  0
VERTEX
  5
833
  8
0
 10
68.177032779693533
 20
70.795641506235143
 30
0.0
  0
VERTEX
  5
834
  8
0
 10
68.24988266549002
 20
70.821105409137886
 30
0.0
  0
VERTEX
  5
835
  8
0
 10
68.322565445208454
 20
70.849094406328391
 30
0.0
  0
VERTEX
  5
836
  8
0
 10
68.395065349779912
 20
70.879602425385798
 30
0.0
  0
VERTEX
  5
837
  8
0
 10
68.467366649811495
 20
70.912622847368738
 30
0.0
  0
VERTEX
  5
838
  8
0
 10
68.539453658999165
 20
70.948148508251421
 30
0.0
  0
VERTEX
  5
839
  8
0
 10
68.575411915176318
 20
70.966848415855651
 30
0.0
  0
VERTEX
  5
83A
  8
0
 10
68.6113107375308
 20
70.986171700477826
 30
0.0
  0
VERTEX
  5
83B
  8
0
 10
68.682922295479415
 20
71.026684174633914
 30
0.0
  0
VERTEX
  5
83C
  8
0
 10
68.754272796185546
 20
71.069677141237491
 30
0.0
  0
VERTEX
  5
83D
  8
0
 10
68.825346759628104
 20
71.115141272645133
 30
0.0
  0
VERTEX
  5
83E
  8
0
 10
68.896128765782748
 20
71.163066705075778
 30
0.0
  0
VERTEX
  5
83F
  8
0
 10
68.966603457967466
 20
71.21344304075086
 30
0.0
  0
VERTEX
  5
840
  8
0
 10
69.001720780498346
 20
71.239546902537114
 30
0.0
  0
VERTEX
  5
841
  8
0
 10
69.036755546174277
 20
71.266259350150165
 30
0.0
  0
VERTEX
  5
842
  8
0
 10
69.106569810386546
 20
71.321504174383051
 30
0.0
  0
VERTEX
  5
843
  8
0
 10
69.176031103881115
 20
71.379165527674502
 30
0.0
  0
VERTEX
  5
844
  8
0
 10
69.24512435651431
 20
71.439230899965622
 30
0.0
  0
VERTEX
  5
845
  8
0
 10
69.31383457799177
 20
71.501687259627715
 30
0.0
  0
VERTEX
  5
846
  8
0
 10
69.382146861120532
 20
71.566521056289616
 30
0.0
  0
VERTEX
  5
847
  8
0
 10
69.416149140825723
 20
71.599825117882034
 30
0.0
  0
VERTEX
  5
848
  8
0
 10
69.450046385043379
 20
71.633718223777521
 30
0.0
  0
VERTEX
  5
849
  8
0
 10
69.517518418454173
 20
71.703264183166823
 30
0.0
  0
VERTEX
  5
84A
  8
0
 10
69.58454832279412
 20
71.775143845945024
 30
0.0
  0
VERTEX
  5
84B
  8
0
 10
69.651121555427522
 20
71.849341617285319
 30
0.0
  0
VERTEX
  5
84C
  8
0
 10
69.717223672797047
 20
71.925841399430084
 30
0.0
  0
VERTEX
  5
84D
  8
0
 10
69.782840333557346
 20
72.004626595183311
 30
0.0
  0
VERTEX
  5
84E
  8
0
 10
69.81546216475337
 20
72.044870900858143
 30
0.0
  0
VERTEX
  5
84F
  8
0
 10
69.847957301686421
 20
72.085680111511564
 30
0.0
  0
VERTEX
  5
850
  8
0
 10
69.912560449574343
 20
72.168984363252434
 30
0.0
  0
VERTEX
  5
851
  8
0
 10
69.976635761088303
 20
72.254521276929637
 30
0.0
  0
VERTEX
  5
852
  8
0
 10
70.008471129394422
 20
72.298121201472611
 30
0.0
  0
VERTEX
  5
853
  8
0
 10
70.040169334613523
 20
72.342272294674416
 30
0.0
  0
VERTEX
  5
854
  8
0
 10
70.103147386069224
 20
72.432218378251633
 30
0.0
  0
VERTEX
  5
855
  8
0
 10
70.165556251899403
 20
72.524340013190283
 30
0.0
  0
VERTEX
  5
856
  8
0
 10
70.19654300402965
 20
72.571210434967043
 30
0.0
  0
VERTEX
  5
857
  8
0
 10
70.227382392036958
 20
72.618617213017373
 30
0.0
  0
VERTEX
  5
858
  8
0
 10
70.2886123928416
 20
72.715029523594154
 30
0.0
  0
VERTEX
  5
859
  8
0
 10
70.349232970009808
 20
72.813556027553631
 30
0.0
  0
VERTEX
  5
85A
  8
0
 10
70.409230971457021
 20
72.914175348838896
 30
0.0
  0
VERTEX
  5
85B
  8
0
 10
70.468593380171228
 20
73.016865657340816
 30
0.0
  0
VERTEX
  5
85C
  8
0
 10
70.527307317036815
 20
73.121604673634096
 30
0.0
  0
VERTEX
  5
85D
  8
0
 10
70.556417122197161
 20
73.174735363209834
 30
0.0
  0
VERTEX
  5
85E
  8
0
 10
70.585360043629095
 20
73.228369673811173
 30
0.0
  0
VERTEX
  5
85F
  8
0
 10
70.642738964977795
 20
73.33713749441219
 30
0.0
  0
VERTEX
  5
860
  8
0
 10
70.699431632299735
 20
73.447884537450477
 30
0.0
  0
VERTEX
  5
861
  8
0
 10
70.892275512414699
 20
73.850734855974991
 30
0.0
  0
VERTEX
  5
862
  8
0
 10
71.050371681993454
 20
74.214284648264254
 30
0.0
  0
SEQEND
  5
863
  8
0
  0
LINE
  5
440
  8
2
 10
69.938157467722021
 20
69.194869011461563
 30
0.0
 11
65.02115746772202
 21
69.194869011461563
 31
0.0
  0
LINE
  5
442
  8
2
 10
69.938157467722021
 20
56.75578464826426
 30
0.0
 11
65.02115746772202
 21
56.75578464826426
 31
0.0
  0
CIRCLE
  5
443
  8
0
 10
67.479657467722035
 20
86.214284648264254
 30
0.0
 40
4.9164240053111774
  0
LINE
  5
444
  8
2
 10
70.479657467722006
 20
56.214284648264261
 30
0.0
 11
70.479657467722035
 21
68.214284648264254
 31
0.0
  0
LINE
  5
445
  8
2
 10
70.479657467722035
 20
68.214284648264254
 30
0.0
 11
64.479657467722035
 21
68.214284648264282
 31
0.0
  0
LINE
  5
446
  8
2
 10
64.479657467722006
 20
56.214284648264282
 30
0.0
 11
64.479657467722035
 21
68.214284648264282
 31
0.0
  0
LINE
  5
447
  8
1
 10
67.479657467722035
 20
98.642213978777789
 30
0.0
 11
67.479657467722006
 21
53.786355317750733
 31
0.0
  0
LINE
  5
448
  8
1
 10
55.051728137208499
 20
86.214284648264268
 30
0.0
 11
79.907586798235542
 21
86.214284648264254
 31
0.0
  0
LINE
  5
44E
  8
1
 10
67.479657467722006
 20
130.1308250896906
 30
0.0
 11
67.479657467722006
 21
114.2749664286637
 31
0.0
  0
LINE
  5
453
  8
0
 10
70.943759082859771
 20
127.7028957591771
 30
0.0
 11
64.015555852584271
 21
127.7028957591771
 31
0.0
  0
LINE
  5
457
  8
0
 10
58.112160470124422
 20
125.7028957591771
 30
0.0
 11
76.847154465319619
 21
125.7028957591771
 31
0.0
  0
LINE
  5
45E
  8
0
 10
76.847154465319619
 20
118.7028957591771
 30
0.0
 11
58.112160470124422
 21
118.7028957591771
 31
0.0
  0
LINE
  5
462
  8
0
 10
64.015555852584271
 20
116.7028957591771
 30
0.0
 11
70.943759082859771
 21
116.7028957591771
 31
0.0
  0
ARC
  5
466
  8
0
 10
67.479657467722006
 20
122.2028957591771
 30
0.0
 40
6.5
 50
302.20422750397182
 51
327.42102960719592
  0
ARC
  5
467
  8
0
 10
67.479657467722006
 20
122.2028957591771
 30
0.0
 40
6.4999999999999973
 50
122.20422750397169
 51
147.42102960719541
  0
ARC
  5
46A
  8
0
 10
67.479657467722035
 20
122.2028957591771
 30
0.0
 40
9.9999999999999858
 50
339.51268488527683
 51
20.487315114722371
  0
ARC
  5
46B
  8
0
 10
67.479657467721978
 20
122.2028957591771
 30
0.0
 40
9.9999999999999787
 50
159.5126848852768
 51
200.48731511472241
  0
LINE
  5
46D
  8
0
 10
71.501003635362906
 20
126.7028957591771
 30
0.0
 11
63.458311300081142
 21
126.7028957591771
 31
0.0
  0
LINE
  5
46E
  8
0
 10
63.458311300081142
 20
117.7028957591771
 30
0.0
 11
71.501003635362906
 21
117.7028957591771
 31
0.0
  0
ARC
  5
471
  8
0
 10
67.479657467722092
 20
122.2028957591771
 30
0.0
 40
6.0349999999999557
 50
311.78500852133658
 51
324.55295362298602
  0
ARC
  5
472
  8
0
 10
67.479657467721978
 20
122.2028957591771
 30
0.0
 40
6.0349999999999691
 50
131.78500852133681
 51
144.5529536229856
  0
LINE
  5
498
  8
1
 10
55.051728137208499
 20
122.2028957591771
 30
0.0
 11
79.907586798235542
 21
122.2028957591771
 31
0.0
  0
LINE
  5
511
  8
0
 10
116.0730902688553
 20
91.130708653575439
 30
0.0
 11
116.0730902688553
 21
95.581781645861838
 31
0.0
  0
LINE
  5
512
  8
0
 10
109.0730902688553
 20
95.581781645861838
 30
0.0
 11
109.0730902688553
 21
91.130708653575439
 31
0.0
  0
LINE
  5
513
  8
0
 10
116.0730902688553
 20
74.214284648264254
 30
0.0
 11
116.0730902688553
 21
81.297860642953054
 31
0.0
  0
LINE
  5
514
  8
0
 10
109.0730902688553
 20
74.214284648264254
 30
0.0
 11
109.0730902688553
 21
81.297860642953054
 31
0.0
  0
LINE
  5
525
  8
0
 10
116.0730902688553
 20
91.130708653575425
 30
0.0
 11
116.0730902688553
 21
81.297860642953054
 31
0.0
  0
LINE
  5
526
  8
0
 10
109.0730902688553
 20
81.297860642953069
 30
0.0
 11
109.0730902688553
 21
91.130708653575425
 31
0.0
  0
LINE
  5
56B
  8
1
 10
55.051728137208492
 20
30.225673537351359
 30
0.0
 11
79.907586798235542
 21
30.225673537351359
 31
0.0
  0
ARC
  5
572
  8
0
 10
67.479657467721978
 20
30.225673537351291
 30
0.0
 40
9.9999999999999787
 50
159.5126848852768
 51
200.48731511472241
  0
ARC
  5
573
  8
0
 10
67.479657467722035
 20
30.225673537351291
 30
0.0
 40
9.9999999999999858
 50
339.51268488527683
 51
20.487315114722371
  0
ARC
  5
576
  8
0
 10
67.479657467722006
 20
30.225673537351291
 30
0.0
 40
6.4999999999999973
 50
122.20422750397169
 51
237.79577249602829
  0
ARC
  5
577
  8
0
 10
67.479657467722006
 20
30.225673537351291
 30
0.0
 40
6.5
 50
302.20422750397182
 51
57.795772496028242
  0
LINE
  5
579
  8
0
 10
64.015555852584271
 20
24.72567353735128
 30
0.0
 11
70.943759082859771
 21
24.72567353735128
 31
0.0
  0
LINE
  5
57B
  8
0
 10
76.847154465319619
 20
26.725673537351291
 30
0.0
 11
72.956883042773654
 21
26.725673537351291
 31
0.0
  0
LINE
  5
57E
  8
0
 10
58.112160470124408
 20
33.725673537351312
 30
0.0
 11
62.002431892670359
 21
33.725673537351312
 31
0.0
  0
LINE
  5
580
  8
0
 10
70.943759082859771
 20
35.725673537351312
 30
0.0
 11
64.015555852584271
 21
35.725673537351312
 31
0.0
  0
CIRCLE
  5
583
  8
0
 10
67.479657467722006
 20
30.225673537351291
 30
0.0
 40
2.458499999999999
  0
LINE
  5
585
  8
1
 10
67.479657467722006
 20
38.153602867864848
 30
0.0
 11
67.479657467722006
 21
22.297744206837859
 31
0.0
  0
ARC
  5
598
  8
0
 10
67.479657467721978
 20
122.2028957591771
 30
0.0
 40
6.0349999999999691
 50
215.44704637701349
 51
228.2149914786626
  0
ARC
  5
599
  8
0
 10
67.479657467722006
 20
122.2028957591771
 30
0.0
 40
6.4999999999999973
 50
212.57897039280391
 51
237.79577249602829
  0
ARC
  5
59A
  8
0
 10
67.479657467722092
 20
122.2028957591771
 30
0.0
 40
6.0349999999999557
 50
35.447046377014281
 51
48.214991478663329
  0
ARC
  5
59B
  8
0
 10
67.479657467722006
 20
122.2028957591771
 30
0.0
 40
6.5
 50
32.578970392804401
 51
57.795772496028242
  0
ARC
  5
59F
  8
0
 10
67.479657467722021
 20
122.2028957591771
 30
0.0
 40
5.0
 50
64.158067236831229
 51
115.8419327631683
  0
ARC
  5
5A0
  8
0
 10
67.479657467722021
 20
122.2028957591771
 30
0.0
 40
5.0
 50
244.1580672368342
 51
295.8419327631654
  0
LINE
  5
5AA
  8
2
 10
70.479657467722035
 20
126.7028957591771
 30
0.0
 11
70.479657467722035
 21
117.7028957591771
 31
0.0
  0
CIRCLE
  5
5C1
  8
3
 10
67.479657467722006
 20
30.225673537351359
 30
0.0
 40
3.0
  0
LINE
  5
5EE
  8
0
 10
72.956883042773654
 20
33.725673537351277
 30
0.0
 11
76.847154465319619
 21
33.725673537351277
 31
0.0
  0
LINE
  5
5EF
  8
0
 10
62.00243189267033
 20
26.725673537351309
 30
0.0
 11
58.112160470124408
 21
26.725673537351309
 31
0.0
  0
LINE
  5
60D
  8
2
 10
64.479657467721964
 20
126.7028957591771
 30
0.0
 11
64.479657467721964
 21
117.7028957591771
 31
0.0
  0
TEXT
  5
6ED
  8
0
 62
     3
 10
0.0
 20
0.0
 30
0.0
 40
10.0
  1
REJ06-M06
  7
STANDARD1
  0
ENDSEC
  0
EOF
